  0
SECTION
  2
HEADER
  0
ENDSEC
  0
SECTION
  2
TABLES
  0
TABLE
  2
LTYPE
 70
    22
  0
LTYPE
  2
CONTINUOUS
 70
    64
  3
Solid line
 72
    65
 73
     0
 40
0.000000
  0
LTYPE
  2
DASHED
 70
    64
  3
__ __ __ __ __ __ __ __ __ __ __ __ __ __ __
 72
    65
 73
     2
 40
3.500000
 49
2.000000
 49
-1.500000
  0
LTYPE
  2
CENTER
 70
    64
  3
____ _ ____ _ ____ _ ____ _ ____ _ ____ _ ____
 72
    65
 73
     4
 40
17.500000
 49
13.000000
 49
-1.500000
 49
1.500000
 49
-1.500000
  0
LTYPE
  2
PHANTOM
 70
    64
  3
_____ _ _ _____ _ _ _____ _ _ _____ _ _ ____  
 72
    65
 73
     6
 40
15.500000
 49
8.000000
 49
-1.500000
 49
1.500000
 49
-1.500000
 49
1.500000
 49
-1.500000
  0
LTYPE
  2
DOT
 70
    64
  3
. . . . . . . . . . . . . . . . . . . . . . . .
 72
    65
 73
     2
 40
0.25
 49
0.0
 49
-0.25
  0
ENDTAB
  0
TABLE
  2
LAYER
 70
     1
  0
LAYER
  2
0
 70
     0
 62
     7
  6
CONTINUOUS
  0
ENDTAB
  0
TABLE
  2
STYLE
 70
     1
  0
STYLE
  2
STANDARD
 70
     0
 40
0.000000
 41
1.000000
 50
0.000000
 71
     0
 42
0.200000
  3
txt
  4
BIGFONT
  0
ENDTAB
  0
TABLE
  2
VIEW
 70
     0
  0
ENDTAB
  0
ENDSEC
  0
SECTION
  2
BLOCKS
  0
ENDSEC
  0
SECTION
  2
ENTITIES
  0
LINE
  8
0
  6
CONTINUOUS
 62
     3
 10
480
 20
-650
 11
1095
 21
-650
  0
LINE
  8
0
  6
CONTINUOUS
 62
     7
 10
640
 20
-425
 11
665
 21
-425
  0
LINE
  8
0
  6
CONTINUOUS
 62
     7
 10
640
 20
-875
 11
665
 21
-875
  0
LINE
  8
0
  6
CONTINUOUS
 62
     7
 10
775
 20
-472.5
 11
775
 21
-827.5
  0
LINE
  8
0
  6
CONTINUOUS
 62
     7
 10
640
 20
-425
 11
640
 21
-510.2767944335938
  0
LINE
  8
0
  6
CONTINUOUS
 62
     7
 10
665
 20
-425
 11
665
 21
-875
  0
LINE
  8
0
  6
CONTINUOUS
 62
     7
 10
750
 20
-472.5
 11
750
 21
-827.5
  0
LINE
  8
0
  6
CONTINUOUS
 62
     7
 10
675
 20
-472.5
 11
775
 21
-472.5
  0
LINE
  8
0
  6
CONTINUOUS
 62
     7
 10
750
 20
-827.5
 11
775
 21
-827.5
  0
LINE
  8
0
  6
CONTINUOUS
 62
     7
 10
705.7060546875
 20
-569.9932861328125
 11
750
 21
-569.9932861328125
  0
LINE
  8
0
  6
CONTINUOUS
 62
     7
 10
705.7060546875
 20
-730.0067138671875
 11
750
 21
-730.0067138671875
  0
LINE
  8
0
  6
CONTINUOUS
 62
     7
 10
665.0001220703125
 20
-543.1932983398438
 11
699.8916625976563
 21
-568.129150390625
  0
LINE
  8
0
  6
CONTINUOUS
 62
     7
 10
665
 20
-756.8067626953125
 11
699.8916625976563
 21
-731.870849609375
  0
LINE
  8
0
  6
CONTINUOUS
 62
     7
 10
668.15771484375
 20
-793.3434448242188
 11
743.1577758789062
 21
-763.6190795898437
  0
LINE
  8
0
  6
CONTINUOUS
 62
     7
 10
668.1578369140625
 20
-814.556640625
 11
743.1577758789062
 21
-784.832275390625
  0
LINE
  8
0
  6
CONTINUOUS
 62
     7
 10
668.1578979492188
 20
-506.6565551757812
 11
743.1578369140625
 21
-536.3809204101563
  0
LINE
  8
0
  6
CONTINUOUS
 62
     7
 10
668.1578369140625
 20
-485.443359375
 11
743.1578979492188
 21
-515.167724609375
  0
LINE
  8
0
  6
CONTINUOUS
 62
     7
 10
632
 20
-475
 11
632
 21
-505.5072021484375
  0
LINE
  8
0
  6
CONTINUOUS
 62
     7
 10
632
 20
-475
 11
640
 21
-475
  0
LINE
  8
0
  6
CONTINUOUS
 62
     7
 10
632
 20
-825
 11
640
 21
-825
  0
LINE
  8
0
  6
CONTINUOUS
 62
     7
 10
500
 20
-602.5
 11
640
 21
-602.5
  0
LINE
  8
0
  6
CONTINUOUS
 62
     7
 10
500
 20
-697.5
 11
640
 21
-697.5
  0
LINE
  8
0
  6
CONTINUOUS
 62
     7
 10
500
 20
-597.5
 11
500
 21
-697.5
  0
LINE
  8
0
  6
CONTINUOUS
 62
     7
 10
632
 20
-773.54296875
 11
632
 21
-825
  0
LINE
  8
0
  6
CONTINUOUS
 62
     7
 10
640
 20
-766.47412109375
 11
640
 21
-875
  0
LINE
  8
0
  6
CONTINUOUS
 62
     7
 10
500
 20
-597.5
 11
610
 21
-597.5
  0
LINE
  8
0
  6
CONTINUOUS
 62
     7
 10
640
 20
-595
 11
640
 21
-705
  0
LINE
  8
0
  6
CONTINUOUS
 62
     7
 10
640
 20
-595
 11
644.797607421875
 21
-595
  0
LINE
  8
0
  6
CONTINUOUS
 62
     7
 10
640
 20
-705
 11
645.4757080078125
 21
-705
  0
LINE
  8
0
  6
CONTINUOUS
 62
     7
 10
718.5
 20
-435.2000122070313
 11
745.5
 21
-435.2000122070313
  0
LINE
  8
0
  6
CONTINUOUS
 62
     7
 10
723.3499755859375
 20
-435.2000122070313
 11
723.3499755859375
 21
-472.5
  0
LINE
  8
0
  6
CONTINUOUS
 62
     7
 10
740.6500244140625
 20
-435.2000122070313
 11
740.6500244140625
 21
-472.5
  0
LINE
  8
0
  6
CONTINUOUS
 62
     3
 10
732
 20
-380.53759765625
 11
732
 21
-487.5
  0
LINE
  8
0
  6
CONTINUOUS
 62
     7
 10
718.5
 20
-403.2000122070312
 11
745.5
 21
-403.2000122070312
  0
LINE
  8
0
  6
CONTINUOUS
 62
     7
 10
740.071044921875
 20
-388.550048828125
 11
723.928955078125
 21
-388.550048828125
  0
LINE
  8
0
  6
CONTINUOUS
 62
     7
 10
740.507568359375
 20
-397.550048828125
 11
723.492431640625
 21
-397.550048828125
  0
LINE
  8
0
  6
CONTINUOUS
 62
     7
 10
740.507568359375
 20
-397.5500183105469
 11
740.3309936523437
 21
-403.1999816894531
  0
LINE
  8
0
  6
CONTINUOUS
 62
     7
 10
723.4924926757812
 20
-397.550048828125
 11
723.6690673828125
 21
-403.2000122070312
  0
LINE
  8
0
  6
CONTINUOUS
 62
     7
 10
740.071044921875
 20
-388.550048828125
 11
740.071044921875
 21
-397.550048828125
  0
LINE
  8
0
  6
CONTINUOUS
 62
     7
 10
723.928955078125
 20
-388.550048828125
 11
723.928955078125
 21
-397.550048828125
  0
LINE
  8
0
  6
CONTINUOUS
 62
     7
 10
745.5
 20
-403.2000122070312
 11
745.5
 21
-435.2000122070313
  0
LINE
  8
0
  6
CONTINUOUS
 62
     7
 10
718.5
 20
-403.2000122070312
 11
718.5
 21
-435.2000122070313
  0
LINE
  8
0
  6
CONTINUOUS
 62
     3
 10
723.9288940429687
 20
-397.550048828125
 11
731.9999389648437
 21
-388.550048828125
  0
LINE
  8
0
  6
CONTINUOUS
 62
     7
 10
732
 20
-388.550048828125
 11
732
 21
-397.550048828125
  0
LINE
  8
0
  6
CONTINUOUS
 62
     3
 10
732.0000610351563
 20
-397.5500793457031
 11
740.0711059570313
 21
-388.550048828125
  0
LINE
  8
0
  6
CONTINUOUS
 62
     3
 10
740.071044921875
 20
-397.5500183105469
 11
732
 21
-388.5499877929688
  0
LINE
  8
0
  6
CONTINUOUS
 62
     3
 10
723.9290771484375
 20
-388.5499877929688
 11
732.0001220703125
 21
-397.5500183105469
  0
LINE
  8
0
  6
CONTINUOUS
 62
     7
 10
610
 20
-597.5
 11
610
 21
-602.5
  0
LINE
  8
0
  6
CONTINUOUS
 62
     7
 10
780
 20
-830
 11
850
 21
-830
  0
LINE
  8
0
  6
CONTINUOUS
 62
     7
 10
780
 20
-470
 11
850
 21
-470
  0
LINE
  8
0
  6
CONTINUOUS
 62
     7
 10
774.9999389648438
 20
-475.0000305175781
 11
780
 21
-470.0000305175781
  0
LINE
  8
0
  6
CONTINUOUS
 62
     7
 10
849.9999389648437
 20
-470.0000610351563
 11
854.9999389648437
 21
-475.0000915527344
  0
LINE
  8
0
  6
CONTINUOUS
 62
     7
 10
775
 20
-825
 11
780
 21
-830.0000610351563
  0
LINE
  8
0
  6
CONTINUOUS
 62
     7
 10
850
 20
-830.0000610351563
 11
855
 21
-825.0000610351563
  0
LINE
  8
0
  6
CONTINUOUS
 62
     7
 10
789.0001220703125
 20
-460
 11
821.0000610351562
 21
-460
  0
LINE
  8
0
  6
CONTINUOUS
 62
     7
 10
785.3602905273437
 20
-469.9999694824219
 11
788.9999389648438
 21
-460.0000305175781
  0
LINE
  8
0
  6
CONTINUOUS
 62
     7
 10
824.6397705078125
 20
-470
 11
821.0000610351562
 21
-459.9999694824219
  0
LINE
  8
0
  6
CONTINUOUS
 62
     7
 10
780
 20
-477.0777587890625
 11
850
 21
-477.0777587890625
  0
LINE
  8
0
  6
CONTINUOUS
 62
     7
 10
780
 20
-515.5732421875
 11
850
 21
-515.5732421875
  0
LINE
  8
0
  6
CONTINUOUS
 62
     7
 10
780
 20
-530.2942504882813
 11
850
 21
-530.2942504882813
  0
LINE
  8
0
  6
CONTINUOUS
 62
     7
 10
780
 20
-545.9464111328125
 11
850
 21
-545.9464111328125
  0
LINE
  8
0
  6
CONTINUOUS
 62
     7
 10
780
 20
-563.0659790039062
 11
850
 21
-563.0659790039062
  0
LINE
  8
0
  6
CONTINUOUS
 62
     7
 10
780
 20
-600.02099609375
 11
850
 21
-600.02099609375
  0
LINE
  8
0
  6
CONTINUOUS
 62
     7
 10
780
 20
-619.71923828125
 11
850
 21
-619.71923828125
  0
LINE
  8
0
  6
CONTINUOUS
 62
     7
 10
780
 20
-639.5905151367188
 11
850
 21
-639.5905151367188
  0
LINE
  8
0
  6
CONTINUOUS
 62
     7
 10
780
 20
-660.4093627929687
 11
850
 21
-660.4093627929687
  0
LINE
  8
0
  6
CONTINUOUS
 62
     7
 10
780
 20
-680.28076171875
 11
850
 21
-680.28076171875
  0
LINE
  8
0
  6
CONTINUOUS
 62
     7
 10
780
 20
-699.9788208007813
 11
850
 21
-699.9788208007813
  0
LINE
  8
0
  6
CONTINUOUS
 62
     7
 10
780
 20
-736.9341430664063
 11
850
 21
-736.9341430664063
  0
LINE
  8
0
  6
CONTINUOUS
 62
     7
 10
780
 20
-754.0533447265625
 11
850
 21
-754.0533447265625
  0
LINE
  8
0
  6
CONTINUOUS
 62
     7
 10
780
 20
-769.7055053710938
 11
850
 21
-769.7055053710938
  0
LINE
  8
0
  6
CONTINUOUS
 62
     7
 10
780
 20
-784.4265747070313
 11
850
 21
-784.4265747070313
  0
LINE
  8
0
  6
CONTINUOUS
 62
     7
 10
780
 20
-796.8770141601563
 11
850
 21
-796.8770141601563
  0
LINE
  8
0
  6
CONTINUOUS
 62
     7
 10
780
 20
-807.6148681640625
 11
850
 21
-807.6148681640625
  0
LINE
  8
0
  6
CONTINUOUS
 62
     7
 10
780
 20
-822.92236328125
 11
850
 21
-822.92236328125
  0
LINE
  8
0
  6
CONTINUOUS
 62
     7
 10
792.5
 20
-457
 11
793.7954711914063
 21
-449.6527099609375
  0
LINE
  8
0
  6
CONTINUOUS
 62
     7
 10
816.2044067382812
 20
-449.6527404785156
 11
817.4999389648437
 21
-457.0000610351563
  0
LINE
  8
0
  6
CONTINUOUS
 62
     7
 10
795.76513671875
 20
-448
 11
814.23486328125
 21
-448
  0
LINE
  8
0
  6
CONTINUOUS
 62
     7
 10
795.341796875
 20
-448.0452880859375
 11
804.57666015625
 21
-446.0452880859375
  0
LINE
  8
0
  6
CONTINUOUS
 62
     7
 10
805.42333984375
 20
-446.0453186035156
 11
814.658203125
 21
-448.0453186035156
  0
LINE
  8
0
  6
CONTINUOUS
 62
     7
 10
792.5
 20
-457
 11
792.5
 21
-460
  0
LINE
  8
0
  6
CONTINUOUS
 62
     7
 10
817.5
 20
-457.0000305175781
 11
817.5
 21
-460
  0
LINE
  8
0
  6
CONTINUOUS
 62
     7
 10
855
 20
-466.2999877929688
 11
855
 21
-833.7000122070312
  0
LINE
  8
0
  6
CONTINUOUS
 62
     7
 10
1002
 20
-535
 11
1002
 21
-612
  0
LINE
  8
0
  6
CONTINUOUS
 62
     7
 10
976.1124267578125
 20
-480.0697326660156
 11
912.7383422851562
 21
-476.7484436035156
  0
LINE
  8
0
  6
CONTINUOUS
 62
     7
 10
976.112548828125
 20
-819.9303588867188
 11
912.7384033203125
 21
-823.2516479492187
  0
LINE
  8
0
  6
CONTINUOUS
 62
     7
 10
1002
 20
-765
 11
996.499755859375
 21
-765
  0
LINE
  8
0
  6
CONTINUOUS
 62
     7
 10
1002
 20
-535
 11
996.499755859375
 21
-535
  0
LINE
  8
0
  6
CONTINUOUS
 62
     7
 10
993.5491943359375
 20
-532.5411987304688
 11
985.4251708984375
 21
-488.2516784667969
  0
LINE
  8
0
  6
CONTINUOUS
 62
     7
 10
993.5491333007813
 20
-767.458740234375
 11
985.4251098632812
 21
-811.748291015625
  0
LINE
  8
0
  6
CONTINUOUS
 62
     7
 10
994
 20
-535
 11
994
 21
-765
  0
LINE
  8
0
  6
CONTINUOUS
 62
     7
 10
908
 20
-470.5
 11
908
 21
-829.5
  0
LINE
  8
0
  6
CONTINUOUS
 62
     7
 10
1077
 20
-622.5
 11
1077
 21
-674
  0
LINE
  8
0
  6
CONTINUOUS
 62
     7
 10
1077
 20
-626
 11
1007
 21
-626
  0
LINE
  8
0
  6
CONTINUOUS
 62
     7
 10
1077
 20
-674
 11
1007
 21
-674
  0
LINE
  8
0
  6
CONTINUOUS
 62
     7
 10
1007
 20
-612
 11
1002
 21
-612
  0
LINE
  8
0
  6
CONTINUOUS
 62
     7
 10
1007
 20
-688
 11
1002
 21
-688
  0
LINE
  8
0
  6
CONTINUOUS
 62
     7
 10
1077
 20
-622.5
 11
1007
 21
-622.5
  0
LINE
  8
0
  6
CONTINUOUS
 62
     7
 10
1007
 20
-612
 11
1007
 21
-688
  0
LINE
  8
0
  6
CONTINUOUS
 62
     7
 10
903.7999877929688
 20
-833.7000122070312
 11
855
 21
-833.7000122070312
  0
LINE
  8
0
  6
CONTINUOUS
 62
     7
 10
903.7999877929688
 20
-466.2999877929688
 11
897.5
 21
-466.2999877929688
  0
LINE
  8
0
  6
CONTINUOUS
 62
     7
 10
1002
 20
-688
 11
1002
 21
-765
  0
LINE
  8
0
  6
CONTINUOUS
 62
     7
 10
832.9999389648438
 20
-641.5145874023438
 11
824.5146484375
 21
-649.9998779296875
  0
LINE
  8
0
  6
CONTINUOUS
 62
     7
 10
841.4852905273437
 20
-649.9999389648438
 11
833.0000610351563
 21
-641.5146484375
  0
LINE
  8
0
  6
CONTINUOUS
 62
     3
 10
833
 20
-639.492431640625
 11
833
 21
-660.507568359375
  0
LINE
  8
0
  6
CONTINUOUS
 62
     7
 10
833.0000610351563
 20
-658.4853515625
 11
824.5147705078125
 21
-650.0001220703125
  0
LINE
  8
0
  6
CONTINUOUS
 62
     7
 10
841.4851684570312
 20
-649.9999389648438
 11
832.9998779296875
 21
-658.4852905273438
  0
LINE
  8
0
  6
CONTINUOUS
 62
     7
 10
870.5
 20
-454.1337890625
 11
870.5
 21
-473.7341918945312
  0
LINE
  8
0
  6
CONTINUOUS
 62
     7
 10
868
 20
-437.25
 11
868
 21
-452.9385986328125
  0
LINE
  8
0
  6
CONTINUOUS
 62
     3
 10
941.0147705078125
 20
-421.25
 11
864.741455078125
 21
-421.25
  0
LINE
  8
0
  6
CONTINUOUS
 62
     3
 10
884
 20
-401.0621337890625
 11
884
 21
-484.5614013671875
  0
LINE
  8
0
  6
CONTINUOUS
 62
     7
 10
900
 20
-405.25
 11
916
 21
-405.25
  0
LINE
  8
0
  6
CONTINUOUS
 62
     7
 10
916
 20
-405.25
 11
916
 21
-437.25
  0
LINE
  8
0
  6
CONTINUOUS
 62
     7
 10
905
 20
-437.25
 11
916
 21
-437.25
  0
LINE
  8
0
  6
CONTINUOUS
 62
     7
 10
900
 20
-442.25
 11
900
 21
-452.9385986328125
  0
LINE
  8
0
  6
CONTINUOUS
 62
     7
 10
897.5
 20
-454.1337280273438
 11
897.5
 21
-473.7341918945312
  0
LINE
  8
0
  6
CONTINUOUS
 62
     7
 10
924.0000610351563
 20
-434.7034301757813
 11
916.0000610351563
 21
-434.4534301757813
  0
LINE
  8
0
  6
CONTINUOUS
 62
     7
 10
924
 20
-434.7034301757813
 11
924
 21
-407.7965698242188
  0
LINE
  8
0
  6
CONTINUOUS
 62
     7
 10
924
 20
-407.7965698242188
 11
916
 21
-408.0465698242188
  0
LINE
  8
0
  6
CONTINUOUS
 62
     7
 10
924
 20
-409.3461608886719
 11
935
 21
-409.3461608886719
  0
LINE
  8
0
  6
CONTINUOUS
 62
     7
 10
935
 20
-433.15380859375
 11
935
 21
-409.3461608886719
  0
LINE
  8
0
  6
CONTINUOUS
 62
     7
 10
924
 20
-433.15380859375
 11
935
 21
-433.15380859375
  0
LINE
  8
0
  6
CONTINUOUS
 62
     7
 10
870.5
 20
-466.2999877929688
 11
855
 21
-466.2999877929688
  0
LINE
  8
0
  6
CONTINUOUS
 62
     7
 10
935
 20
-421.25
 11
924
 21
-421.25
  0
LINE
  8
0
  6
CONTINUOUS
 62
     3
 10
924
 20
-421.25
 11
935
 21
-409.3461608886719
  0
LINE
  8
0
  6
CONTINUOUS
 62
     3
 10
924
 20
-409.3461608886719
 11
935
 21
-421.25
  0
LINE
  8
0
  6
CONTINUOUS
 62
     3
 10
935
 20
-421.25
 11
924
 21
-433.1538391113281
  0
LINE
  8
0
  6
CONTINUOUS
 62
     3
 10
935
 20
-433.15380859375
 11
924
 21
-421.25
  0
LINE
  8
0
  6
CONTINUOUS
 62
     3
 10
0
 20
-368.550048828125
 11
0
 21
-895
  0
LINE
  8
0
  6
CONTINUOUS
 62
     3
 10
-245
 20
-650
 11
245
 21
-650
  0
LINE
  8
0
  6
CONTINUOUS
 62
     7
 10
-12.5
 20
-597.5
 11
-12.5
 21
-611.5
  0
LINE
  8
0
  6
CONTINUOUS
 62
     7
 10
12.5
 20
-597.5
 11
12.5
 21
-611.5
  0
LINE
  8
0
  6
CONTINUOUS
 62
     3
 10
172.4159393310547
 20
-721.4176025390625
 11
195.4671478271484
 21
-730.9656982421875
  0
LINE
  8
0
  6
CONTINUOUS
 62
     3
 10
172.4160614013672
 20
-578.5828857421875
 11
195.4672698974609
 21
-569.0347290039063
  0
LINE
  8
0
  6
CONTINUOUS
 62
     3
 10
71.41724395751953
 20
-477.5839233398438
 11
80.96536254882813
 21
-454.53271484375
  0
LINE
  8
0
  6
CONTINUOUS
 62
     3
 10
-71.41691589355469
 20
-477.5837707519531
 11
-80.96503448486328
 21
-454.5325927734375
  0
LINE
  8
0
  6
CONTINUOUS
 62
     3
 10
-172.4159698486328
 20
-578.5826416015625
 11
-195.4671783447266
 21
-569.0345458984375
  0
LINE
  8
0
  6
CONTINUOUS
 62
     3
 10
-172.4162139892578
 20
-721.4169311523438
 11
-195.4674224853516
 21
-730.9650268554688
  0
LINE
  8
0
  6
CONTINUOUS
 62
     3
 10
-71.41748046875
 20
-822.4158935546875
 11
-80.96560668945312
 21
-845.4671020507812
  0
LINE
  8
0
  6
CONTINUOUS
 62
     3
 10
71.4166259765625
 20
-822.4163208007812
 11
80.96473693847656
 21
-845.467529296875
  0
LINE
  8
0
  6
CONTINUOUS
 62
     7
 10
-12.5
 20
-611.5
 11
12.5
 21
-611.5
  0
LINE
  8
0
  6
CONTINUOUS
 62
     7
 10
-12.5
 20
-597.5
 11
12.5
 21
-597.5
  0
LINE
  8
0
  6
CONTINUOUS
 62
     3
 10
63.84322357177734
 20
-539.4204711914063
 11
52.58012390136719
 21
-558.9287109375
  0
LINE
  8
0
  6
CONTINUOUS
 62
     3
 10
-63.84307861328125
 20
-539.4204711914063
 11
-52.57998657226562
 21
-558.9287109375
  0
LINE
  8
0
  6
CONTINUOUS
 62
     3
 10
-63.84303283691406
 20
-760.5795288085938
 11
-52.57994079589844
 21
-741.0712890625
  0
LINE
  8
0
  6
CONTINUOUS
 62
     3
 10
63.84317398071289
 20
-760.5795288085938
 11
52.58005142211914
 21
-741.0712280273437
  0
LINE
  8
0
  6
CONTINUOUS
 62
     7
 10
-13.5
 20
-403.2000122070312
 11
13.5
 21
-403.2000122070312
  0
LINE
  8
0
  6
CONTINUOUS
 62
     7
 10
8.071044921875
 20
-388.550048828125
 11
-8.071044921875
 21
-388.550048828125
  0
LINE
  8
0
  6
CONTINUOUS
 62
     7
 10
8.507568359375
 20
-397.550048828125
 11
-8.507568359375
 21
-397.550048828125
  0
LINE
  8
0
  6
CONTINUOUS
 62
     7
 10
8.507541656494141
 20
-397.5499877929688
 11
8.33098030090332
 21
-403.1999816894531
  0
LINE
  8
0
  6
CONTINUOUS
 62
     7
 10
-8.507637977600098
 20
-397.550048828125
 11
-8.331076622009277
 21
-403.2000122070312
  0
LINE
  8
0
  6
CONTINUOUS
 62
     7
 10
8.071044921875
 20
-388.550048828125
 11
8.071044921875
 21
-397.550048828125
  0
LINE
  8
0
  6
CONTINUOUS
 62
     7
 10
-8.071044921875
 20
-388.550048828125
 11
-8.071044921875
 21
-397.550048828125
  0
LINE
  8
0
  6
CONTINUOUS
 62
     7
 10
13.5
 20
-403.2000122070312
 11
13.5
 21
-425.4053649902344
  0
LINE
  8
0
  6
CONTINUOUS
 62
     7
 10
-13.5
 20
-403.2000122070312
 11
-13.5
 21
-425.4053649902344
  0
LINE
  8
0
  6
CONTINUOUS
 62
     3
 10
-8.071027755737305
 20
-388.5500793457031
 11
6.960085011087358E-05
 21
-397.5501403808594
  0
LINE
  8
0
  6
CONTINUOUS
 62
     3
 10
-8.071127891540527
 20
-397.5499572753906
 11
-9.175168088404462E-05
 21
-388.5499572753906
  0
LINE
  8
0
  6
CONTINUOUS
 62
     3
 10
1.189822069136426E-05
 20
-397.550048828125
 11
8.071047782897949
 21
-388.550048828125
  0
LINE
  8
0
  6
CONTINUOUS
 62
     3
 10
8.071084976196289
 20
-397.5501403808594
 11
-1.283270830754191E-05
 21
-388.5500793457031
  0
LINE
  8
0
  6
CONTINUOUS
 62
     7
 10
0
 20
-388.550048828125
 11
0
 21
-397.550048828125
  0
LINE
  8
0
  6
CONTINUOUS
 62
     3
 10
35.32983016967773
 20
-398.6151733398437
 11
31.31394577026367
 21
-427.189697265625
  0
LINE
  8
0
  6
CONTINUOUS
 62
     7
 10
47.99327087402344
 20
-423.474853515625
 11
47.07895660400391
 21
-429.9805297851562
  0
LINE
  8
0
  6
CONTINUOUS
 62
     7
 10
16.3046989440918
 20
-419.0213317871094
 11
15.39037990570068
 21
-425.5270385742188
  0
LINE
  8
0
  6
CONTINUOUS
 62
     3
 10
480
 20
0
 11
1095
 21
0
  0
LINE
  8
0
  6
CONTINUOUS
 62
     7
 10
640
 20
225
 11
665
 21
225
  0
LINE
  8
0
  6
CONTINUOUS
 62
     7
 10
640
 20
-225
 11
665
 21
-225
  0
LINE
  8
0
  6
CONTINUOUS
 62
     7
 10
640
 20
225
 11
640
 21
97.62188720703125
  0
LINE
  8
0
  6
CONTINUOUS
 62
     7
 10
665
 20
225
 11
665
 21
-225
  0
LINE
  8
0
  6
CONTINUOUS
 62
     7
 10
750
 20
177.5
 11
750
 21
30
  0
LINE
  8
0
  6
CONTINUOUS
 62
     7
 10
750
 20
177.5
 11
775
 21
177.5
  0
LINE
  8
0
  6
CONTINUOUS
 62
     7
 10
750
 20
-177.5
 11
775
 21
-177.5
  0
LINE
  8
0
  6
CONTINUOUS
 62
     7
 10
665
 20
30
 11
750
 21
30
  0
LINE
  8
0
  6
CONTINUOUS
 62
     7
 10
665
 20
-30
 11
750
 21
-30
  0
LINE
  8
0
  6
CONTINUOUS
 62
     7
 10
705.7060546875
 20
-80.00677490234375
 11
750
 21
-80.00677490234375
  0
LINE
  8
0
  6
CONTINUOUS
 62
     7
 10
705.7060546875
 20
80.0068359375
 11
750
 21
80.0068359375
  0
LINE
  8
0
  6
CONTINUOUS
 62
     7
 10
664.9999389648438
 20
106.8068923950195
 11
699.8916015625
 21
81.87101745605469
  0
LINE
  8
0
  6
CONTINUOUS
 62
     7
 10
664.9999389648438
 20
-106.8067932128906
 11
699.8915405273437
 21
-81.87088012695313
  0
LINE
  8
0
  6
CONTINUOUS
 62
     7
 10
668.1578369140625
 20
164.5565795898437
 11
743.1578979492188
 21
134.8322296142578
  0
LINE
  8
0
  6
CONTINUOUS
 62
     7
 10
668.1578369140625
 20
143.3435974121094
 11
743.1578369140625
 21
113.6192398071289
  0
LINE
  8
0
  6
CONTINUOUS
 62
     7
 10
668.1577758789063
 20
-143.3432922363281
 11
743.1577758789062
 21
-113.6189270019531
  0
LINE
  8
0
  6
CONTINUOUS
 62
     7
 10
668.15771484375
 20
-164.5566558837891
 11
743.1577758789062
 21
-134.8323059082031
  0
LINE
  8
0
  6
CONTINUOUS
 62
     7
 10
632
 20
175
 11
632
 21
110.2680053710938
  0
LINE
  8
0
  6
CONTINUOUS
 62
     7
 10
632
 20
175
 11
640
 21
175
  0
LINE
  8
0
  6
CONTINUOUS
 62
     7
 10
632
 20
-175
 11
640
 21
-175
  0
LINE
  8
0
  6
CONTINUOUS
 62
     7
 10
500
 20
47.5
 11
640
 21
47.5
  0
LINE
  8
0
  6
CONTINUOUS
 62
     7
 10
500
 20
-47.5
 11
640
 21
-47.5
  0
LINE
  8
0
  6
CONTINUOUS
 62
     7
 10
500
 20
12.5
 11
617.5
 21
12.5
  0
LINE
  8
0
  6
CONTINUOUS
 62
     7
 10
500
 20
-12.5
 11
617.5
 21
-12.5
  0
LINE
  8
0
  6
CONTINUOUS
 62
     7
 10
500
 20
47.5
 11
500
 21
-47.5
  0
LINE
  8
0
  6
CONTINUOUS
 62
     7
 10
640
 20
55
 11
640
 21
-55
  0
LINE
  8
0
  6
CONTINUOUS
 62
     7
 10
640
 20
55
 11
648.6505126953125
 21
55
  0
LINE
  8
0
  6
CONTINUOUS
 62
     7
 10
640
 20
-55
 11
647.232177734375
 21
-55
  0
LINE
  8
0
  6
CONTINUOUS
 62
     7
 10
632
 20
-126.021484375
 11
632
 21
-175
  0
LINE
  8
0
  6
CONTINUOUS
 62
     7
 10
640
 20
-105.905029296875
 11
640
 21
-225
  0
LINE
  8
0
  6
CONTINUOUS
 62
     7
 10
732.0001220703125
 20
8.485197067260742
 11
723.5148315429688
 21
-8.357845217688009E-05
  0
LINE
  8
0
  6
CONTINUOUS
 62
     7
 10
740.4854125976563
 20
2.092529575747903E-05
 11
732.000244140625
 21
8.485215187072754
  0
LINE
  8
0
  6
CONTINUOUS
 62
     7
 10
731.9998779296875
 20
-8.485365867614746
 11
723.5147094726563
 21
-0.0001698951818980277
  0
LINE
  8
0
  6
CONTINUOUS
 62
     7
 10
740.4853515625
 20
-1.896361027320381E-05
 11
732
 21
-8.485342025756836
  0
LINE
  8
0
  6
CONTINUOUS
 62
     3
 10
732
 20
15.7276611328125
 11
732
 21
-15.8309326171875
  0
LINE
  8
0
  6
CONTINUOUS
 62
     7
 10
750
 20
-30
 11
750
 21
-177.5
  0
LINE
  8
0
  6
CONTINUOUS
 62
     7
 10
610
 20
12.5
 11
610
 21
-12.5
  0
LINE
  8
0
  6
CONTINUOUS
 62
     7
 10
775
 20
177.5
 11
775
 21
-177.5
  0
LINE
  8
0
  6
CONTINUOUS
 62
     7
 10
780
 20
-180
 11
850
 21
-180
  0
LINE
  8
0
  6
CONTINUOUS
 62
     7
 10
780
 20
180
 11
850
 21
180
  0
LINE
  8
0
  6
CONTINUOUS
 62
     7
 10
775
 20
175
 11
780
 21
179.9999847412109
  0
LINE
  8
0
  6
CONTINUOUS
 62
     7
 10
849.9999389648437
 20
179.9999694824219
 11
854.9999389648437
 21
174.9999847412109
  0
LINE
  8
0
  6
CONTINUOUS
 62
     7
 10
774.9999389648438
 20
-174.9999542236328
 11
780
 21
-179.9999847412109
  0
LINE
  8
0
  6
CONTINUOUS
 62
     7
 10
850
 20
-180.0000152587891
 11
855
 21
-175.0000305175781
  0
LINE
  8
0
  6
CONTINUOUS
 62
     7
 10
780
 20
172.9221801757813
 11
850
 21
172.9221801757813
  0
LINE
  8
0
  6
CONTINUOUS
 62
     7
 10
780
 20
157.6149291992188
 11
850
 21
157.6149291992188
  0
LINE
  8
0
  6
CONTINUOUS
 62
     7
 10
780
 20
146.8772583007812
 11
850
 21
146.8772583007812
  0
LINE
  8
0
  6
CONTINUOUS
 62
     7
 10
780
 20
134.4267578125
 11
850
 21
134.4267578125
  0
LINE
  8
0
  6
CONTINUOUS
 62
     7
 10
780
 20
119.7057495117187
 11
850
 21
119.7057495117187
  0
LINE
  8
0
  6
CONTINUOUS
 62
     7
 10
780
 20
49.97906494140625
 11
850
 21
49.97906494140625
  0
LINE
  8
0
  6
CONTINUOUS
 62
     7
 10
780
 20
29.99993896484375
 11
850
 21
29.99993896484375
  0
LINE
  8
0
  6
CONTINUOUS
 62
     7
 10
780
 20
-29.99993896484375
 11
850
 21
-29.99993896484375
  0
LINE
  8
0
  6
CONTINUOUS
 62
     7
 10
780
 20
-49.97900390625
 11
850
 21
-49.97900390625
  0
LINE
  8
0
  6
CONTINUOUS
 62
     7
 10
780
 20
-119.7056274414063
 11
850
 21
-119.7056274414063
  0
LINE
  8
0
  6
CONTINUOUS
 62
     7
 10
780
 20
-134.4266357421875
 11
850
 21
-134.4266357421875
  0
LINE
  8
0
  6
CONTINUOUS
 62
     7
 10
780
 20
-146.8770446777344
 11
850
 21
-146.8770446777344
  0
LINE
  8
0
  6
CONTINUOUS
 62
     7
 10
780
 20
-157.6150207519531
 11
850
 21
-157.6150207519531
  0
LINE
  8
0
  6
CONTINUOUS
 62
     7
 10
780
 20
-172.9222412109375
 11
850
 21
-172.9222412109375
  0
LINE
  8
0
  6
CONTINUOUS
 62
     7
 10
785
 20
5
 11
825
 21
5
  0
LINE
  8
0
  6
CONTINUOUS
 62
     7
 10
785
 20
-5
 11
825
 21
-5
  0
LINE
  8
0
  6
CONTINUOUS
 62
     7
 10
855
 20
-183.7000122070312
 11
855
 21
183.7000122070312
  0
LINE
  8
0
  6
CONTINUOUS
 62
     7
 10
1002
 20
-115
 11
1002
 21
-38
  0
LINE
  8
0
  6
CONTINUOUS
 62
     7
 10
976.1124877929687
 20
-169.9302368164062
 11
912.7383422851562
 21
-173.2515411376953
  0
LINE
  8
0
  6
CONTINUOUS
 62
     7
 10
976.1126098632812
 20
169.9304504394531
 11
912.7384033203125
 21
173.2517547607422
  0
LINE
  8
0
  6
CONTINUOUS
 62
     7
 10
1002
 20
115
 11
996.499755859375
 21
115
  0
LINE
  8
0
  6
CONTINUOUS
 62
     7
 10
1002
 20
-115
 11
996.499755859375
 21
-115
  0
LINE
  8
0
  6
CONTINUOUS
 62
     7
 10
993.5492553710937
 20
-117.4589080810547
 11
985.42529296875
 21
-161.7483673095703
  0
LINE
  8
0
  6
CONTINUOUS
 62
     7
 10
993.5491333007813
 20
117.4587631225586
 11
985.4251708984375
 21
161.748291015625
  0
LINE
  8
0
  6
CONTINUOUS
 62
     7
 10
994
 20
-115
 11
994
 21
115
  0
LINE
  8
0
  6
CONTINUOUS
 62
     7
 10
908
 20
-179.5
 11
908
 21
-48.14899444580078
  0
LINE
  8
0
  6
CONTINUOUS
 62
     7
 10
1077
 20
-24
 11
1077
 21
24
  0
LINE
  8
0
  6
CONTINUOUS
 62
     7
 10
1077
 20
-24
 11
1007
 21
-24
  0
LINE
  8
0
  6
CONTINUOUS
 62
     7
 10
1077
 20
24
 11
1007
 21
24
  0
LINE
  8
0
  6
CONTINUOUS
 62
     7
 10
1007
 20
-38
 11
1002
 21
-38
  0
LINE
  8
0
  6
CONTINUOUS
 62
     7
 10
1007
 20
38
 11
1002
 21
38
  0
LINE
  8
0
  6
CONTINUOUS
 62
     7
 10
1077
 20
-7
 11
1007
 21
-7
  0
LINE
  8
0
  6
CONTINUOUS
 62
     7
 10
1077
 20
7
 11
1007
 21
7
  0
LINE
  8
0
  6
CONTINUOUS
 62
     7
 10
903.7999877929688
 20
183.7000122070312
 11
855
 21
183.7000122070312
  0
LINE
  8
0
  6
CONTINUOUS
 62
     7
 10
903.7999877929688
 20
-183.7000122070312
 11
855
 21
-183.7000122070312
  0
LINE
  8
0
  6
CONTINUOUS
 62
     7
 10
1007
 20
-38
 11
1007
 21
38
  0
LINE
  8
0
  6
CONTINUOUS
 62
     7
 10
1002
 20
38
 11
1002
 21
115
  0
LINE
  8
0
  6
CONTINUOUS
 62
     3
 10
833
 20
-169.9926300048828
 11
833
 21
-201.6517486572266
  0
LINE
  8
0
  6
CONTINUOUS
 62
     7
 10
824.928955078125
 20
-194.6500091552734
 11
841.071044921875
 21
-194.6500091552734
  0
LINE
  8
0
  6
CONTINUOUS
 62
     7
 10
824.492431640625
 20
-185.6500091552734
 11
841.507568359375
 21
-185.6500091552734
  0
LINE
  8
0
  6
CONTINUOUS
 62
     7
 10
824.492431640625
 20
-185.6500244140625
 11
824.6690063476562
 21
-180.0000152587891
  0
LINE
  8
0
  6
CONTINUOUS
 62
     7
 10
841.507568359375
 20
-185.6500091552734
 11
841.3310546875
 21
-180.0000152587891
  0
LINE
  8
0
  6
CONTINUOUS
 62
     7
 10
824.928955078125
 20
-194.6500091552734
 11
824.928955078125
 21
-185.6500091552734
  0
LINE
  8
0
  6
CONTINUOUS
 62
     7
 10
841.071044921875
 20
-194.6500091552734
 11
841.071044921875
 21
-185.6500091552734
  0
LINE
  8
0
  6
CONTINUOUS
 62
     7
 10
833
 20
-194.6500701904297
 11
833
 21
-185.6500701904297
  0
LINE
  8
0
  6
CONTINUOUS
 62
     3
 10
824.928955078125
 20
-185.6500854492187
 11
832.9999389648438
 21
-194.6500244140625
  0
LINE
  8
0
  6
CONTINUOUS
 62
     3
 10
824.9288940429687
 20
-194.6499481201172
 11
832.9999389648438
 21
-185.6499481201172
  0
LINE
  8
0
  6
CONTINUOUS
 62
     3
 10
833
 20
-185.6500701904297
 11
841.0709838867188
 21
-194.6500244140625
  0
LINE
  8
0
  6
CONTINUOUS
 62
     3
 10
832.9999389648438
 20
-194.6499786376953
 11
841.0709838867188
 21
-185.6499786376953
  0
LINE
  8
0
  6
CONTINUOUS
 62
     7
 10
900
 20
-48.14899444580078
 11
916
 21
-48.14899444580078
  0
LINE
  8
0
  6
CONTINUOUS
 62
     7
 10
916
 20
-16.14899826049805
 11
916
 21
-48.14899444580078
  0
LINE
  8
0
  6
CONTINUOUS
 62
     3
 10
884
 20
-49.59356689453125
 11
884
 21
-7.645219802856445
  0
LINE
  8
0
  6
CONTINUOUS
 62
     3
 10
861.1593627929688
 20
-32.14899826049805
 11
939.1710205078125
 21
-32.14899826049805
  0
LINE
  8
0
  6
CONTINUOUS
 62
     7
 10
935
 20
-44.05283355712891
 11
935
 21
-20.24515724182129
  0
LINE
  8
0
  6
CONTINUOUS
 62
     7
 10
924
 20
-45.60243225097656
 11
924
 21
-18.69556045532227
  0
LINE
  8
0
  6
CONTINUOUS
 62
     7
 10
923.9999389648438
 20
-45.60243606567383
 11
915.9999389648438
 21
-45.35243606567383
  0
LINE
  8
0
  6
CONTINUOUS
 62
     7
 10
924
 20
-18.6955623626709
 11
916
 21
-18.9455623626709
  0
LINE
  8
0
  6
CONTINUOUS
 62
     7
 10
924
 20
-20.24515724182129
 11
935
 21
-20.24515724182129
  0
LINE
  8
0
  6
CONTINUOUS
 62
     7
 10
924
 20
-44.05283355712891
 11
935
 21
-44.05283355712891
  0
LINE
  8
0
  6
CONTINUOUS
 62
     7
 10
896.771484375
 20
-16.14899826049805
 11
916
 21
-16.14899826049805
  0
LINE
  8
0
  6
CONTINUOUS
 62
     7
 10
868
 20
-29.92222785949707
 11
868
 21
-27.69545745849609
  0
LINE
  8
0
  6
CONTINUOUS
 62
     7
 10
908
 20
-16.14899826049805
 11
908
 21
179.5
  0
LINE
  8
0
  6
CONTINUOUS
 62
     3
 10
924
 20
-20.24515724182129
 11
935
 21
-32.14899826049805
  0
LINE
  8
0
  6
CONTINUOUS
 62
     7
 10
935
 20
-32.14899826049805
 11
924
 21
-32.14899826049805
  0
LINE
  8
0
  6
CONTINUOUS
 62
     3
 10
935
 20
-44.05285263061523
 11
924
 21
-32.14901351928711
  0
LINE
  8
0
  6
CONTINUOUS
 62
     3
 10
924
 20
-44.05281829833984
 11
935
 21
-32.14897918701172
  0
LINE
  8
0
  6
CONTINUOUS
 62
     3
 10
935
 20
-20.24514198303223
 11
924
 21
-32.14898681640625
  0
LINE
  8
0
  6
CONTINUOUS
 62
     7
 10
773.1632690429687
 20
-431
 11
838.072021484375
 21
-431
  0
LINE
  8
0
  6
CONTINUOUS
 62
     7
 10
805
 20
-399.6148376464844
 11
805
 21
-474.6107482910156
  0
ARC
  8
0
  6
CONTINUOUS
 62
     7
 10
675
 20
-462.5
 40
9.999999999999963
 50
179.9999776881996
 51
270.0000280040023
  0
ARC
  8
0
  6
CONTINUOUS
 62
     7
 10
705.7060546875
 20
-559.9932861328125
 40
9.99999999999998
 50
234.4477495447707
 51
270.0000179860891
  0
ARC
  8
0
  6
CONTINUOUS
 62
     7
 10
705.7060546875
 20
-740.0067138671875
 40
10.00000000000004
 50
89.99998201391097
 51
125.5520592099326
  0
ARC
  8
0
  6
CONTINUOUS
 62
     7
 10
745
 20
-768.2672729492188
 40
5
 50
0
 51
111.6196412654544
  0
ARC
  8
0
  6
CONTINUOUS
 62
     7
 10
745
 20
-789.48046875
 40
5
 50
0
 51
111.6196412654544
  0
ARC
  8
0
  6
CONTINUOUS
 62
     7
 10
670
 20
-819.204833984375
 40
4.999999999999943
 50
111.6196412654544
 51
180.0000050089569
  0
ARC
  8
0
  6
CONTINUOUS
 62
     7
 10
670
 20
-797.9916381835938
 40
4.999999999999943
 50
111.6196412654544
 51
180.0000050089569
  0
ARC
  8
0
  6
CONTINUOUS
 62
     7
 10
670
 20
-480.795166015625
 40
4.999999999999943
 50
179.999991348578
 51
248.3803482618904
  0
ARC
  8
0
  6
CONTINUOUS
 62
     7
 10
670
 20
-502.0083618164062
 40
4.999999999999943
 50
179.999991348578
 51
248.3803482618904
  0
ARC
  8
0
  6
CONTINUOUS
 62
     7
 10
745
 20
-510.51953125
 40
4.999999999999943
 50
248.3803587345457
 51
0
  0
ARC
  8
0
  6
CONTINUOUS
 62
     7
 10
745
 20
-531.7327270507812
 40
4.999999999999943
 50
248.3803587345457
 51
0
  0
ARC
  8
0
  6
CONTINUOUS
 62
     7
 10
805
 20
-431
 40
25
 50
306.4238458862582
 51
233.5761318019415
  0
CIRCLE
  8
0
  6
CONTINUOUS
 62
     7
 10
805
 20
-431
 40
15
  0
ARC
  8
0
  6
CONTINUOUS
 62
     7
 10
795.76513671875
 20
-450
 40
1.999999999999985
 50
89.99998201391097
 51
170.0000206677889
  0
ARC
  8
0
  6
CONTINUOUS
 62
     7
 10
814.23486328125
 20
-450
 40
1.999999999999964
 50
9.999994586450628
 51
89.99998201391097
  0
ARC
  8
0
  6
CONTINUOUS
 62
     7
 10
786.5936279296875
 20
-455.9440612792969
 40
6.000000000000009
 50
349.8636347103541
 51
53.57615411374161
  0
ARC
  8
0
  6
CONTINUOUS
 62
     7
 10
823.4063720703125
 20
-455.9440612792969
 40
6.000000000000024
 50
126.4238645555929
 51
189.9999620293671
  0
ARC
  8
0
  6
CONTINUOUS
 62
     7
 10
913
 20
-471.7551879882812
 40
4.999999999999963
 50
179.9999640278213
 51
266.9998810714519
  0
ARC
  8
0
  6
CONTINUOUS
 62
     7
 10
913
 20
-828.2448120117187
 40
4.999999999999947
 50
93.00006064456912
 51
179.9999640278219
  0
ARC
  8
0
  6
CONTINUOUS
 62
     7
 10
996.499755859375
 20
-768
 40
3.000000000000034
 50
89.99998201390989
 51
169.6057684885177
  0
ARC
  8
0
  6
CONTINUOUS
 62
     7
 10
996.499755859375
 20
-532
 40
3.000000000000043
 50
190.3942861529962
 51
269.9999633445768
  0
ARC
  8
0
  6
CONTINUOUS
 62
     7
 10
975.589111328125
 20
-809.944091796875
 40
9.999999999999947
 50
272.9999190318288
 51
349.6058112908856
  0
ARC
  8
0
  6
CONTINUOUS
 62
     7
 10
975.589111328125
 20
-490.0559387207031
 40
9.999999999999979
 50
10.39415455816887
 51
87.00002632665797
  0
ARC
  8
0
  6
CONTINUOUS
 62
     7
 10
903.7999877929688
 20
-470.5
 40
4.199999809265188
 50
359.999959018865
 51
89.99996152334371
  0
ARC
  8
0
  6
CONTINUOUS
 62
     7
 10
903.7999877929688
 20
-829.5
 40
4.199999809265193
 50
269.9999906653321
 51
359.9999931698108
  0
CIRCLE
  8
0
  6
CONTINUOUS
 62
     3
 10
833
 20
-650
 40
8.507550239562988
  0
ARC
  8
0
  6
CONTINUOUS
 62
     7
 10
900
 20
-437.25
 40
31.99999999999997
 50
90.00000250447806
 51
180.0000050089563
  0
ARC
  8
0
  6
CONTINUOUS
 62
     7
 10
905
 20
-442.25
 40
5.000000000000004
 50
90.00000250447782
 51
180.0000050089563
  0
CIRCLE
  8
0
  6
CONTINUOUS
 62
     7
 10
0
 20
-650
 40
225
  0
ARC
  8
0
  6
CONTINUOUS
 62
     7
 10
0
 20
-650
 40
47.49999999999995
 50
105.2575454498303
 51
74.74246957703872
  0
ARC
  8
0
  6
CONTINUOUS
 62
     3
 10
0
 20
-650
 40
200
 50
333.5707059500407
 51
341.4592534225145
  0
CIRCLE
  8
0
  6
CONTINUOUS
 62
     7
 10
184.7759399414062
 20
-726.536865234375
 40
9.5
  0
CIRCLE
  8
0
  6
CONTINUOUS
 62
     7
 10
184.7759399414062
 20
-573.46337890625
 40
9.5
  0
ARC
  8
0
  6
CONTINUOUS
 62
     3
 10
0
 20
-650
 40
200
 50
18.57071915511085
 51
26.45925979739542
  0
CIRCLE
  8
0
  6
CONTINUOUS
 62
     7
 10
76.5367431640625
 20
-465.2240905761719
 40
9.5
  0
ARC
  8
0
  6
CONTINUOUS
 62
     3
 10
0
 20
-650
 40
200
 50
63.57071528470806
 51
71.45925592699263
  0
CIRCLE
  8
0
  6
CONTINUOUS
 62
     7
 10
-76.53662109375
 20
-465.2240600585938
 40
9.5
  0
ARC
  8
0
  6
CONTINUOUS
 62
     3
 10
0
 20
-650
 40
200
 50
108.5707131218526
 51
116.4592605943263
  0
CIRCLE
  8
0
  6
CONTINUOUS
 62
     7
 10
-184.77587890625
 20
-573.4632568359375
 40
9.5
  0
ARC
  8
0
  6
CONTINUOUS
 62
     3
 10
0
 20
-650
 40
200
 50
153.5707109589971
 51
161.4592516012816
  0
CIRCLE
  8
0
  6
CONTINUOUS
 62
     7
 10
-184.7760009765625
 20
-726.53662109375
 40
9.5
  0
ARC
  8
0
  6
CONTINUOUS
 62
     3
 10
0
 20
-650
 40
200
 50
198.5707192687964
 51
206.4592599110809
  0
CIRCLE
  8
0
  6
CONTINUOUS
 62
     7
 10
-76.536865234375
 20
-834.77587890625
 40
9.5
  0
ARC
  8
0
  6
CONTINUOUS
 62
     3
 10
0
 20
-650
 40
200
 50
243.5707102757517
 51
251.4592577482255
  0
CIRCLE
  8
0
  6
CONTINUOUS
 62
     7
 10
76.53656005859375
 20
-834.7760620117188
 40
9.5
  0
ARC
  8
0
  6
CONTINUOUS
 62
     3
 10
0
 20
-650
 40
200
 50
288.5707081128962
 51
296.4592555853699
  0
CIRCLE
  8
0
  6
CONTINUOUS
 62
     7
 10
0
 20
-650
 40
90
  0
CIRCLE
  8
0
  6
CONTINUOUS
 62
     7
 10
0
 20
-650
 40
132.5
  0
ARC
  8
0
  6
CONTINUOUS
 62
     3
 10
0
 20
-650
 40
117.5
 50
55.11785758300787
 51
64.88213892610717
  0
ARC
  8
0
  6
CONTINUOUS
 62
     3
 10
0
 20
-650
 40
117.5
 50
115.1178524224708
 51
124.8821405957593
  0
ARC
  8
0
  6
CONTINUOUS
 62
     3
 10
0
 20
-650
 40
117.5
 50
175.1178540921229
 51
184.8821422654114
  0
ARC
  8
0
  6
CONTINUOUS
 62
     3
 10
0
 20
-650
 40
117.5
 50
235.1178594042407
 51
244.8821475775292
  0
ARC
  8
0
  6
CONTINUOUS
 62
     3
 10
0
 20
-650
 40
117.5
 50
295.1178610738928
 51
304.8821424169921
  0
ARC
  8
0
  6
CONTINUOUS
 62
     3
 10
0
 20
-650
 40
117.5
 50
355.1178576209031
 51
4.882142379096913
  0
ARC
  8
0
  6
CONTINUOUS
 62
     7
 10
0
 20
-650
 40
175
 50
14.86316782267558
 51
185.1368263591828
  0
CIRCLE
  8
0
  6
CONTINUOUS
 62
     3
 10
0
 20
-650
 40
8
  0
CIRCLE
  8
0
  6
CONTINUOUS
 62
     7
 10
0
 20
-650
 40
7
  0
ARC
  8
0
  6
CONTINUOUS
 62
     7
 10
0
 20
-650
 40
165
 50
16.59408973006584
 51
183.4059061593399
  0
CIRCLE
  8
0
  6
CONTINUOUS
 62
     7
 10
-160.03125
 20
-678.2178344726563
 40
19
  0
CIRCLE
  8
0
  6
CONTINUOUS
 62
     7
 10
160.03125
 20
-621.7821655273437
 40
19
  0
ARC
  8
0
  6
CONTINUOUS
 62
     7
 10
0
 20
-650
 40
175
 50
194.8631696439084
 51
5.136832022397078
  0
ARC
  8
0
  6
CONTINUOUS
 62
     7
 10
0
 20
-650
 40
165
 50
196.5940898437514
 51
3.405909688119992
  0
ARC
  8
0
  6
CONTINUOUS
 62
     7
 10
32.14898681640625
 20
-421.2480773925781
 40
16
 50
352.0000000619708
 51
171.9999956794171
  0
ARC
  8
0
  6
CONTINUOUS
 62
     7
 10
705.7060546875
 20
90.0068359375
 40
9.99999999999998
 50
234.4478861485543
 51
270.0000179860891
  0
ARC
  8
0
  6
CONTINUOUS
 62
     7
 10
705.7060546875
 20
-90.00677490234375
 40
9.999999999999995
 50
89.99998201391097
 51
125.5522504552292
  0
ARC
  8
0
  6
CONTINUOUS
 62
     7
 10
745
 20
139.48046875
 40
4.999999999999996
 50
248.3803587345459
 51
0
  0
ARC
  8
0
  6
CONTINUOUS
 62
     7
 10
745
 20
118.2672729492188
 40
4.999999999999982
 50
248.3803587345459
 51
0
  0
ARC
  8
0
  6
CONTINUOUS
 62
     7
 10
670
 20
169.204833984375
 40
4.999999999999943
 50
179.999991348578
 51
248.3803482618903
  0
ARC
  8
0
  6
CONTINUOUS
 62
     7
 10
670
 20
147.9916381835937
 40
4.999999999999943
 50
179.999991348578
 51
248.3803482618903
  0
ARC
  8
0
  6
CONTINUOUS
 62
     7
 10
745
 20
-139.48046875
 40
5
 50
0
 51
111.6196412654541
  0
ARC
  8
0
  6
CONTINUOUS
 62
     7
 10
745
 20
-118.2672729492188
 40
5
 50
0
 51
111.6196412654542
  0
ARC
  8
0
  6
CONTINUOUS
 62
     7
 10
670
 20
-147.9916381835937
 40
4.999999999999996
 50
111.6196412654541
 51
180.0000050089563
  0
ARC
  8
0
  6
CONTINUOUS
 62
     7
 10
670
 20
-169.204833984375
 40
4.999999999999996
 50
111.6196412654541
 51
180.0000050089563
  0
ARC
  8
0
  6
CONTINUOUS
 62
     7
 10
617.5
 20
0
 40
12.5
 50
270.0000179860895
 51
89.99998201391058
  0
CIRCLE
  8
0
  6
CONTINUOUS
 62
     7
 10
732
 20
0
 40
13.5
  0
ARC
  8
0
  6
CONTINUOUS
 62
     7
 10
805
 20
0
 40
20.0472869873047
 50
194.4426212363324
 51
345.557383999995
  0
ARC
  8
0
  6
CONTINUOUS
 62
     7
 10
805
 20
0
 40
12.5
 50
23.57817843000461
 51
156.4218368242355
  0
ARC
  8
0
  6
CONTINUOUS
 62
     7
 10
785
 20
0
 40
5
 50
89.99998201391031
 51
270.0000006832456
  0
ARC
  8
0
  6
CONTINUOUS
 62
     7
 10
825
 20
0
 40
5
 50
270.0000179860897
 51
89.99998201391031
  0
ARC
  8
0
  6
CONTINUOUS
 62
     7
 10
805
 20
0
 40
12.50000000000001
 50
203.5781631757645
 51
336.4218215699954
  0
ARC
  8
0
  6
CONTINUOUS
 62
     7
 10
805
 20
0
 40
20.04728698730464
 50
14.44260916981583
 51
165.5573787636676
  0
ARC
  8
0
  6
CONTINUOUS
 62
     7
 10
913
 20
-178.2448120117188
 40
5.000000000000008
 50
93.00010162570337
 51
180.0000186693346
  0
ARC
  8
0
  6
CONTINUOUS
 62
     7
 10
913
 20
178.2448120117188
 40
4.999999999999963
 50
180.0000359721788
 51
266.9999393554309
  0
ARC
  8
0
  6
CONTINUOUS
 62
     7
 10
996.499755859375
 20
118
 40
2.999999999999952
 50
190.3942315114826
 51
270.0000179860901
  0
ARC
  8
0
  6
CONTINUOUS
 62
     7
 10
996.499755859375
 20
-118
 40
3.000000000000003
 50
90.00003665542324
 51
169.6057138470044
  0
ARC
  8
0
  6
CONTINUOUS
 62
     7
 10
975.589111328125
 20
159.944091796875
 40
10.00000000000002
 50
10.39418870911456
 51
87.00008096817125
  0
ARC
  8
0
  6
CONTINUOUS
 62
     7
 10
975.589111328125
 20
-159.944091796875
 40
10.00000000000001
 50
272.999973673342
 51
349.6058454418313
  0
ARC
  8
0
  6
CONTINUOUS
 62
     7
 10
903.7999877929688
 20
179.5
 40
4.199999809265167
 50
6.830189170012719E-06
 51
90.00000933466791
  0
ARC
  8
0
  6
CONTINUOUS
 62
     7
 10
903.7999877929688
 20
-179.5
 40
4.199999809265146
 50
270.0000384766563
 51
4.09811350200795E-05
  0
ARC
  8
0
  6
CONTINUOUS
 62
     7
 10
896.771484375
 20
-11.14899253845215
 40
5.000000000000015
 50
232.746895837654
 51
269.9999974955222
  0
POLYLINE
  8
0
  6
CONTINUOUS
 62
     7
 66
     1
 10
0
 20
0
  0
VERTEX
  8
0
  6
CONTINUOUS
 62
     7
 10
631.9994920301355
 20
-505.5069501295717
 42
-0.2644326269996368
  0
VERTEX
  8
0
  6
CONTINUOUS
 62
     7
 10
648.1872835806142
 20
-523.8381373814453
 42
-0.06854697365971188
  0
VERTEX
  8
0
  6
CONTINUOUS
 62
     7
 10
647.2546241594615
 20
-549.2896236931485
 42
0.01629666087066212
  0
VERTEX
  8
0
  6
CONTINUOUS
 62
     7
 10
645.3136229000365
 20
-574.7761298487621
 42
0.01055544634422955
  0
VERTEX
  8
0
  6
CONTINUOUS
 62
     7
 10
644.7662635116354
 20
-600.3335560552608
 42
0.001925991637677493
  0
VERTEX
  8
0
  6
CONTINUOUS
 62
     7
 10
644.8694812085047
 20
-625.8972454239859
 42
-0.007108203117617376
  0
VERTEX
  8
0
  6
CONTINUOUS
 62
     7
 10
644.6979837645272
 20
-651.4599895377222
 42
0.004663514352172373
  0
VERTEX
  8
0
  6
CONTINUOUS
 62
     7
 10
644.2104778264385
 20
-677.0193891037113
 42
0.0251212041161284
  0
VERTEX
  8
0
  6
CONTINUOUS
 62
     7
 10
645.2366896234884
 20
-702.5527034668174
 42
-0.001802712672571223
  0
VERTEX
  8
0
  6
CONTINUOUS
 62
     7
 10
647.9368058882305
 20
-727.9734455537795
 42
-0.0835472247761314
  0
VERTEX
  8
0
  6
CONTINUOUS
 62
     7
 10
646.7529757199342
 20
-753.3868953012948
 42
-0.1909403768173553
  0
VERTEX
  8
0
  6
CONTINUOUS
 62
     7
 10
631.9993381559516
 20
-773.54305947508
 42
0
  0
SEQEND
  8
0
  0
POLYLINE
  8
0
  6
CONTINUOUS
 62
     7
 66
     1
 10
0
 20
0
  0
VERTEX
  8
0
  6
CONTINUOUS
 62
     7
 10
870.5000000000001
 20
-473.7341766357422
 42
0.2041702944249585
  0
VERTEX
  8
0
  6
CONTINUOUS
 62
     7
 10
871.9370759430313
 20
-474.5590558831874
 42
0.02475759045289696
  0
VERTEX
  8
0
  6
CONTINUOUS
 62
     7
 10
873.6320122056727
 20
-474.910874264754
 42
0.01202129901843096
  0
VERTEX
  8
0
  6
CONTINUOUS
 62
     7
 10
875.3478460107323
 20
-475.14452903026
 42
0.007946060732439397
  0
VERTEX
  8
0
  6
CONTINUOUS
 62
     7
 10
877.0720191859411
 20
-475.3110883624204
 42
0.006096695914548323
  0
VERTEX
  8
0
  6
CONTINUOUS
 62
     7
 10
878.8002770317369
 20
-475.4297208950939
 42
0.005133817662617816
  0
VERTEX
  8
0
  6
CONTINUOUS
 62
     7
 10
880.5311300791573
 20
-475.5097827908994
 42
0.00462360461523655
  0
VERTEX
  8
0
  6
CONTINUOUS
 62
     7
 10
882.2633755313659
 20
-475.5562070121522
 42
0.004398857588403767
  0
VERTEX
  8
0
  6
CONTINUOUS
 62
     7
 10
883.9961833549036
 20
-475.5714720945436
 42
0.004398001210422662
  0
VERTEX
  8
0
  6
CONTINUOUS
 62
     7
 10
885.7288436763246
 20
-475.5563440606541
 42
0.004620616127858187
  0
VERTEX
  8
0
  6
CONTINUOUS
 62
     7
 10
887.4605794007852
 20
-475.5100824018754
 42
0.00513068635998739
  0
VERTEX
  8
0
  6
CONTINUOUS
 62
     7
 10
889.191502806663
 20
-475.4301873812609
 42
0.006092909343547081
  0
VERTEX
  8
0
  6
CONTINUOUS
 62
     7
 10
890.9203933333049
 20
-475.3117053331487
 42
0.00794178633143683
  0
VERTEX
  8
0
  6
CONTINUOUS
 62
     7
 10
892.6459274428121
 20
-475.1452361112798
 42
0.01201661509370311
  0
VERTEX
  8
0
  6
CONTINUOUS
 62
     7
 10
894.3637884773447
 20
-474.9115592550334
 42
0.02473928029235031
  0
VERTEX
  8
0
  6
CONTINUOUS
 62
     7
 10
896.0606695244061
 20
-474.5596662740043
 42
0.2040666757197227
  0
VERTEX
  8
0
  6
CONTINUOUS
 62
     7
 10
897.5
 20
-473.7341766357422
 42
0
  0
SEQEND
  8
0
  0
POLYLINE
  8
0
  6
CONTINUOUS
 62
     7
 66
     1
 10
0
 20
0
  0
VERTEX
  8
0
  6
CONTINUOUS
 62
     7
 10
868
 20
-452.9385833740234
 42
0.2072082595745353
  0
VERTEX
  8
0
  6
CONTINUOUS
 62
     7
 10
869.6929993762666
 20
-453.9354897459225
 42
0.02540259312421577
  0
VERTEX
  8
0
  6
CONTINUOUS
 62
     7
 10
871.7016176539088
 20
-454.3629794845397
 42
0.01232132905755415
  0
VERTEX
  8
0
  6
CONTINUOUS
 62
     7
 10
873.7362766792819
 20
-454.646816701886
 42
0.008139706325321339
  0
VERTEX
  8
0
  6
CONTINUOUS
 62
     7
 10
875.7812946779221
 20
-454.8491194649761
 42
0.006243142107049743
  0
VERTEX
  8
0
  6
CONTINUOUS
 62
     7
 10
877.8313887343118
 20
-454.993198224794
 42
0.005256042065701766
  0
VERTEX
  8
0
  6
CONTINUOUS
 62
     7
 10
879.8846925493667
 20
-455.0904283410037
 42
0.004733098710661461
  0
VERTEX
  8
0
  6
CONTINUOUS
 62
     7
 10
881.9397186901176
 20
-455.1468061023563
 42
0.004502767389574523
  0
VERTEX
  8
0
  6
CONTINUOUS
 62
     7
 10
883.9954440920599
 20
-455.1653441480096
 42
0.004501886273021367
  0
VERTEX
  8
0
  6
CONTINUOUS
 62
     7
 10
886.050994164225
 20
-455.1469735483046
 42
0.004730034321854728
  0
VERTEX
  8
0
  6
CONTINUOUS
 62
     7
 10
888.1054186605924
 20
-455.0907941723742
 42
0.005252813999825282
  0
VERTEX
  8
0
  6
CONTINUOUS
 62
     7
 10
890.1588065817273
 20
-454.993767852336
 42
0.006239234385277151
  0
VERTEX
  8
0
  6
CONTINUOUS
 62
     7
 10
892.2096556097908
 20
-454.849872932333
 42
0.008135263162553271
  0
VERTEX
  8
0
  6
CONTINUOUS
 62
     7
 10
894.2562922551369
 20
-454.647680970098
 42
0.0123071556202785
  0
VERTEX
  8
0
  6
CONTINUOUS
 62
     7
 10
896.2922538019318
 20
-454.364003761945
 42
0.02536928394909798
  0
VERTEX
  8
0
  6
CONTINUOUS
 62
     7
 10
898.3032106677342
 20
-453.9365425556223
 42
0.2069986230506608
  0
VERTEX
  8
0
  6
CONTINUOUS
 62
     7
 10
900
 20
-452.9385833740234
 42
0
  0
SEQEND
  8
0
  0
POLYLINE
  8
0
  6
CONTINUOUS
 62
     7
 66
     1
 10
0
 20
0
  0
VERTEX
  8
0
  6
CONTINUOUS
 62
     7
 10
632.0011872312218
 20
110.2675954269668
 42
-0.0997667608488097
  0
VERTEX
  8
0
  6
CONTINUOUS
 62
     7
 10
644.2704285915615
 20
86.5064686282446
 42
-0.06191153535550636
  0
VERTEX
  8
0
  6
CONTINUOUS
 62
     7
 10
648.5088584178297
 20
59.99300949213698
 42
-0.0290761281065847
  0
VERTEX
  8
0
  6
CONTINUOUS
 62
     7
 10
647.8377022739057
 20
33.09813250809201
 42
0.005408466366135648
  0
VERTEX
  8
0
  6
CONTINUOUS
 62
     7
 10
645.9008852844918
 20
6.249867672563959
 42
0.02393001135615349
  0
VERTEX
  8
0
  6
CONTINUOUS
 62
     7
 10
645.9334325391219
 20
-20.6587828516168
 42
-0.003105128370322935
  0
VERTEX
  8
0
  6
CONTINUOUS
 62
     7
 10
647.1044952710124
 20
-47.55184328345833
 42
-0.03121806729564453
  0
VERTEX
  8
0
  6
CONTINUOUS
 62
     7
 10
646.4334418684555
 20
-74.44466549727146
 42
-0.04386661126074926
  0
VERTEX
  8
0
  6
CONTINUOUS
 62
     7
 10
641.4992634302475
 20
-100.8723761917105
 42
-0.04471112530991426
  0
VERTEX
  8
0
  6
CONTINUOUS
 62
     7
 10
632.0000658848159
 20
-126.0213293568032
 42
0
  0
SEQEND
  8
0
  0
POLYLINE
  8
0
  6
CONTINUOUS
 62
     7
 66
     1
 10
0
 20
0
  0
VERTEX
  8
0
  6
CONTINUOUS
 62
     7
 10
868
 20
-29.92222785949707
 42
0.05951422987511721
  0
VERTEX
  8
0
  6
CONTINUOUS
 62
     7
 10
868.2992396381419
 20
-32.40903195059553
 42
0.05347663474058629
  0
VERTEX
  8
0
  6
CONTINUOUS
 62
     7
 10
869.1506379331016
 20
-34.76595284113808
 42
0.04483048825302224
  0
VERTEX
  8
0
  6
CONTINUOUS
 62
     7
 10
870.4470708645333
 20
-36.91271312006571
 42
0.03660616798816663
  0
VERTEX
  8
0
  6
CONTINUOUS
 62
     7
 10
872.0741795627206
 20
-38.8221613280223
 42
0.02998002574402581
  0
VERTEX
  8
0
  6
CONTINUOUS
 62
     7
 10
873.9403467031823
 20
-40.50020911728875
 42
0.02496282630155046
  0
VERTEX
  8
0
  6
CONTINUOUS
 62
     7
 10
875.9793701405016
 20
-41.96476439501298
 42
0.02122177228295681
  0
VERTEX
  8
0
  6
CONTINUOUS
 62
     7
 10
878.1439267723449
 20
-43.23535454037467
 42
0.01845297327448176
  0
VERTEX
  8
0
  6
CONTINUOUS
 62
     7
 10
880.4033083096655
 20
-44.33141108259332
 42
0.01636663483942781
  0
VERTEX
  8
0
  6
CONTINUOUS
 62
     7
 10
882.7325116563437
 20
-45.26762990138507
 42
0.01480823000869564
  0
VERTEX
  8
0
  6
CONTINUOUS
 62
     7
 10
885.1167120177831
 20
-46.05759544227068
 42
0.01362614305617014
  0
VERTEX
  8
0
  6
CONTINUOUS
 62
     7
 10
887.5419313449771
 20
-46.71099078213498
 42
0.01274064509320389
  0
VERTEX
  8
0
  6
CONTINUOUS
 62
     7
 10
889.9982701559387
 20
-47.23583310187016
 42
0.01209047676674692
  0
VERTEX
  8
0
  6
CONTINUOUS
 62
     7
 10
892.4777527109793
 20
-47.63825115430975
 42
0.01163364466288085
  0
VERTEX
  8
0
  6
CONTINUOUS
 62
     7
 10
894.9736344834295
 20
-47.92274286325949
 42
0.01134241905254056
  0
VERTEX
  8
0
  6
CONTINUOUS
 62
     7
 10
897.4799645577891
 20
-48.09238774804756
 42
0.01120014750673016
  0
VERTEX
  8
0
  6
CONTINUOUS
 62
     7
 10
899.9913186075477
 20
-48.14899377505432
 42
0
  0
SEQEND
  8
0
  0
POLYLINE
  8
0
  6
CONTINUOUS
 62
     7
 66
     1
 10
0
 20
0
  0
VERTEX
  8
0
  6
CONTINUOUS
 62
     7
 10
893.74451958169
 20
-15.12863496736424
 42
0.03463333010502743
  0
VERTEX
  8
0
  6
CONTINUOUS
 62
     7
 10
891.8920906805516
 20
-13.91275864429118
 42
0.03451743782304245
  0
VERTEX
  8
0
  6
CONTINUOUS
 62
     7
 10
889.889543794724
 20
-12.96363500217373
 42
0.03442377625857596
  0
VERTEX
  8
0
  6
CONTINUOUS
 62
     7
 10
887.7754968116377
 20
-12.29860126088237
 42
0.03435732736873338
  0
VERTEX
  8
0
  6
CONTINUOUS
 62
     7
 10
885.5904366041024
 20
-11.92964113647422
 42
0.03431663487595325
  0
VERTEX
  8
0
  6
CONTINUOUS
 62
     7
 10
883.3763030027009
 20
-11.86321204289056
 42
0.03432533095834727
  0
VERTEX
  8
0
  6
CONTINUOUS
 62
     7
 10
881.1740261786788
 20
-12.10026535597382
 42
0.03437653459678473
  0
VERTEX
  8
0
  6
CONTINUOUS
 62
     7
 10
879.02474309872
 20
-12.63664837038196
 42
0.03446083979157571
  0
VERTEX
  8
0
  6
CONTINUOUS
 62
     7
 10
876.9692187782507
 20
-13.46285267763352
 42
0.03456782292373596
  0
VERTEX
  8
0
  6
CONTINUOUS
 62
     7
 10
875.047057902991
 20
-14.56386039260705
 42
0.03469927790961323
  0
VERTEX
  8
0
  6
CONTINUOUS
 62
     7
 10
873.295208599432
 20
-15.91969914026523
 42
0.03484392115800827
  0
VERTEX
  8
0
  6
CONTINUOUS
 62
     7
 10
871.7479828416498
 20
-17.50540819433546
 42
0.03498933838685682
  0
VERTEX
  8
0
  6
CONTINUOUS
 62
     7
 10
870.4362923803772
 20
-19.29124712440312
 42
0.0351228351057884
  0
VERTEX
  8
0
  6
CONTINUOUS
 62
     7
 10
869.3868464700674
 20
-21.24306176301844
 42
0.03523231167016057
  0
VERTEX
  8
0
  6
CONTINUOUS
 62
     7
 10
868.6213625108937
 20
-23.32283143217834
 42
0.03530718115977374
  0
VERTEX
  8
0
  6
CONTINUOUS
 62
     7
 10
868.1558460181654
 20
-25.48940675381439
 42
0.03533263737568421
  0
VERTEX
  8
0
  6
CONTINUOUS
 62
     7
 10
868.000000403033
 20
-27.6990137556385
 42
0
  0
SEQEND
  8
0
  0
TEXT
  8
0
  6
CONTINUOUS
 62
     7
 10
-134.2857208251953
 20
-20
 40
40
 41
0.8463385766293824
  1
ＥＲＶ－＿ＮＦ
  0
ENDSEC
  0
EOF
