  0
SECTION
  2
HEADER
  0
ENDSEC
  0
SECTION
  2
TABLES
  0
TABLE
  2
LTYPE
 70
    22
  0
LTYPE
  2
CONTINUOUS
 70
    64
  3
Solid line
 72
    65
 73
     0
 40
0.000000
  0
LTYPE
  2
DASHED
 70
    64
  3
__ __ __ __ __ __ __ __ __ __ __ __ __ __ __
 72
    65
 73
     2
 40
3.500000
 49
2.000000
 49
-1.500000
  0
LTYPE
  2
CENTER
 70
    64
  3
____ _ ____ _ ____ _ ____ _ ____ _ ____ _ ____
 72
    65
 73
     4
 40
17.500000
 49
13.000000
 49
-1.500000
 49
1.500000
 49
-1.500000
  0
LTYPE
  2
PHANTOM
 70
    64
  3
_____ _ _ _____ _ _ _____ _ _ _____ _ _ ____  
 72
    65
 73
     6
 40
15.500000
 49
8.000000
 49
-1.500000
 49
1.500000
 49
-1.500000
 49
1.500000
 49
-1.500000
  0
LTYPE
  2
DOT
 70
    64
  3
. . . . . . . . . . . . . . . . . . . . . . . .
 72
    65
 73
     2
 40
0.25
 49
0.0
 49
-0.25
  0
ENDTAB
  0
TABLE
  2
LAYER
 70
     1
  0
LAYER
  2
0
 70
     0
 62
     7
  6
CONTINUOUS
  0
ENDTAB
  0
TABLE
  2
STYLE
 70
     1
  0
STYLE
  2
STANDARD
 70
     0
 40
0.000000
 41
1.000000
 50
0.000000
 71
     0
 42
0.200000
  3
txt
  4
BIGFONT
  0
ENDTAB
  0
TABLE
  2
VIEW
 70
     0
  0
ENDTAB
  0
ENDSEC
  0
SECTION
  2
BLOCKS
  0
ENDSEC
  0
SECTION
  2
ENTITIES
  0
LINE
  8
0
  6
CONTINUOUS
 62
     3
 10
430
 20
-600
 11
962
 21
-600
  0
LINE
  8
0
  6
CONTINUOUS
 62
     7
 10
753
 20
-443.7999877929687
 11
753
 21
-756.2000122070313
  0
LINE
  8
0
  6
CONTINUOUS
 62
     7
 10
877
 20
-500
 11
877
 21
-565
  0
LINE
  8
0
  6
CONTINUOUS
 62
     7
 10
944
 20
-576
 11
944
 21
-621
  0
LINE
  8
0
  6
CONTINUOUS
 62
     7
 10
879
 20
-565
 11
877
 21
-565
  0
LINE
  8
0
  6
CONTINUOUS
 62
     7
 10
879
 20
-635
 11
877
 21
-635
  0
LINE
  8
0
  6
CONTINUOUS
 62
     7
 10
944
 20
-621
 11
879
 21
-621
  0
LINE
  8
0
  6
CONTINUOUS
 62
     7
 10
944
 20
-579
 11
879
 21
-579
  0
LINE
  8
0
  6
CONTINUOUS
 62
     7
 10
944
 20
-576
 11
881
 21
-576
  0
LINE
  8
0
  6
CONTINUOUS
 62
     7
 10
881
 20
-576
 11
881
 21
-579
  0
LINE
  8
0
  6
CONTINUOUS
 62
     7
 10
796.7999877929688
 20
-443.7999877929687
 11
790.5
 21
-443.7999877929687
  0
LINE
  8
0
  6
CONTINUOUS
 62
     7
 10
796.7999877929688
 20
-756.2000122070313
 11
753
 21
-756.2000122070313
  0
LINE
  8
0
  6
CONTINUOUS
 62
     7
 10
801
 20
-452
 11
801
 21
-748
  0
LINE
  8
0
  6
CONTINUOUS
 62
     7
 10
850.5009765625
 20
-454.5944213867188
 11
805.7079467773437
 21
-452.2469177246094
  0
LINE
  8
0
  6
CONTINUOUS
 62
     7
 10
877
 20
-500
 11
871.4060668945313
 21
-500
  0
LINE
  8
0
  6
CONTINUOUS
 62
     7
 10
869
 20
-500
 11
869
 21
-700
  0
LINE
  8
0
  6
CONTINUOUS
 62
     7
 10
860.8475952148437
 20
-463.3472595214844
 11
868.4774780273437
 21
-497.6513366699219
  0
LINE
  8
0
  6
CONTINUOUS
 62
     7
 10
877
 20
-700
 11
871.4060668945313
 21
-700
  0
LINE
  8
0
  6
CONTINUOUS
 62
     7
 10
860.8478393554688
 20
-736.6527709960937
 11
868.4776611328125
 21
-702.3486938476562
  0
LINE
  8
0
  6
CONTINUOUS
 62
     7
 10
850.5010375976563
 20
-745.40576171875
 11
805.7080078125
 21
-747.7532348632813
  0
LINE
  8
0
  6
CONTINUOUS
 62
     7
 10
879
 20
-565
 11
879
 21
-635
  0
LINE
  8
0
  6
CONTINUOUS
 62
     7
 10
877
 20
-635
 11
877
 21
-700
  0
LINE
  8
0
  6
CONTINUOUS
 62
     7
 10
680
 20
-450
 11
748
 21
-450
  0
LINE
  8
0
  6
CONTINUOUS
 62
     7
 10
680
 20
-750
 11
748
 21
-750
  0
LINE
  8
0
  6
CONTINUOUS
 62
     7
 10
674.9999389648437
 20
-455.0000305175781
 11
680
 21
-450
  0
LINE
  8
0
  6
CONTINUOUS
 62
     7
 10
748
 20
-450.0000610351562
 11
753
 21
-455.0000610351563
  0
LINE
  8
0
  6
CONTINUOUS
 62
     7
 10
675
 20
-745
 11
680
 21
-750
  0
LINE
  8
0
  6
CONTINUOUS
 62
     7
 10
747.9999389648438
 20
-749.9999389648437
 11
752.9999389648437
 21
-745
  0
LINE
  8
0
  6
CONTINUOUS
 62
     7
 10
719
 20
-440.0000305175781
 11
687
 21
-440.0000305175781
  0
LINE
  8
0
  6
CONTINUOUS
 62
     7
 10
719
 20
-440.0000305175781
 11
722.6397094726562
 21
-450.0000305175781
  0
LINE
  8
0
  6
CONTINUOUS
 62
     7
 10
687
 20
-440.0001525878906
 11
683.3603515625
 21
-450
  0
LINE
  8
0
  6
CONTINUOUS
 62
     7
 10
680
 20
-456.3724670410156
 11
748
 21
-456.3724670410156
  0
LINE
  8
0
  6
CONTINUOUS
 62
     7
 10
680
 20
-487.4244689941406
 11
748
 21
-487.4244689941406
  0
LINE
  8
0
  6
CONTINUOUS
 62
     7
 10
680
 20
-500.8700866699219
 11
748
 21
-500.8700866699219
  0
LINE
  8
0
  6
CONTINUOUS
 62
     7
 10
680
 20
-512.609130859375
 11
748
 21
-512.609130859375
  0
LINE
  8
0
  6
CONTINUOUS
 62
     7
 10
680
 20
-529.0270385742187
 11
748
 21
-529.0270385742187
  0
LINE
  8
0
  6
CONTINUOUS
 62
     7
 10
680
 20
-556.7433471679687
 11
748
 21
-556.7433471679687
  0
LINE
  8
0
  6
CONTINUOUS
 62
     7
 10
680
 20
-575.5888671875
 11
748
 21
-575.5888671875
  0
LINE
  8
0
  6
CONTINUOUS
 62
     7
 10
680
 20
-590.4924926757812
 11
748
 21
-590.4924926757812
  0
LINE
  8
0
  6
CONTINUOUS
 62
     7
 10
680
 20
-609.5074462890625
 11
748
 21
-609.5074462890625
  0
LINE
  8
0
  6
CONTINUOUS
 62
     7
 10
680
 20
-624.4110107421875
 11
748
 21
-624.4110107421875
  0
LINE
  8
0
  6
CONTINUOUS
 62
     7
 10
680
 20
-643.256591796875
 11
748
 21
-643.256591796875
  0
LINE
  8
0
  6
CONTINUOUS
 62
     7
 10
680
 20
-670.9730224609375
 11
748
 21
-670.9730224609375
  0
LINE
  8
0
  6
CONTINUOUS
 62
     7
 10
680
 20
-687.3909301757813
 11
748
 21
-687.3909301757813
  0
LINE
  8
0
  6
CONTINUOUS
 62
     7
 10
680
 20
-699.1300048828125
 11
748
 21
-699.1300048828125
  0
LINE
  8
0
  6
CONTINUOUS
 62
     7
 10
680
 20
-712.5756225585938
 11
748
 21
-712.5756225585938
  0
LINE
  8
0
  6
CONTINUOUS
 62
     7
 10
680
 20
-721.9133911132812
 11
748
 21
-721.9133911132812
  0
LINE
  8
0
  6
CONTINUOUS
 62
     7
 10
680
 20
-732.14697265625
 11
748
 21
-732.14697265625
  0
LINE
  8
0
  6
CONTINUOUS
 62
     7
 10
680
 20
-743.6275634765625
 11
748
 21
-743.6275634765625
  0
LINE
  8
0
  6
CONTINUOUS
 62
     7
 10
690.5
 20
-437.0000305175781
 11
691.7955322265625
 21
-429.6527404785156
  0
LINE
  8
0
  6
CONTINUOUS
 62
     7
 10
714.2044067382813
 20
-429.6527099609375
 11
715.4999389648438
 21
-437.0000305175781
  0
LINE
  8
0
  6
CONTINUOUS
 62
     7
 10
693.76513671875
 20
-428.0000305175781
 11
712.23486328125
 21
-428.0000305175781
  0
LINE
  8
0
  6
CONTINUOUS
 62
     7
 10
693.341796875
 20
-428.0453186035156
 11
702.5767211914063
 21
-426.0453186035156
  0
LINE
  8
0
  6
CONTINUOUS
 62
     7
 10
703.4234008789063
 20
-426.0452880859375
 11
712.658203125
 21
-428.0452880859375
  0
LINE
  8
0
  6
CONTINUOUS
 62
     7
 10
690.5
 20
-437.0000305175781
 11
690.5
 21
-440.0000305175781
  0
LINE
  8
0
  6
CONTINUOUS
 62
     7
 10
715.5
 20
-437.0000305175781
 11
715.5
 21
-440.0000305175781
  0
LINE
  8
0
  6
CONTINUOUS
 62
     7
 10
675
 20
-452
 11
675
 21
-748
  0
LINE
  8
0
  6
CONTINUOUS
 62
     7
 10
560
 20
-400
 11
560
 21
-487.8723754882812
  0
LINE
  8
0
  6
CONTINUOUS
 62
     7
 10
560
 20
-800
 11
585
 21
-800
  0
LINE
  8
0
  6
CONTINUOUS
 62
     7
 10
560
 20
-400
 11
585
 21
-400
  0
LINE
  8
0
  6
CONTINUOUS
 62
     7
 10
585
 20
-400
 11
585
 21
-800
  0
LINE
  8
0
  6
CONTINUOUS
 62
     7
 10
595
 20
-452
 11
675
 21
-452
  0
LINE
  8
0
  6
CONTINUOUS
 62
     7
 10
653
 20
-748
 11
675
 21
-748
  0
LINE
  8
0
  6
CONTINUOUS
 62
     7
 10
653
 20
-452
 11
653
 21
-748
  0
LINE
  8
0
  6
CONTINUOUS
 62
     7
 10
626.3798828125
 20
-537.6568603515625
 11
648
 21
-537.6568603515625
  0
LINE
  8
0
  6
CONTINUOUS
 62
     7
 10
585.0000610351562
 20
-451.9160461425781
 11
653.0000610351563
 21
-488.8348999023438
  0
LINE
  8
0
  6
CONTINUOUS
 62
     7
 10
585.0000610351562
 20
-473.1293029785156
 11
653.0000610351563
 21
-510.0481262207031
  0
LINE
  8
0
  6
CONTINUOUS
 62
     7
 10
588.9332885742187
 20
-511.6587219238281
 11
620.3131713867187
 21
-535.6063842773438
  0
LINE
  8
0
  6
CONTINUOUS
 62
     7
 10
588.9332885742187
 20
-688.34130859375
 11
620.3131713867187
 21
-664.3936157226563
  0
LINE
  8
0
  6
CONTINUOUS
 62
     7
 10
626.3798828125
 20
-662.3431396484375
 11
648
 21
-662.3431396484375
  0
LINE
  8
0
  6
CONTINUOUS
 62
     7
 10
585.0000610351562
 20
-726.8706665039063
 11
653.0000610351563
 21
-689.9518432617188
  0
LINE
  8
0
  6
CONTINUOUS
 62
     7
 10
585.0000610351562
 20
-748.083984375
 11
653
 21
-711.1651000976562
  0
LINE
  8
0
  6
CONTINUOUS
 62
     7
 10
552
 20
-450
 11
552
 21
-479.2485961914063
  0
LINE
  8
0
  6
CONTINUOUS
 62
     7
 10
552
 20
-450
 11
560
 21
-450
  0
LINE
  8
0
  6
CONTINUOUS
 62
     7
 10
552
 20
-750
 11
560
 21
-750
  0
LINE
  8
0
  6
CONTINUOUS
 62
     7
 10
450
 20
-558
 11
450
 21
-637.5
  0
LINE
  8
0
  6
CONTINUOUS
 62
     7
 10
450
 20
-562.5
 11
560
 21
-562.5
  0
LINE
  8
0
  6
CONTINUOUS
 62
     7
 10
450
 20
-637.5
 11
560
 21
-637.5
  0
LINE
  8
0
  6
CONTINUOUS
 62
     7
 10
552
 20
-701.3932495117187
 11
552
 21
-750
  0
LINE
  8
0
  6
CONTINUOUS
 62
     7
 10
560
 20
-691.0530395507813
 11
560
 21
-800
  0
LINE
  8
0
  6
CONTINUOUS
 62
     7
 10
450
 20
-558
 11
540
 21
-558
  0
LINE
  8
0
  6
CONTINUOUS
 62
     7
 10
560
 20
-642.5
 11
567.0518188476562
 21
-642.5
  0
LINE
  8
0
  6
CONTINUOUS
 62
     7
 10
560
 20
-557.5
 11
563.872314453125
 21
-557.5
  0
LINE
  8
0
  6
CONTINUOUS
 62
     7
 10
560
 20
-557.5999755859375
 11
560
 21
-642.5
  0
LINE
  8
0
  6
CONTINUOUS
 62
     7
 10
611.5
 20
-414.7000122070313
 11
638.5
 21
-414.7000122070313
  0
LINE
  8
0
  6
CONTINUOUS
 62
     7
 10
616.3499755859375
 20
-414.7000122070313
 11
616.3499755859375
 21
-452
  0
LINE
  8
0
  6
CONTINUOUS
 62
     7
 10
633.6500244140625
 20
-414.7000122070313
 11
633.6500244140625
 21
-452
  0
LINE
  8
0
  6
CONTINUOUS
 62
     3
 10
625
 20
-360.0375671386719
 11
625
 21
-467
  0
LINE
  8
0
  6
CONTINUOUS
 62
     7
 10
611.5
 20
-382.7000122070313
 11
638.5
 21
-382.7000122070313
  0
LINE
  8
0
  6
CONTINUOUS
 62
     7
 10
633.071044921875
 20
-368.0500183105469
 11
616.928955078125
 21
-368.0500183105469
  0
LINE
  8
0
  6
CONTINUOUS
 62
     7
 10
633.507568359375
 20
-377.0500183105469
 11
616.492431640625
 21
-377.0500183105469
  0
LINE
  8
0
  6
CONTINUOUS
 62
     7
 10
633.507568359375
 20
-377.0500183105469
 11
633.3309936523438
 21
-382.7000122070313
  0
LINE
  8
0
  6
CONTINUOUS
 62
     7
 10
616.4923095703125
 20
-377.0499877929688
 11
616.6688842773438
 21
-382.6999816894531
  0
LINE
  8
0
  6
CONTINUOUS
 62
     7
 10
633.071044921875
 20
-368.0500183105469
 11
633.071044921875
 21
-377.0500183105469
  0
LINE
  8
0
  6
CONTINUOUS
 62
     7
 10
616.928955078125
 20
-368.0500183105469
 11
616.928955078125
 21
-377.0500183105469
  0
LINE
  8
0
  6
CONTINUOUS
 62
     7
 10
638.5
 20
-382.7000122070313
 11
638.5
 21
-414.7000122070313
  0
LINE
  8
0
  6
CONTINUOUS
 62
     7
 10
611.5
 20
-382.7000122070313
 11
611.5
 21
-414.7000122070313
  0
LINE
  8
0
  6
CONTINUOUS
 62
     3
 10
616.928955078125
 20
-377.0499877929688
 11
625
 21
-368.0499877929687
  0
LINE
  8
0
  6
CONTINUOUS
 62
     7
 10
625
 20
-368.0500183105469
 11
625
 21
-377.0500183105469
  0
LINE
  8
0
  6
CONTINUOUS
 62
     3
 10
625
 20
-377.0499572753906
 11
633.071044921875
 21
-368.0500183105469
  0
LINE
  8
0
  6
CONTINUOUS
 62
     3
 10
633.071044921875
 20
-377.0499877929688
 11
625.0000610351563
 21
-368.0500183105469
  0
LINE
  8
0
  6
CONTINUOUS
 62
     3
 10
616.9290161132812
 20
-368.0499877929687
 11
625.0000610351563
 21
-377.0499572753906
  0
LINE
  8
0
  6
CONTINUOUS
 62
     7
 10
540
 20
-558
 11
540
 21
-562.5
  0
LINE
  8
0
  6
CONTINUOUS
 62
     7
 10
730.9999389648438
 20
-591.5145874023438
 11
722.5146484375
 21
-599.9998779296875
  0
LINE
  8
0
  6
CONTINUOUS
 62
     7
 10
739.4853515625
 20
-599.9999389648438
 11
731.0000610351562
 21
-591.5146484375
  0
LINE
  8
0
  6
CONTINUOUS
 62
     3
 10
731
 20
-589.492431640625
 11
731
 21
-610.507568359375
  0
LINE
  8
0
  6
CONTINUOUS
 62
     7
 10
731.0000610351562
 20
-608.4853515625
 11
722.5147705078125
 21
-600.0000610351562
  0
LINE
  8
0
  6
CONTINUOUS
 62
     7
 10
739.4852294921875
 20
-600
 11
730.9999389648438
 21
-608.4852905273438
  0
LINE
  8
0
  6
CONTINUOUS
 62
     7
 10
763.5
 20
-433.8399047851562
 11
763.5
 21
-453.4403076171875
  0
LINE
  8
0
  6
CONTINUOUS
 62
     7
 10
761
 20
-416.9561157226563
 11
761
 21
-432.6447143554687
  0
LINE
  8
0
  6
CONTINUOUS
 62
     3
 10
834.0147705078125
 20
-400.9561157226562
 11
755.741455078125
 21
-400.9561157226562
  0
LINE
  8
0
  6
CONTINUOUS
 62
     3
 10
777
 20
-380.7682495117188
 11
777
 21
-460.6190490722656
  0
LINE
  8
0
  6
CONTINUOUS
 62
     7
 10
793
 20
-384.9561157226563
 11
809
 21
-384.9561157226563
  0
LINE
  8
0
  6
CONTINUOUS
 62
     7
 10
809
 20
-384.9561157226563
 11
809
 21
-416.9561157226563
  0
LINE
  8
0
  6
CONTINUOUS
 62
     7
 10
798
 20
-416.9561157226563
 11
809
 21
-416.9561157226563
  0
LINE
  8
0
  6
CONTINUOUS
 62
     7
 10
793
 20
-421.9561157226562
 11
793
 21
-432.6447143554687
  0
LINE
  8
0
  6
CONTINUOUS
 62
     7
 10
790.5
 20
-433.83984375
 11
790.5
 21
-453.4403076171875
  0
LINE
  8
0
  6
CONTINUOUS
 62
     7
 10
817
 20
-414.4095764160156
 11
809
 21
-414.1595764160156
  0
LINE
  8
0
  6
CONTINUOUS
 62
     7
 10
817
 20
-414.4095458984375
 11
817
 21
-387.502685546875
  0
LINE
  8
0
  6
CONTINUOUS
 62
     7
 10
817
 20
-387.502685546875
 11
809
 21
-387.752685546875
  0
LINE
  8
0
  6
CONTINUOUS
 62
     7
 10
817
 20
-389.0523071289062
 11
828
 21
-389.0523071289062
  0
LINE
  8
0
  6
CONTINUOUS
 62
     7
 10
828
 20
-412.8599548339844
 11
828
 21
-389.0523071289062
  0
LINE
  8
0
  6
CONTINUOUS
 62
     7
 10
817
 20
-412.8599548339844
 11
828
 21
-412.8599548339844
  0
LINE
  8
0
  6
CONTINUOUS
 62
     7
 10
763.5
 20
-443.7999877929687
 11
753
 21
-443.7999877929687
  0
LINE
  8
0
  6
CONTINUOUS
 62
     3
 10
0
 20
-355.25
 11
0
 21
-820
  0
LINE
  8
0
  6
CONTINUOUS
 62
     3
 10
-220
 20
-600
 11
220
 21
-600
  0
LINE
  8
0
  6
CONTINUOUS
 62
     7
 10
-10
 20
-558
 11
-10
 21
-570
  0
LINE
  8
0
  6
CONTINUOUS
 62
     7
 10
10
 20
-558
 11
10
 21
-570
  0
LINE
  8
0
  6
CONTINUOUS
 62
     7
 10
-10
 20
-570
 11
10
 21
-570
  0
LINE
  8
0
  6
CONTINUOUS
 62
     7
 10
-10
 20
-558
 11
10
 21
-558
  0
LINE
  8
0
  6
CONTINUOUS
 62
     3
 10
149.4212036132813
 20
-661.8924560546875
 11
173.5414276123047
 21
-671.8834228515625
  0
LINE
  8
0
  6
CONTINUOUS
 62
     3
 10
149.4212646484375
 20
-538.107666015625
 11
173.5415344238281
 21
-528.11669921875
  0
LINE
  8
0
  6
CONTINUOUS
 62
     3
 10
61.89229965209961
 20
-450.5787963867187
 11
71.88324737548828
 21
-426.45849609375
  0
LINE
  8
0
  6
CONTINUOUS
 62
     3
 10
-61.89223098754883
 20
-450.5787658691406
 11
-71.8831787109375
 21
-426.4584655761719
  0
LINE
  8
0
  6
CONTINUOUS
 62
     3
 10
-149.4211883544922
 20
-538.107666015625
 11
-173.5414123535156
 21
-528.11669921875
  0
LINE
  8
0
  6
CONTINUOUS
 62
     3
 10
-149.4212493896484
 20
-661.8922119140625
 11
-173.5414733886719
 21
-671.8831787109375
  0
LINE
  8
0
  6
CONTINUOUS
 62
     3
 10
-61.89248657226562
 20
-749.4210815429687
 11
-71.88341522216797
 21
-773.5413208007812
  0
LINE
  8
0
  6
CONTINUOUS
 62
     3
 10
61.89203262329102
 20
-749.4213256835937
 11
71.88294982910156
 21
-773.5415649414062
  0
LINE
  8
0
  6
CONTINUOUS
 62
     3
 10
52.31838607788086
 20
-509.3819885253906
 11
42.56133651733398
 21
-526.2816772460938
  0
LINE
  8
0
  6
CONTINUOUS
 62
     3
 10
-52.31834030151367
 20
-509.3819274902344
 11
-42.5612907409668
 21
-526.2816162109375
  0
LINE
  8
0
  6
CONTINUOUS
 62
     3
 10
-52.31829071044922
 20
-690.6180419921875
 11
-42.56123733520508
 21
-673.7183227539062
  0
LINE
  8
0
  6
CONTINUOUS
 62
     3
 10
52.3183479309082
 20
-690.6179809570313
 11
42.56129837036133
 21
-673.71826171875
  0
LINE
  8
0
  6
CONTINUOUS
 62
     7
 10
-13.5
 20
-382.7000122070313
 11
13.5
 21
-382.7000122070313
  0
LINE
  8
0
  6
CONTINUOUS
 62
     7
 10
8.071044921875
 20
-368.0500183105469
 11
-8.071044921875
 21
-368.0500183105469
  0
LINE
  8
0
  6
CONTINUOUS
 62
     7
 10
8.507568359375
 20
-377.0500183105469
 11
-8.507568359375
 21
-377.0500183105469
  0
LINE
  8
0
  6
CONTINUOUS
 62
     7
 10
8.507533073425293
 20
-377.0499877929688
 11
8.330971717834473
 21
-382.6999816894531
  0
LINE
  8
0
  6
CONTINUOUS
 62
     7
 10
-8.507612228393555
 20
-377.050048828125
 11
-8.331049919128418
 21
-382.7000427246094
  0
LINE
  8
0
  6
CONTINUOUS
 62
     7
 10
8.071044921875
 20
-368.0500183105469
 11
8.071044921875
 21
-377.0500183105469
  0
LINE
  8
0
  6
CONTINUOUS
 62
     7
 10
-8.071044921875
 20
-368.0500183105469
 11
-8.071044921875
 21
-377.0500183105469
  0
LINE
  8
0
  6
CONTINUOUS
 62
     7
 10
13.5
 20
-382.7000122070313
 11
13.5
 21
-400.4561462402344
  0
LINE
  8
0
  6
CONTINUOUS
 62
     7
 10
-13.5
 20
-382.7000122070313
 11
-13.5
 21
-400.4561462402344
  0
LINE
  8
0
  6
CONTINUOUS
 62
     3
 10
-8.071043014526367
 20
-377.0500183105469
 11
3.621029463829473E-06
 21
-368.0500183105469
  0
LINE
  8
0
  6
CONTINUOUS
 62
     3
 10
-8.071052551269531
 20
-368.0500183105469
 11
3.983222995884717E-06
 21
-377.0500183105469
  0
LINE
  8
0
  6
CONTINUOUS
 62
     3
 10
1.639154470467474E-05
 20
-377.0500183105469
 11
8.071052551269531
 21
-368.0500183105469
  0
LINE
  8
0
  6
CONTINUOUS
 62
     3
 10
8.071042060852051
 20
-377.0500183105469
 11
2.576858241809532E-05
 21
-368.0500793457031
  0
LINE
  8
0
  6
CONTINUOUS
 62
     7
 10
0
 20
-368.0500183105469
 11
0
 21
-377.0500183105469
  0
LINE
  8
0
  6
CONTINUOUS
 62
     3
 10
13.49999618530273
 20
-398.9219665527344
 11
47.69389343261719
 21
-403.7276000976562
  0
LINE
  8
0
  6
CONTINUOUS
 62
     3
 10
31.15463829040527
 20
-378.3232421875
 11
27.83461952209473
 21
-401.9464111328125
  0
LINE
  8
0
  6
CONTINUOUS
 62
     7
 10
43.81808090209961
 20
-403.1828918457031
 11
43.58969497680664
 21
-404.8079528808594
  0
LINE
  8
0
  6
CONTINUOUS
 62
     3
 10
430
 20
0
 11
962
 21
0
  0
LINE
  8
0
  6
CONTINUOUS
 62
     7
 10
753
 20
156.2000122070313
 11
753
 21
-156.2000122070313
  0
LINE
  8
0
  6
CONTINUOUS
 62
     7
 10
877
 20
100
 11
877
 21
35
  0
LINE
  8
0
  6
CONTINUOUS
 62
     7
 10
944
 20
21
 11
944
 21
-21
  0
LINE
  8
0
  6
CONTINUOUS
 62
     7
 10
879
 20
35
 11
877
 21
35
  0
LINE
  8
0
  6
CONTINUOUS
 62
     7
 10
879
 20
-35
 11
877
 21
-35
  0
LINE
  8
0
  6
CONTINUOUS
 62
     7
 10
944
 20
-21
 11
879
 21
-21
  0
LINE
  8
0
  6
CONTINUOUS
 62
     7
 10
944
 20
21
 11
879
 21
21
  0
LINE
  8
0
  6
CONTINUOUS
 62
     7
 10
944
 20
-6
 11
879
 21
-6
  0
LINE
  8
0
  6
CONTINUOUS
 62
     7
 10
944
 20
6
 11
879
 21
6
  0
LINE
  8
0
  6
CONTINUOUS
 62
     7
 10
881
 20
6
 11
881
 21
-6
  0
LINE
  8
0
  6
CONTINUOUS
 62
     7
 10
796.7999877929688
 20
156.2000122070313
 11
753
 21
156.2000122070313
  0
LINE
  8
0
  6
CONTINUOUS
 62
     7
 10
796.7999877929688
 20
-156.2000122070313
 11
753
 21
-156.2000122070313
  0
LINE
  8
0
  6
CONTINUOUS
 62
     7
 10
801
 20
148
 11
801
 21
-12.24870777130127
  0
LINE
  8
0
  6
CONTINUOUS
 62
     7
 10
850.5010375976563
 20
145.4054260253906
 11
805.7079467773437
 21
147.7529449462891
  0
LINE
  8
0
  6
CONTINUOUS
 62
     7
 10
877
 20
100
 11
871.4060668945313
 21
100
  0
LINE
  8
0
  6
CONTINUOUS
 62
     7
 10
869
 20
100
 11
869
 21
-100
  0
LINE
  8
0
  6
CONTINUOUS
 62
     7
 10
860.84765625
 20
136.6528625488281
 11
868.4774780273437
 21
102.348747253418
  0
LINE
  8
0
  6
CONTINUOUS
 62
     7
 10
877
 20
-100
 11
871.4060668945313
 21
-100
  0
LINE
  8
0
  6
CONTINUOUS
 62
     7
 10
860.8477783203125
 20
-136.6527862548828
 11
868.4776611328125
 21
-102.3487167358398
  0
LINE
  8
0
  6
CONTINUOUS
 62
     7
 10
850.5010375976563
 20
-145.4059143066406
 11
805.7078857421875
 21
-147.7534332275391
  0
LINE
  8
0
  6
CONTINUOUS
 62
     7
 10
879
 20
35
 11
879
 21
-35
  0
LINE
  8
0
  6
CONTINUOUS
 62
     7
 10
877
 20
-35
 11
877
 21
-100
  0
LINE
  8
0
  6
CONTINUOUS
 62
     7
 10
674.9999389648437
 20
-144.9998016357422
 11
680
 21
-149.9998626708984
  0
LINE
  8
0
  6
CONTINUOUS
 62
     7
 10
748.0001831054688
 20
-150.0001220703125
 11
753.0001831054688
 21
-145.0001373291016
  0
LINE
  8
0
  6
CONTINUOUS
 62
     7
 10
680
 20
-150
 11
748
 21
-150
  0
LINE
  8
0
  6
CONTINUOUS
 62
     7
 10
680.0001831054688
 20
-143.6275329589844
 11
747.9999389648438
 21
-143.6275329589844
  0
LINE
  8
0
  6
CONTINUOUS
 62
     7
 10
680.0001831054688
 20
-132.1470336914063
 11
747.9999389648438
 21
-132.1470336914063
  0
LINE
  8
0
  6
CONTINUOUS
 62
     7
 10
680.0001831054688
 20
-121.9132690429687
 11
747.9999389648438
 21
-121.9132690429687
  0
LINE
  8
0
  6
CONTINUOUS
 62
     7
 10
680.0001831054688
 20
-112.5755615234375
 11
747.9999389648438
 21
-112.5755615234375
  0
LINE
  8
0
  6
CONTINUOUS
 62
     7
 10
680.0001831054688
 20
-99.12994384765625
 11
747.9999389648438
 21
-99.12994384765625
  0
LINE
  8
0
  6
CONTINUOUS
 62
     7
 10
680.0001831054688
 20
-43.25653076171875
 11
747.9999389648438
 21
-43.25653076171875
  0
LINE
  8
0
  6
CONTINUOUS
 62
     7
 10
680.0001831054688
 20
-25
 11
747.9999389648438
 21
-25
  0
LINE
  8
0
  6
CONTINUOUS
 62
     7
 10
680.0001831054688
 20
25.00006103515625
 11
747.9999389648438
 21
25.00006103515625
  0
LINE
  8
0
  6
CONTINUOUS
 62
     7
 10
680.0001831054688
 20
43.2567138671875
 11
747.9999389648438
 21
43.2567138671875
  0
LINE
  8
0
  6
CONTINUOUS
 62
     7
 10
680.0001831054688
 20
99.1300048828125
 11
747.9999389648438
 21
99.1300048828125
  0
LINE
  8
0
  6
CONTINUOUS
 62
     7
 10
680.0001831054688
 20
112.5756225585938
 11
747.9999389648438
 21
112.5756225585938
  0
LINE
  8
0
  6
CONTINUOUS
 62
     7
 10
680.0001831054688
 20
121.913330078125
 11
747.9999389648438
 21
121.913330078125
  0
LINE
  8
0
  6
CONTINUOUS
 62
     7
 10
680.0001831054688
 20
132.1470336914063
 11
747.9999389648438
 21
132.1470336914063
  0
LINE
  8
0
  6
CONTINUOUS
 62
     7
 10
680.0001831054688
 20
143.6275634765625
 11
747.9999389648438
 21
143.6275634765625
  0
LINE
  8
0
  6
CONTINUOUS
 62
     7
 10
680
 20
150.0000610351562
 11
748
 21
150.0000610351562
  0
LINE
  8
0
  6
CONTINUOUS
 62
     7
 10
747.999755859375
 20
150.0001373291016
 11
752.999755859375
 21
145.0001525878906
  0
LINE
  8
0
  6
CONTINUOUS
 62
     7
 10
675.0001220703125
 20
144.9998779296875
 11
680.0001220703125
 21
149.9998626708984
  0
LINE
  8
0
  6
CONTINUOUS
 62
     7
 10
682.9999389648438
 20
5
 11
722.9999389648438
 21
5
  0
LINE
  8
0
  6
CONTINUOUS
 62
     7
 10
682.9999389648438
 20
-5
 11
722.9999389648438
 21
-5
  0
LINE
  8
0
  6
CONTINUOUS
 62
     7
 10
675
 20
148
 11
675
 21
-148
  0
LINE
  8
0
  6
CONTINUOUS
 62
     7
 10
560
 20
200
 11
560
 21
90.97784423828125
  0
LINE
  8
0
  6
CONTINUOUS
 62
     7
 10
560
 20
-200
 11
585
 21
-200
  0
LINE
  8
0
  6
CONTINUOUS
 62
     7
 10
560
 20
200
 11
585
 21
200
  0
LINE
  8
0
  6
CONTINUOUS
 62
     7
 10
653
 20
148
 11
675
 21
148
  0
LINE
  8
0
  6
CONTINUOUS
 62
     7
 10
653
 20
-148
 11
675
 21
-148
  0
LINE
  8
0
  6
CONTINUOUS
 62
     7
 10
653
 20
148
 11
653
 21
20
  0
LINE
  8
0
  6
CONTINUOUS
 62
     7
 10
626.3798828125
 20
-62.3431396484375
 11
648
 21
-62.3431396484375
  0
LINE
  8
0
  6
CONTINUOUS
 62
     7
 10
626.3798828125
 20
62.3431396484375
 11
648
 21
62.3431396484375
  0
LINE
  8
0
  6
CONTINUOUS
 62
     7
 10
585
 20
-20
 11
653
 21
-20
  0
LINE
  8
0
  6
CONTINUOUS
 62
     7
 10
585
 20
20
 11
653
 21
20
  0
LINE
  8
0
  6
CONTINUOUS
 62
     7
 10
653
 20
-20
 11
653
 21
-148
  0
LINE
  8
0
  6
CONTINUOUS
 62
     7
 10
585.0001220703125
 20
148.0839996337891
 11
653.0000610351563
 21
111.1651916503906
  0
LINE
  8
0
  6
CONTINUOUS
 62
     7
 10
585.0000610351562
 20
126.8708190917969
 11
653.0001220703125
 21
89.95197296142578
  0
LINE
  8
0
  6
CONTINUOUS
 62
     7
 10
588.9332885742187
 20
88.34130859375
 11
620.3131713867187
 21
64.39366912841797
  0
LINE
  8
0
  6
CONTINUOUS
 62
     7
 10
588.9332885742187
 20
-88.34125518798828
 11
620.3131713867187
 21
-64.39362335205078
  0
LINE
  8
0
  6
CONTINUOUS
 62
     7
 10
584.9999389648438
 20
-126.8706436157227
 11
652.9999389648438
 21
-89.95179748535156
  0
LINE
  8
0
  6
CONTINUOUS
 62
     7
 10
585
 20
-148.0838165283203
 11
652.9999389648438
 21
-111.1650009155273
  0
LINE
  8
0
  6
CONTINUOUS
 62
     7
 10
585
 20
200
 11
585
 21
-200
  0
LINE
  8
0
  6
CONTINUOUS
 62
     7
 10
560
 20
42.5
 11
565.1341552734375
 21
42.5
  0
LINE
  8
0
  6
CONTINUOUS
 62
     7
 10
560
 20
-42.5
 11
566.2838134765625
 21
-42.5
  0
LINE
  8
0
  6
CONTINUOUS
 62
     7
 10
552
 20
150
 11
552
 21
97.3695068359375
  0
LINE
  8
0
  6
CONTINUOUS
 62
     7
 10
552
 20
150
 11
560
 21
150
  0
LINE
  8
0
  6
CONTINUOUS
 62
     7
 10
552
 20
-150
 11
560
 21
-150
  0
LINE
  8
0
  6
CONTINUOUS
 62
     7
 10
450
 20
37.5
 11
450
 21
-37.5
  0
LINE
  8
0
  6
CONTINUOUS
 62
     7
 10
450
 20
37.5
 11
560
 21
37.5
  0
LINE
  8
0
  6
CONTINUOUS
 62
     7
 10
450
 20
-37.5
 11
560
 21
-37.5
  0
LINE
  8
0
  6
CONTINUOUS
 62
     7
 10
552
 20
-94.56884765625
 11
552
 21
-150
  0
LINE
  8
0
  6
CONTINUOUS
 62
     7
 10
560
 20
-88.9996337890625
 11
560
 21
-200
  0
LINE
  8
0
  6
CONTINUOUS
 62
     7
 10
450
 20
-10
 11
545
 21
-10
  0
LINE
  8
0
  6
CONTINUOUS
 62
     7
 10
450
 20
10
 11
545
 21
10
  0
LINE
  8
0
  6
CONTINUOUS
 62
     7
 10
560
 20
42.4000244140625
 11
560
 21
-42.5
  0
LINE
  8
0
  6
CONTINUOUS
 62
     7
 10
633.4853515625
 20
-1.384585721098119E-05
 11
625.0001220703125
 21
8.485223770141602
  0
LINE
  8
0
  6
CONTINUOUS
 62
     7
 10
625.0000610351563
 20
8.485250473022461
 11
616.5147705078125
 21
-3.022053351742215E-05
  0
LINE
  8
0
  6
CONTINUOUS
 62
     7
 10
625
 20
-8.485371589660645
 11
616.5147705078125
 21
-0.0001327216741628945
  0
LINE
  8
0
  6
CONTINUOUS
 62
     7
 10
633.4852905273437
 20
-5.25124924024567E-05
 11
625
 21
-8.485332489013672
  0
LINE
  8
0
  6
CONTINUOUS
 62
     3
 10
625
 20
15.7276611328125
 11
625
 21
-15.8309326171875
  0
LINE
  8
0
  6
CONTINUOUS
 62
     7
 10
540
 20
10
 11
540
 21
-10
  0
LINE
  8
0
  6
CONTINUOUS
 62
     3
 10
731.0000610351562
 20
-139.9926147460938
 11
731.0000610351562
 21
-171.6517333984375
  0
LINE
  8
0
  6
CONTINUOUS
 62
     7
 10
722.9290161132813
 20
-164.6499938964844
 11
739.0711059570312
 21
-164.6499938964844
  0
LINE
  8
0
  6
CONTINUOUS
 62
     7
 10
722.4924926757813
 20
-155.6499938964844
 11
739.5076293945312
 21
-155.6499938964844
  0
LINE
  8
0
  6
CONTINUOUS
 62
     7
 10
722.4924926757813
 20
-155.6500091552734
 11
722.6690673828125
 21
-150
  0
LINE
  8
0
  6
CONTINUOUS
 62
     7
 10
739.5076293945312
 20
-155.6499938964844
 11
739.3310546875
 21
-150
  0
LINE
  8
0
  6
CONTINUOUS
 62
     7
 10
722.9290161132813
 20
-164.6499938964844
 11
722.9290161132813
 21
-155.6499938964844
  0
LINE
  8
0
  6
CONTINUOUS
 62
     7
 10
739.0711059570312
 20
-164.6499938964844
 11
739.0711059570312
 21
-155.6499938964844
  0
LINE
  8
0
  6
CONTINUOUS
 62
     7
 10
731.0000610351562
 20
-164.6499938964844
 11
731.0000610351562
 21
-155.6499938964844
  0
LINE
  8
0
  6
CONTINUOUS
 62
     3
 10
722.928955078125
 20
-155.6500244140625
 11
731
 21
-164.6499786376953
  0
LINE
  8
0
  6
CONTINUOUS
 62
     3
 10
722.928955078125
 20
-164.6499633789063
 11
731
 21
-155.6499633789062
  0
LINE
  8
0
  6
CONTINUOUS
 62
     3
 10
731
 20
-155.6500244140625
 11
739.0711059570312
 21
-164.6500244140625
  0
LINE
  8
0
  6
CONTINUOUS
 62
     3
 10
731
 20
-164.6499938964844
 11
739.0711059570312
 21
-155.6499938964844
  0
LINE
  8
0
  6
CONTINUOUS
 62
     7
 10
793
 20
-44.24870681762695
 11
809
 21
-44.24870681762695
  0
LINE
  8
0
  6
CONTINUOUS
 62
     7
 10
809
 20
-12.24870777130127
 11
809
 21
-44.24870681762695
  0
LINE
  8
0
  6
CONTINUOUS
 62
     3
 10
777
 20
-45.69327545166016
 11
777
 21
-3.744930028915405
  0
LINE
  8
0
  6
CONTINUOUS
 62
     3
 10
754.1593627929687
 20
-28.24870872497559
 11
832.1710205078125
 21
-28.24870872497559
  0
LINE
  8
0
  6
CONTINUOUS
 62
     7
 10
828
 20
-40.15254211425781
 11
828
 21
-16.34486770629883
  0
LINE
  8
0
  6
CONTINUOUS
 62
     7
 10
817
 20
-41.70214462280273
 11
817
 21
-14.79526996612549
  0
LINE
  8
0
  6
CONTINUOUS
 62
     7
 10
817
 20
-41.70214080810547
 11
809
 21
-41.45214080810547
  0
LINE
  8
0
  6
CONTINUOUS
 62
     7
 10
817
 20
-14.79527282714844
 11
809
 21
-15.04527282714844
  0
LINE
  8
0
  6
CONTINUOUS
 62
     7
 10
817
 20
-16.34486770629883
 11
828
 21
-16.34486770629883
  0
LINE
  8
0
  6
CONTINUOUS
 62
     7
 10
817
 20
-40.15254211425781
 11
828
 21
-40.15254211425781
  0
LINE
  8
0
  6
CONTINUOUS
 62
     7
 10
789.771484375
 20
-12.24870777130127
 11
809
 21
-12.24870777130127
  0
LINE
  8
0
  6
CONTINUOUS
 62
     7
 10
801
 20
-44.24870681762695
 11
801
 21
-148
  0
LINE
  8
0
  6
CONTINUOUS
 62
     3
 10
817
 20
-16.34487152099609
 11
828
 21
-28.24871444702148
  0
LINE
  8
0
  6
CONTINUOUS
 62
     7
 10
828
 20
-28.24870872497559
 11
817
 21
-28.24870872497559
  0
LINE
  8
0
  6
CONTINUOUS
 62
     3
 10
817
 20
-28.24871253967285
 11
828
 21
-40.15253067016602
  0
LINE
  8
0
  6
CONTINUOUS
 62
     3
 10
817
 20
-40.15253448486328
 11
828
 21
-28.24870491027832
  0
LINE
  8
0
  6
CONTINUOUS
 62
     3
 10
828
 20
-16.34487152099609
 11
817
 21
-28.24871444702148
  0
LINE
  8
0
  6
CONTINUOUS
 62
     7
 10
703
 20
-379.6109008789062
 11
703
 21
-454.5277099609375
  0
LINE
  8
0
  6
CONTINUOUS
 62
     7
 10
670.32861328125
 20
-411.0000305175781
 11
734.6844482421875
 21
-411.0000305175781
  0
ARC
  8
0
  6
CONTINUOUS
 62
     7
 10
796.7999877929688
 20
-752
 40
4.199999809265193
 50
269.9999906653321
 51
355.3463667222278
  0
ARC
  8
0
  6
CONTINUOUS
 62
     7
 10
796.7999877929688
 20
-448
 40
4.19999980926511
 50
4.653585466448101
 51
89.99996152334371
  0
ARC
  8
0
  6
CONTINUOUS
 62
     7
 10
871.4060668945313
 20
-497
 40
2.999999999999956
 50
192.5394846467567
 51
269.9999770049552
  0
ARC
  8
0
  6
CONTINUOUS
 62
     7
 10
849.9149169921875
 20
-465.7789001464844
 40
11.19999980926517
 50
12.53947599533467
 51
86.99996485495518
  0
ARC
  8
0
  6
CONTINUOUS
 62
     7
 10
805.9696655273437
 20
-447.2536010742188
 40
4.999999999999965
 50
184.6536077782482
 51
266.9999803365663
  0
ARC
  8
0
  6
CONTINUOUS
 62
     7
 10
871.4060668945313
 20
-703
 40
2.999999999999994
 50
89.99996152334238
 51
167.4604470513518
  0
ARC
  8
0
  6
CONTINUOUS
 62
     7
 10
849.9149169921875
 20
-734.2210693359375
 40
11.19999980926518
 50
272.9999736733424
 51
347.4604625329629
  0
ARC
  8
0
  6
CONTINUOUS
 62
     7
 10
805.9696655273437
 20
-752.7463989257812
 40
5.000000000000018
 50
92.9999650219201
 51
175.3463375802381
  0
ARC
  8
0
  6
CONTINUOUS
 62
     7
 10
703
 20
-411.0000305175781
 40
25
 50
306.4238458862582
 51
233.5761318019415
  0
CIRCLE
  8
0
  6
CONTINUOUS
 62
     7
 10
703
 20
-411.0000305175781
 40
15
  0
ARC
  8
0
  6
CONTINUOUS
 62
     7
 10
693.76513671875
 20
-430.0000305175781
 40
1.999999999999985
 50
89.99998201391097
 51
170.0000206677889
  0
ARC
  8
0
  6
CONTINUOUS
 62
     7
 10
712.23486328125
 20
-430.0000305175781
 40
1.999999999999964
 50
9.999994586450628
 51
89.99998201391097
  0
ARC
  8
0
  6
CONTINUOUS
 62
     7
 10
684.5936279296875
 20
-435.944091796875
 40
6.000000000000009
 50
349.8636347103541
 51
53.57615411374161
  0
ARC
  8
0
  6
CONTINUOUS
 62
     7
 10
721.4063720703125
 20
-435.944091796875
 40
6.000000000000024
 50
126.4238645555929
 51
189.9999620293671
  0
ARC
  8
0
  6
CONTINUOUS
 62
     7
 10
595
 20
-442
 40
10
 50
179.999991348578
 51
270.0000006832456
  0
ARC
  8
0
  6
CONTINUOUS
 62
     7
 10
595
 20
-696.2908325195312
 40
9.999999999999964
 50
127.3491502824547
 51
180.0000050089563
  0
ARC
  8
0
  6
CONTINUOUS
 62
     7
 10
626.3798828125
 20
-527.6568603515625
 40
9.999999999999964
 50
232.6508497175452
 51
269.9999974955215
  0
ARC
  8
0
  6
CONTINUOUS
 62
     7
 10
595
 20
-503.7091979980469
 40
10
 50
179.999991348578
 51
232.650859735458
  0
ARC
  8
0
  6
CONTINUOUS
 62
     7
 10
648
 20
-532.6568603515625
 40
5.000000000000004
 50
269.9999974955222
 51
0
  0
ARC
  8
0
  6
CONTINUOUS
 62
     7
 10
626.3798828125
 20
-672.3431396484375
 40
10.00000000000001
 50
90.00000250447847
 51
127.3491502824547
  0
ARC
  8
0
  6
CONTINUOUS
 62
     7
 10
648
 20
-667.3431396484375
 40
5
 50
0
 51
90.00000250447782
  0
CIRCLE
  8
0
  6
CONTINUOUS
 62
     3
 10
731
 20
-600
 40
8.507550239562988
  0
ARC
  8
0
  6
CONTINUOUS
 62
     7
 10
793
 20
-416.9561157226563
 40
31.99999999999997
 50
90.00000250447806
 51
180.0000050089563
  0
ARC
  8
0
  6
CONTINUOUS
 62
     7
 10
798
 20
-421.9561157226562
 40
5.000000000000004
 50
90.00000250447782
 51
180.0000050089563
  0
CIRCLE
  8
0
  6
CONTINUOUS
 62
     7
 10
0
 20
-600
 40
200
  0
ARC
  8
0
  6
CONTINUOUS
 62
     7
 10
0
 20
-600
 40
37.50000000000002
 50
105.4660233138666
 51
74.53398488281326
  0
ARC
  8
0
  6
CONTINUOUS
 62
     3
 10
0
 20
-600
 40
175
 50
333.6566024090428
 51
341.8562240170756
  0
CIRCLE
  8
0
  6
CONTINUOUS
 62
     7
 10
161.678955078125
 20
-666.9696044921875
 40
9.5
  0
ARC
  8
0
  6
CONTINUOUS
 62
     3
 10
0
 20
-600
 40
175
 50
18.6566224443021
 51
26.85623892969301
  0
CIRCLE
  8
0
  6
CONTINUOUS
 62
     7
 10
161.6788940429688
 20
-533.0303955078125
 40
9.5
  0
ARC
  8
0
  6
CONTINUOUS
 62
     3
 10
0
 20
-600
 40
175
 50
63.65661857389931
 51
71.85624018193211
  0
CIRCLE
  8
0
  6
CONTINUOUS
 62
     7
 10
66.9696044921875
 20
-438.3211059570313
 40
9.5
  0
ARC
  8
0
  6
CONTINUOUS
 62
     3
 10
0
 20
-600
 40
175
 50
108.6566164110438
 51
116.8562311888874
  0
CIRCLE
  8
0
  6
CONTINUOUS
 62
     7
 10
-66.9696044921875
 20
-438.3211059570313
 40
9.5
  0
ARC
  8
0
  6
CONTINUOUS
 62
     3
 10
0
 20
-600
 40
175
 50
153.6566074179991
 51
161.8562221958428
  0
CIRCLE
  8
0
  6
CONTINUOUS
 62
     7
 10
-161.678955078125
 20
-533.0303955078125
 40
9.5
  0
ARC
  8
0
  6
CONTINUOUS
 62
     3
 10
0
 20
-600
 40
175
 50
198.6566157277985
 51
206.8562305056421
  0
CIRCLE
  8
0
  6
CONTINUOUS
 62
     7
 10
-161.678955078125
 20
-666.9696044921875
 40
9.5
  0
ARC
  8
0
  6
CONTINUOUS
 62
     3
 10
0
 20
-600
 40
175
 50
243.6566067347538
 51
251.8562283427866
  0
CIRCLE
  8
0
  6
CONTINUOUS
 62
     7
 10
-66.9696044921875
 20
-761.678955078125
 40
9.5
  0
ARC
  8
0
  6
CONTINUOUS
 62
     3
 10
0
 20
-600
 40
175.0000000000001
 50
288.6566045718983
 51
296.8562261799311
  0
CIRCLE
  8
0
  6
CONTINUOUS
 62
     7
 10
66.9696044921875
 20
-761.678955078125
 40
9.5
  0
CIRCLE
  8
0
  6
CONTINUOUS
 62
     7
 10
0
 20
-600
 40
75
  0
CIRCLE
  8
0
  6
CONTINUOUS
 62
     7
 10
0
 20
-600
 40
110
  0
ARC
  8
0
  6
CONTINUOUS
 62
     3
 10
0
 20
-600
 40
95
 50
355.1693713345101
 51
4.830628665489899
  0
ARC
  8
0
  6
CONTINUOUS
 62
     3
 10
0
 20
-600
 40
94.99999999999997
 50
55.16937086972809
 51
64.83062563938695
  0
ARC
  8
0
  6
CONTINUOUS
 62
     3
 10
0
 20
-600
 40
95
 50
115.169365709191
 51
124.8306273090391
  0
ARC
  8
0
  6
CONTINUOUS
 62
     3
 10
0
 20
-600
 40
94.99999999999999
 50
175.1693673788432
 51
184.8306289786912
  0
ARC
  8
0
  6
CONTINUOUS
 62
     3
 10
0
 20
-600
 40
95.00000000000001
 50
235.1693726909609
 51
244.8306342908089
  0
ARC
  8
0
  6
CONTINUOUS
 62
     3
 10
0
 20
-600
 40
94.99999999999997
 50
295.1693743606131
 51
304.8306291302719
  0
CIRCLE
  8
0
  6
CONTINUOUS
 62
     3
 10
0
 20
-600
 40
8
  0
CIRCLE
  8
0
  6
CONTINUOUS
 62
     7
 10
0
 20
-600
 40
7
  0
ARC
  8
0
  6
CONTINUOUS
 62
     7
 10
0
 20
-600
 40
150
 50
13.00753690632465
 51
186.9924658132702
  0
ARC
  8
0
  6
CONTINUOUS
 62
     7
 10
0
 20
-600
 40
142
 50
16.87726083531811
 51
183.1227401767295
  0
CIRCLE
  8
0
  6
CONTINUOUS
 62
     7
 10
-130.4869995117188
 20
-623.0083618164062
 40
19
  0
CIRCLE
  8
0
  6
CONTINUOUS
 62
     7
 10
130.4869995117188
 20
-576.9915771484375
 40
19
  0
ARC
  8
0
  6
CONTINUOUS
 62
     7
 10
0
 20
-600
 40
142
 50
196.8772558263618
 51
3.122739223197954
  0
ARC
  8
0
  6
CONTINUOUS
 62
     7
 10
0
 20
-600
 40
150
 50
193.0075438501993
 51
6.992462938748019
  0
ARC
  8
0
  6
CONTINUOUS
 62
     7
 10
27.97379302978516
 20
-400.9561157226562
 40
16
 50
352.0000000619708
 51
154.7710893848701
  0
ARC
  8
0
  6
CONTINUOUS
 62
     7
 10
796.7999877929688
 20
-152
 40
4.199999809265136
 50
269.9999906653321
 51
355.3463667222278
  0
ARC
  8
0
  6
CONTINUOUS
 62
     7
 10
796.7999877929688
 20
152
 40
4.19999980926511
 50
4.653585466448101
 51
89.99996152334371
  0
ARC
  8
0
  6
CONTINUOUS
 62
     7
 10
871.4060668945313
 20
103
 40
2.999999999999959
 50
192.5394846467569
 51
269.9999770049552
  0
ARC
  8
0
  6
CONTINUOUS
 62
     7
 10
849.9149169921875
 20
134.2211303710937
 40
11.19999980926517
 50
12.53947599533467
 51
86.99996485495518
  0
ARC
  8
0
  6
CONTINUOUS
 62
     7
 10
805.9696655273437
 20
152.7463989257813
 40
4.999999999999968
 50
184.6536077782485
 51
266.9999803365663
  0
ARC
  8
0
  6
CONTINUOUS
 62
     7
 10
871.4060668945313
 20
-103
 40
2.999999999999994
 50
89.99996152334238
 51
167.4604470513518
  0
ARC
  8
0
  6
CONTINUOUS
 62
     7
 10
849.9149169921875
 20
-134.2210998535156
 40
11.19999980926512
 50
272.9999736733424
 51
347.4604625329628
  0
ARC
  8
0
  6
CONTINUOUS
 62
     7
 10
805.9696655273437
 20
-152.7463989257813
 40
4.999999999999989
 50
92.99996502192012
 51
175.3463375802381
  0
ARC
  8
0
  6
CONTINUOUS
 62
     7
 10
703
 20
0
 40
20.13370323181152
 50
14.37929160866249
 51
165.620708277652
  0
ARC
  8
0
  6
CONTINUOUS
 62
     7
 10
702.9999389648437
 20
0
 40
12.5
 50
23.57817843000461
 51
156.4218368242355
  0
ARC
  8
0
  6
CONTINUOUS
 62
     7
 10
722.9999389648438
 20
0
 40
5
 50
270.0000179860897
 51
89.99998201391031
  0
ARC
  8
0
  6
CONTINUOUS
 62
     7
 10
682.9999389648438
 20
0
 40
5
 50
89.99998201391031
 51
270.0000006832456
  0
ARC
  8
0
  6
CONTINUOUS
 62
     7
 10
702.9999389648437
 20
0
 40
12.50000000000001
 50
203.5781631757645
 51
336.4218215699954
  0
ARC
  8
0
  6
CONTINUOUS
 62
     7
 10
703
 20
0
 40
20.13370323181157
 50
194.379291722348
 51
345.6207083913375
  0
ARC
  8
0
  6
CONTINUOUS
 62
     7
 10
626.3798828125
 20
72.3431396484375
 40
9.999999999999998
 50
232.6508497175454
 51
269.9999974955215
  0
ARC
  8
0
  6
CONTINUOUS
 62
     7
 10
595
 20
96.29083251953125
 40
10
 50
179.999991348578
 51
232.6508597354581
  0
ARC
  8
0
  6
CONTINUOUS
 62
     7
 10
648
 20
67.3431396484375
 40
4.999999999999997
 50
269.9999974955222
 51
0
  0
ARC
  8
0
  6
CONTINUOUS
 62
     7
 10
626.3798828125
 20
-72.3431396484375
 40
10
 50
90.00000250447847
 51
127.3491502824545
  0
ARC
  8
0
  6
CONTINUOUS
 62
     7
 10
648
 20
-67.3431396484375
 40
5
 50
0
 51
90.00000250447782
  0
ARC
  8
0
  6
CONTINUOUS
 62
     7
 10
595
 20
-96.29083251953125
 40
10.00000000000001
 50
127.3491502824545
 51
180.0000050089563
  0
ARC
  8
0
  6
CONTINUOUS
 62
     7
 10
545
 20
0
 40
10
 50
270.0000179860891
 51
89.99998201391097
  0
CIRCLE
  8
0
  6
CONTINUOUS
 62
     7
 10
625
 20
0
 40
13.5
  0
ARC
  8
0
  6
CONTINUOUS
 62
     7
 10
789.771484375
 20
-7.248703479766846
 40
5.000000000000015
 50
232.746895837654
 51
269.9999974955222
  0
POLYLINE
  8
0
  6
CONTINUOUS
 62
     7
 66
     1
 10
0
 20
0
  0
VERTEX
  8
0
  6
CONTINUOUS
 62
     7
 10
552.0004784336098
 20
-479.2489833012394
 42
-0.1887441510142548
  0
VERTEX
  8
0
  6
CONTINUOUS
 62
     7
 10
565.0519316582208
 20
-500.6487900503292
 42
-0.06038123407186501
  0
VERTEX
  8
0
  6
CONTINUOUS
 62
     7
 10
565.6954102018393
 20
-526.2089032751213
 42
-0.0004320041193991512
  0
VERTEX
  8
0
  6
CONTINUOUS
 62
     7
 10
564.1862695133468
 20
-551.8004335198619
 42
0.008397385326041219
  0
VERTEX
  8
0
  6
CONTINUOUS
 62
     7
 10
563.0761653191682
 20
-577.4113333607493
 42
0.01779795977906328
  0
VERTEX
  8
0
  6
CONTINUOUS
 62
     7
 10
563.311073816464
 20
-603.0406161783935
 42
0.01884743833308264
  0
VERTEX
  8
0
  6
CONTINUOUS
 62
     7
 10
565.6108302787779
 20
-628.5670076109935
 42
-0.02521594160164143
  0
VERTEX
  8
0
  6
CONTINUOUS
 62
     7
 10
567.6467062405654
 20
-654.1104393842804
 42
-0.07191669214873897
  0
VERTEX
  8
0
  6
CONTINUOUS
 62
     7
 10
564.7201460755541
 20
-679.4892553001877
 42
-0.1364460769450561
  0
VERTEX
  8
0
  6
CONTINUOUS
 62
     7
 10
552.0005633228299
 20
-701.3925060362421
 42
0
  0
SEQEND
  8
0
  0
POLYLINE
  8
0
  6
CONTINUOUS
 62
     7
 66
     1
 10
0
 20
0
  0
VERTEX
  8
0
  6
CONTINUOUS
 62
     7
 10
763.5
 20
-453.4403076171875
 42
0.2041702944249491
  0
VERTEX
  8
0
  6
CONTINUOUS
 62
     7
 10
764.9370759430311
 20
-454.2651868646327
 42
0.02475759045291829
  0
VERTEX
  8
0
  6
CONTINUOUS
 62
     7
 10
766.6320122056726
 20
-454.6170052461993
 42
0.01202129901839676
  0
VERTEX
  8
0
  6
CONTINUOUS
 62
     7
 10
768.3478460107322
 20
-454.8506600117054
 42
0.00794606073239454
  0
VERTEX
  8
0
  6
CONTINUOUS
 62
     7
 10
770.072019185941
 20
-455.0172193438657
 42
0.00609669591453389
  0
VERTEX
  8
0
  6
CONTINUOUS
 62
     7
 10
771.8002770317369
 20
-455.1358518765392
 42
0.005133817662641354
  0
VERTEX
  8
0
  6
CONTINUOUS
 62
     7
 10
773.5311300791572
 20
-455.2159137723447
 42
0.004623604615200357
  0
VERTEX
  8
0
  6
CONTINUOUS
 62
     7
 10
775.2633755313658
 20
-455.2623379935976
 42
0.004398857588335819
  0
VERTEX
  8
0
  6
CONTINUOUS
 62
     7
 10
776.9961833549036
 20
-455.2776030759889
 42
0.004398001210390021
  0
VERTEX
  8
0
  6
CONTINUOUS
 62
     7
 10
778.7288436763245
 20
-455.2624750420993
 42
0.004620616127859963
  0
VERTEX
  8
0
  6
CONTINUOUS
 62
     7
 10
780.4605794007852
 20
-455.2162133833207
 42
0.005130686360049342
  0
VERTEX
  8
0
  6
CONTINUOUS
 62
     7
 10
782.1915028066632
 20
-455.1363183627062
 42
0.006092909343538643
  0
VERTEX
  8
0
  6
CONTINUOUS
 62
     7
 10
783.920393333305
 20
-455.0178363145941
 42
0.007941786331313587
  0
VERTEX
  8
0
  6
CONTINUOUS
 62
     7
 10
785.6459274428121
 20
-454.8513670927252
 42
0.0120166150936276
  0
VERTEX
  8
0
  6
CONTINUOUS
 62
     7
 10
787.3637884773448
 20
-454.6176902364788
 42
0.0247392802923201
  0
VERTEX
  8
0
  6
CONTINUOUS
 62
     7
 10
789.0606695244062
 20
-454.2657972554496
 42
0.2040666757196894
  0
VERTEX
  8
0
  6
CONTINUOUS
 62
     7
 10
790.5
 20
-453.4403076171875
 42
0
  0
SEQEND
  8
0
  0
POLYLINE
  8
0
  6
CONTINUOUS
 62
     7
 66
     1
 10
0
 20
0
  0
VERTEX
  8
0
  6
CONTINUOUS
 62
     7
 10
761
 20
-432.6447143554687
 42
0.2072082595745856
  0
VERTEX
  8
0
  6
CONTINUOUS
 62
     7
 10
762.6929993762667
 20
-433.6416207273678
 42
0.02540259312424666
  0
VERTEX
  8
0
  6
CONTINUOUS
 62
     7
 10
764.7016176539087
 20
-434.069110465985
 42
0.01232132905758524
  0
VERTEX
  8
0
  6
CONTINUOUS
 62
     7
 10
766.7362766792819
 20
-434.3529476833314
 42
0.008139706325287809
  0
VERTEX
  8
0
  6
CONTINUOUS
 62
     7
 10
768.781294677922
 20
-434.5552504464214
 42
0.006243142107072837
  0
VERTEX
  8
0
  6
CONTINUOUS
 62
     7
 10
770.8313887343118
 20
-434.6993292062392
 42
0.00525604206564914
  0
VERTEX
  8
0
  6
CONTINUOUS
 62
     7
 10
772.8846925493668
 20
-434.7965593224491
 42
0.004733098710637479
  0
VERTEX
  8
0
  6
CONTINUOUS
 62
     7
 10
774.9397186901178
 20
-434.8529370838016
 42
0.004502767389521676
  0
VERTEX
  8
0
  6
CONTINUOUS
 62
     7
 10
776.99544409206
 20
-434.871475129455
 42
0.004501886273019813
  0
VERTEX
  8
0
  6
CONTINUOUS
 62
     7
 10
779.050994164225
 20
-434.8531045297499
 42
0.004730034321771903
  0
VERTEX
  8
0
  6
CONTINUOUS
 62
     7
 10
781.1054186605924
 20
-434.7969251538196
 42
0.005252813999794417
  0
VERTEX
  8
0
  6
CONTINUOUS
 62
     7
 10
783.1588065817274
 20
-434.6998988337813
 42
0.006239234385277817
  0
VERTEX
  8
0
  6
CONTINUOUS
 62
     7
 10
785.2096556097907
 20
-434.5560039137783
 42
0.008135263162646537
  0
VERTEX
  8
0
  6
CONTINUOUS
 62
     7
 10
787.2562922551368
 20
-434.3538119515432
 42
0.01230715562032047
  0
VERTEX
  8
0
  6
CONTINUOUS
 62
     7
 10
789.2922538019317
 20
-434.0701347433903
 42
0.02536928394918152
  0
VERTEX
  8
0
  6
CONTINUOUS
 62
     7
 10
791.3032106677341
 20
-433.6426735370675
 42
0.2069986230506464
  0
VERTEX
  8
0
  6
CONTINUOUS
 62
     7
 10
793
 20
-432.6447143554687
 42
0
  0
SEQEND
  8
0
  0
POLYLINE
  8
0
  6
CONTINUOUS
 62
     7
 66
     1
 10
0
 20
0
  0
VERTEX
  8
0
  6
CONTINUOUS
 62
     7
 10
552.0004853474954
 20
97.36923259784126
 42
-0.2005716000776518
  0
VERTEX
  8
0
  6
CONTINUOUS
 62
     7
 10
565.9153947793135
 20
80.30384650547965
 42
-0.08979221175604229
  0
VERTEX
  8
0
  6
CONTINUOUS
 62
     7
 10
566.7932810270553
 20
57.85379265402825
 42
0.01006560156098885
  0
VERTEX
  8
0
  6
CONTINUOUS
 62
     7
 10
564.5456143214169
 20
35.37202938485723
 42
0.01797330539969634
  0
VERTEX
  8
0
  6
CONTINUOUS
 62
     7
 10
563.7961281656823
 20
12.79354197353022
 42
0.0131126102188373
  0
VERTEX
  8
0
  6
CONTINUOUS
 62
     7
 10
564.4686457945728
 20
-9.789904443707279
 42
0.000180532038942718
  0
VERTEX
  8
0
  6
CONTINUOUS
 62
     7
 10
565.8135932209773
 20
-32.34514858251024
 42
-0.01242988914959938
  0
VERTEX
  8
0
  6
CONTINUOUS
 62
     7
 10
566.5531327550588
 20
-54.92570087252365
 42
-0.05260470440110059
  0
VERTEX
  8
0
  6
CONTINUOUS
 62
     7
 10
564.952114510626
 20
-77.41982139447839
 42
-0.2794032111900129
  0
VERTEX
  8
0
  6
CONTINUOUS
 62
     7
 10
552.0011119371985
 20
-94.5684117123959
 42
0
  0
SEQEND
  8
0
  0
POLYLINE
  8
0
  6
CONTINUOUS
 62
     7
 66
     1
 10
0
 20
0
  0
VERTEX
  8
0
  6
CONTINUOUS
 62
     7
 10
761.0481757926505
 20
-25.02216713211694
 42
0.06184015278210594
  0
VERTEX
  8
0
  6
CONTINUOUS
 62
     7
 10
761.1183372289024
 20
-27.58799875354125
 42
0.05757751283204707
  0
VERTEX
  8
0
  6
CONTINUOUS
 62
     7
 10
761.7970946200728
 20
-30.06474682733725
 42
0.04899078857226977
  0
VERTEX
  8
0
  6
CONTINUOUS
 62
     7
 10
762.9857091060079
 20
-32.34261263494331
 42
0.03999697662477031
  0
VERTEX
  8
0
  6
CONTINUOUS
 62
     7
 10
764.5591649961435
 20
-34.3760253459084
 42
0.03249244903799211
  0
VERTEX
  8
0
  6
CONTINUOUS
 62
     7
 10
766.4093039426211
 20
-36.16209641447224
 42
0.0267887996641706
  0
VERTEX
  8
0
  6
CONTINUOUS
 62
     7
 10
768.4578797654015
 20
-37.71837132151987
 42
0.02256287974130905
  0
VERTEX
  8
0
  6
CONTINUOUS
 62
     7
 10
770.6496929033758
 20
-39.06613835631082
 42
0.01944806124517682
  0
VERTEX
  8
0
  6
CONTINUOUS
 62
     7
 10
772.9471046843879
 20
-40.22603050232724
 42
0.0171331743529113
  0
VERTEX
  8
0
  6
CONTINUOUS
 62
     7
 10
775.3230030980379
 20
-41.2153187076457
 42
0.01540726202733835
  0
VERTEX
  8
0
  6
CONTINUOUS
 62
     7
 10
777.7586353393535
 20
-42.04849572774017
 42
0.01411201277348145
  0
VERTEX
  8
0
  6
CONTINUOUS
 62
     7
 10
780.2392074181953
 20
-42.73677635449017
 42
0.0131469121508458
  0
VERTEX
  8
0
  6
CONTINUOUS
 62
     7
 10
782.753637798543
 20
-43.28907415842249
 42
0.01244154012636546
  0
VERTEX
  8
0
  6
CONTINUOUS
 62
     7
 10
785.2931525549765
 20
-43.71220345342255
 42
0.01194764954478262
  0
VERTEX
  8
0
  6
CONTINUOUS
 62
     7
 10
787.8503924245954
 20
-44.01115004767856
 42
0.01163359085673207
  0
VERTEX
  8
0
  6
CONTINUOUS
 62
     7
 10
790.4189040555112
 20
-44.18931917183077
 42
0.0114803650382159
  0
VERTEX
  8
0
  6
CONTINUOUS
 62
     7
 10
792.9928129773294
 20
-44.24870635792352
 42
0
  0
SEQEND
  8
0
  0
POLYLINE
  8
0
  6
CONTINUOUS
 62
     7
 66
     1
 10
0
 20
0
  0
VERTEX
  8
0
  6
CONTINUOUS
 62
     7
 10
786.7445195816891
 20
-11.22834513439366
 42
0.03583151297581946
  0
VERTEX
  8
0
  6
CONTINUOUS
 62
     7
 10
784.8250337276463
 20
-9.97502592676736
 42
0.03570830878246983
  0
VERTEX
  8
0
  6
CONTINUOUS
 62
     7
 10
782.746251036044
 20
-9.007956044749575
 42
0.03560994608683801
  0
VERTEX
  8
0
  6
CONTINUOUS
 62
     7
 10
780.5510674123005
 20
-8.34603713589166
 42
0.03554187812773203
  0
VERTEX
  8
0
  6
CONTINUOUS
 62
     7
 10
778.2844730419371
 20
-8.002018801626772
 42
0.03550251227101212
  0
VERTEX
  8
0
  6
CONTINUOUS
 62
     7
 10
775.9930174773228
 20
-7.982290251753173
 42
0.03552368791615141
  0
VERTEX
  8
0
  6
CONTINUOUS
 62
     7
 10
773.7216599941563
 20
-8.287036764549091
 42
0.03557805542150295
  0
VERTEX
  8
0
  6
CONTINUOUS
 62
     7
 10
771.5166821891411
 20
-8.91037462285078
 42
0.03568075744752475
  0
VERTEX
  8
0
  6
CONTINUOUS
 62
     7
 10
769.4221186811689
 20
-9.84061826843878
 42
0.03580348956865004
  0
VERTEX
  8
0
  6
CONTINUOUS
 62
     7
 10
767.4814932928647
 20
-11.05961143252718
 42
0.03595002242908681
  0
VERTEX
  8
0
  6
CONTINUOUS
 62
     7
 10
765.7349329419786
 20
-12.54360212814163
 42
0.03610679814209774
  0
VERTEX
  8
0
  6
CONTINUOUS
 62
     7
 10
764.2192882227415
 20
-14.26318049047579
 42
0.03625931443383115
  0
VERTEX
  8
0
  6
CONTINUOUS
 62
     7
 10
762.9672019256226
 20
-16.18358229659524
 42
0.03639310310535223
  0
VERTEX
  8
0
  6
CONTINUOUS
 62
     7
 10
762.0061547289482
 20
-18.26519647099374
 42
0.03649483553948179
  0
VERTEX
  8
0
  6
CONTINUOUS
 62
     7
 10
761.35755137432
 20
-20.4643028191063
 42
0.03655342762429002
  0
VERTEX
  8
0
  6
CONTINUOUS
 62
     7
 10
761.0359224913207
 20
-22.73404158616872
 42
0.0365406473090488
  0
VERTEX
  8
0
  6
CONTINUOUS
 62
     7
 10
761.0482178762642
 20
-25.02431645613928
 42
0
  0
SEQEND
  8
0
  0
TEXT
  8
0
  6
CONTINUOUS
 62
     7
 10
-100.7142906188965
 20
-15
 40
30
 41
0.8463385766293824
  1
ＥＲＶ－＿ＮＥ
  0
ENDSEC
  0
EOF
