  0
SECTION
  2
HEADER
  0
ENDSEC
  0
SECTION
  2
TABLES
  0
TABLE
  2
LTYPE
 70
    22
  0
LTYPE
  2
CONTINUOUS
 70
    64
  3
Solid line
 72
    65
 73
     0
 40
0.000000
  0
LTYPE
  2
DASHED
 70
    64
  3
__ __ __ __ __ __ __ __ __ __ __ __ __ __ __
 72
    65
 73
     2
 40
3.500000
 49
2.000000
 49
-1.500000
  0
LTYPE
  2
CENTER
 70
    64
  3
____ _ ____ _ ____ _ ____ _ ____ _ ____ _ ____
 72
    65
 73
     4
 40
17.500000
 49
13.000000
 49
-1.500000
 49
1.500000
 49
-1.500000
  0
LTYPE
  2
PHANTOM
 70
    64
  3
_____ _ _ _____ _ _ _____ _ _ _____ _ _ ____  
 72
    65
 73
     6
 40
15.500000
 49
8.000000
 49
-1.500000
 49
1.500000
 49
-1.500000
 49
1.500000
 49
-1.500000
  0
LTYPE
  2
DOT
 70
    64
  3
. . . . . . . . . . . . . . . . . . . . . . . .
 72
    65
 73
     2
 40
0.25
 49
0.0
 49
-0.25
  0
ENDTAB
  0
TABLE
  2
LAYER
 70
     1
  0
LAYER
  2
0
 70
     0
 62
     7
  6
CONTINUOUS
  0
ENDTAB
  0
TABLE
  2
STYLE
 70
     1
  0
STYLE
  2
STANDARD
 70
     0
 40
0.000000
 41
1.000000
 50
0.000000
 71
     0
 42
0.200000
  3
txt
  4
BIGFONT
  0
ENDTAB
  0
TABLE
  2
VIEW
 70
     0
  0
ENDTAB
  0
ENDSEC
  0
SECTION
  2
BLOCKS
  0
ENDSEC
  0
SECTION
  2
ENTITIES
  0
LINE
  8
0
  6
CONTINUOUS
 62
     3
 10
430
 20
-625
 11
1116
 21
-625
  0
LINE
  8
0
  6
CONTINUOUS
 62
     7
 10
858.7058715820313
 20
-502.5955200195313
 11
898.9231567382812
 21
-513.3717041015625
  0
LINE
  8
0
  6
CONTINUOUS
 62
     7
 10
805
 20
-447.5
 11
805
 21
-802.5
  0
LINE
  8
0
  6
CONTINUOUS
 62
     7
 10
805
 20
-802.5
 11
827
 21
-802.5
  0
LINE
  8
0
  6
CONTINUOUS
 62
     7
 10
805
 20
-447.5
 11
840
 21
-447.5
  0
LINE
  8
0
  6
CONTINUOUS
 62
     7
 10
855
 20
-494.1954956054688
 11
855
 21
-755.8045043945312
  0
LINE
  8
0
  6
CONTINUOUS
 62
     7
 10
923
 20
-510
 11
923
 21
-740
  0
LINE
  8
0
  6
CONTINUOUS
 62
     7
 10
905
 20
-510
 11
905
 21
-740
  0
LINE
  8
0
  6
CONTINUOUS
 62
     7
 10
905
 20
-510
 11
923
 21
-510
  0
LINE
  8
0
  6
CONTINUOUS
 62
     7
 10
905
 20
-740
 11
923
 21
-740
  0
LINE
  8
0
  6
CONTINUOUS
 62
     7
 10
876.9903564453125
 20
-697.5
 11
902.5
 21
-712.2279663085937
  0
LINE
  8
0
  6
CONTINUOUS
 62
     7
 10
860
 20
-697.5
 11
876.9903564453125
 21
-697.5
  0
LINE
  8
0
  6
CONTINUOUS
 62
     7
 10
831.1317138671875
 20
-764.2086181640625
 11
850.8682250976563
 21
-760.728515625
  0
LINE
  8
0
  6
CONTINUOUS
 62
     7
 10
827
 20
-447.5
 11
827
 21
-802.5
  0
LINE
  8
0
  6
CONTINUOUS
 62
     7
 10
840
 20
-447.5
 11
840
 21
-483.1596069335937
  0
LINE
  8
0
  6
CONTINUOUS
 62
     7
 10
860
 20
-552.5
 11
876.9903564453125
 21
-552.5
  0
LINE
  8
0
  6
CONTINUOUS
 62
     7
 10
876.9903564453125
 20
-552.5
 11
902.5
 21
-537.7720336914063
  0
LINE
  8
0
  6
CONTINUOUS
 62
     7
 10
855
 20
-621
 11
905
 21
-621
  0
LINE
  8
0
  6
CONTINUOUS
 62
     7
 10
855
 20
-629
 11
905
 21
-629
  0
LINE
  8
0
  6
CONTINUOUS
 62
     7
 10
831.1317749023437
 20
-485.7914123535156
 11
850.8682250976563
 21
-489.271484375
  0
LINE
  8
0
  6
CONTINUOUS
 62
     7
 10
858.7058715820313
 20
-747.4044799804688
 11
898.9231567382812
 21
-736.6282958984375
  0
LINE
  8
0
  6
CONTINUOUS
 62
     7
 10
927
 20
-507.5
 11
971
 21
-507.5
  0
LINE
  8
0
  6
CONTINUOUS
 62
     7
 10
927
 20
-742.5
 11
971
 21
-742.5
  0
LINE
  8
0
  6
CONTINUOUS
 62
     7
 10
927
 20
-736.4676513671875
 11
971
 21
-736.4676513671875
  0
LINE
  8
0
  6
CONTINUOUS
 62
     7
 10
923
 20
-511.5
 11
927
 21
-507.5
  0
LINE
  8
0
  6
CONTINUOUS
 62
     7
 10
971
 20
-507.5
 11
975
 21
-511.5
  0
LINE
  8
0
  6
CONTINUOUS
 62
     7
 10
975
 20
-738.5
 11
971.0000610351563
 21
-742.5
  0
LINE
  8
0
  6
CONTINUOUS
 62
     7
 10
927.0000610351562
 20
-742.5
 11
923.0000610351562
 21
-738.5
  0
LINE
  8
0
  6
CONTINUOUS
 62
     7
 10
927
 20
-550.0578002929687
 11
971
 21
-550.0578002929687
  0
LINE
  8
0
  6
CONTINUOUS
 62
     7
 10
927
 20
-563.7132568359375
 11
971
 21
-563.7132568359375
  0
LINE
  8
0
  6
CONTINUOUS
 62
     7
 10
927
 20
-572.4596557617188
 11
971
 21
-572.4596557617188
  0
LINE
  8
0
  6
CONTINUOUS
 62
     7
 10
927
 20
-587.8353271484375
 11
971
 21
-587.8353271484375
  0
LINE
  8
0
  6
CONTINUOUS
 62
     7
 10
927
 20
-597.447998046875
 11
971
 21
-597.447998046875
  0
LINE
  8
0
  6
CONTINUOUS
 62
     7
 10
927
 20
-614.00048828125
 11
971
 21
-614.00048828125
  0
LINE
  8
0
  6
CONTINUOUS
 62
     7
 10
927
 20
-636.0003051757812
 11
971
 21
-636.0003051757812
  0
LINE
  8
0
  6
CONTINUOUS
 62
     7
 10
927
 20
-652.5516357421875
 11
971
 21
-652.5516357421875
  0
LINE
  8
0
  6
CONTINUOUS
 62
     7
 10
927
 20
-662.1639404296875
 11
971
 21
-662.1639404296875
  0
LINE
  8
0
  6
CONTINUOUS
 62
     7
 10
927
 20
-677.5404052734375
 11
971
 21
-677.5404052734375
  0
LINE
  8
0
  6
CONTINUOUS
 62
     7
 10
927
 20
-686.2864379882813
 11
971
 21
-686.2864379882813
  0
LINE
  8
0
  6
CONTINUOUS
 62
     7
 10
927
 20
-699.94091796875
 11
971
 21
-699.94091796875
  0
LINE
  8
0
  6
CONTINUOUS
 62
     7
 10
927
 20
-715.4974365234375
 11
971
 21
-715.4974365234375
  0
LINE
  8
0
  6
CONTINUOUS
 62
     7
 10
927
 20
-725.2504272460938
 11
971
 21
-725.2504272460938
  0
LINE
  8
0
  6
CONTINUOUS
 62
     7
 10
927
 20
-730.0982055664063
 11
971
 21
-730.0982055664063
  0
LINE
  8
0
  6
CONTINUOUS
 62
     7
 10
730
 20
-805
 11
800
 21
-805
  0
LINE
  8
0
  6
CONTINUOUS
 62
     7
 10
730
 20
-445
 11
800
 21
-445
  0
LINE
  8
0
  6
CONTINUOUS
 62
     7
 10
725.0000610351562
 20
-450.0000610351562
 11
730.0000610351562
 21
-445.0000610351563
  0
LINE
  8
0
  6
CONTINUOUS
 62
     7
 10
800.0000610351562
 20
-445.0000305175781
 11
805
 21
-450
  0
LINE
  8
0
  6
CONTINUOUS
 62
     7
 10
725
 20
-800
 11
730
 21
-805
  0
LINE
  8
0
  6
CONTINUOUS
 62
     7
 10
800
 20
-805
 11
805
 21
-799.9999389648437
  0
LINE
  8
0
  6
CONTINUOUS
 62
     7
 10
739.0001220703125
 20
-435
 11
771.0000610351563
 21
-435
  0
LINE
  8
0
  6
CONTINUOUS
 62
     7
 10
735.3602905273437
 20
-445
 11
739
 21
-435.0000305175781
  0
LINE
  8
0
  6
CONTINUOUS
 62
     7
 10
774.6397094726562
 20
-444.9999694824219
 11
771
 21
-434.9999694824219
  0
LINE
  8
0
  6
CONTINUOUS
 62
     7
 10
730
 20
-452.0777587890625
 11
800
 21
-452.0777587890625
  0
LINE
  8
0
  6
CONTINUOUS
 62
     7
 10
730
 20
-490.5732421875
 11
800
 21
-490.5732421875
  0
LINE
  8
0
  6
CONTINUOUS
 62
     7
 10
730
 20
-505.2942504882812
 11
800
 21
-505.2942504882812
  0
LINE
  8
0
  6
CONTINUOUS
 62
     7
 10
730
 20
-520.9464111328125
 11
800
 21
-520.9464111328125
  0
LINE
  8
0
  6
CONTINUOUS
 62
     7
 10
730
 20
-538.0659790039063
 11
800
 21
-538.0659790039063
  0
LINE
  8
0
  6
CONTINUOUS
 62
     7
 10
730
 20
-575.02099609375
 11
800
 21
-575.02099609375
  0
LINE
  8
0
  6
CONTINUOUS
 62
     7
 10
730
 20
-594.71923828125
 11
800
 21
-594.71923828125
  0
LINE
  8
0
  6
CONTINUOUS
 62
     7
 10
730
 20
-614.5905151367187
 11
800
 21
-614.5905151367187
  0
LINE
  8
0
  6
CONTINUOUS
 62
     7
 10
730
 20
-635.4093627929687
 11
800
 21
-635.4093627929687
  0
LINE
  8
0
  6
CONTINUOUS
 62
     7
 10
730
 20
-655.28076171875
 11
800
 21
-655.28076171875
  0
LINE
  8
0
  6
CONTINUOUS
 62
     7
 10
730
 20
-674.9788208007813
 11
800
 21
-674.9788208007813
  0
LINE
  8
0
  6
CONTINUOUS
 62
     7
 10
730
 20
-711.9341430664062
 11
800
 21
-711.9341430664062
  0
LINE
  8
0
  6
CONTINUOUS
 62
     7
 10
730
 20
-729.0533447265625
 11
800
 21
-729.0533447265625
  0
LINE
  8
0
  6
CONTINUOUS
 62
     7
 10
730
 20
-744.7055053710937
 11
800
 21
-744.7055053710937
  0
LINE
  8
0
  6
CONTINUOUS
 62
     7
 10
730
 20
-759.4265747070313
 11
800
 21
-759.4265747070313
  0
LINE
  8
0
  6
CONTINUOUS
 62
     7
 10
730
 20
-771.8770141601562
 11
800
 21
-771.8770141601562
  0
LINE
  8
0
  6
CONTINUOUS
 62
     7
 10
730
 20
-782.6148681640625
 11
800
 21
-782.6148681640625
  0
LINE
  8
0
  6
CONTINUOUS
 62
     7
 10
730
 20
-797.92236328125
 11
800
 21
-797.92236328125
  0
LINE
  8
0
  6
CONTINUOUS
 62
     7
 10
742.5000610351563
 20
-432.0000305175781
 11
743.7955932617188
 21
-424.6527404785156
  0
LINE
  8
0
  6
CONTINUOUS
 62
     7
 10
766.2044677734375
 20
-424.6526794433594
 11
767.5
 21
-432
  0
LINE
  8
0
  6
CONTINUOUS
 62
     7
 10
745.76513671875
 20
-423
 11
764.23486328125
 21
-423
  0
LINE
  8
0
  6
CONTINUOUS
 62
     7
 10
745.341796875
 20
-423.0452880859375
 11
754.57666015625
 21
-421.0452880859375
  0
LINE
  8
0
  6
CONTINUOUS
 62
     7
 10
755.4234008789063
 20
-421.0453186035156
 11
764.658203125
 21
-423.0453186035156
  0
LINE
  8
0
  6
CONTINUOUS
 62
     7
 10
742.5
 20
-432
 11
742.5
 21
-435
  0
LINE
  8
0
  6
CONTINUOUS
 62
     7
 10
767.5
 20
-432.0000305175781
 11
767.5
 21
-435
  0
LINE
  8
0
  6
CONTINUOUS
 62
     7
 10
975
 20
-510
 11
975
 21
-740
  0
LINE
  8
0
  6
CONTINUOUS
 62
     7
 10
1046
 20
-590
 11
1046
 21
-660
  0
LINE
  8
0
  6
CONTINUOUS
 62
     7
 10
1028
 20
-570
 11
1028
 21
-680
  0
LINE
  8
0
  6
CONTINUOUS
 62
     7
 10
1046
 20
-590
 11
1039.999877929688
 21
-586.535888671875
  0
LINE
  8
0
  6
CONTINUOUS
 62
     7
 10
1046
 20
-660
 11
1040
 21
-663.464111328125
  0
LINE
  8
0
  6
CONTINUOUS
 62
     7
 10
1040
 20
-570
 11
1040
 21
-680
  0
LINE
  8
0
  6
CONTINUOUS
 62
     7
 10
1040
 20
-570
 11
1020.88671875
 21
-570
  0
LINE
  8
0
  6
CONTINUOUS
 62
     7
 10
1040
 20
-680
 11
1020.88671875
 21
-680
  0
LINE
  8
0
  6
CONTINUOUS
 62
     7
 10
1016.556640625
 20
-567.5
 11
1002.669860839844
 21
-543.447509765625
  0
LINE
  8
0
  6
CONTINUOUS
 62
     7
 10
1016.556579589844
 20
-682.5
 11
1002.122863769531
 21
-707.5
  0
LINE
  8
0
  6
CONTINUOUS
 62
     7
 10
1002.122863769531
 20
-707.5
 11
998
 21
-707.5
  0
LINE
  8
0
  6
CONTINUOUS
 62
     7
 10
993
 20
-521.8897705078125
 11
993
 21
-740
  0
LINE
  8
0
  6
CONTINUOUS
 62
     7
 10
993
 20
-740
 11
975
 21
-740
  0
LINE
  8
0
  6
CONTINUOUS
 62
     7
 10
1002
 20
-510
 11
998.4257202148437
 21
-510
  0
LINE
  8
0
  6
CONTINUOUS
 62
     7
 10
1002
 20
-510
 11
1002
 21
-556.2046508789063
  0
LINE
  8
0
  6
CONTINUOUS
 62
     7
 10
1096
 20
-608
 11
1096
 21
-639
  0
LINE
  8
0
  6
CONTINUOUS
 62
     7
 10
1096
 20
-611
 11
1051
 21
-611
  0
LINE
  8
0
  6
CONTINUOUS
 62
     7
 10
1096
 20
-639
 11
1051
 21
-639
  0
LINE
  8
0
  6
CONTINUOUS
 62
     7
 10
1051
 20
-607.5
 11
1051
 21
-642.5
  0
LINE
  8
0
  6
CONTINUOUS
 62
     7
 10
1051
 20
-607.5
 11
1046
 21
-607.5
  0
LINE
  8
0
  6
CONTINUOUS
 62
     7
 10
1051
 20
-642.5
 11
1046
 21
-642.5
  0
LINE
  8
0
  6
CONTINUOUS
 62
     7
 10
1002.122863769531
 20
-556.18359375
 11
1002.122863769531
 21
-707.5
  0
LINE
  8
0
  6
CONTINUOUS
 62
     7
 10
1096
 20
-608
 11
1060
 21
-608
  0
LINE
  8
0
  6
CONTINUOUS
 62
     7
 10
1060
 20
-608
 11
1060
 21
-611
  0
LINE
  8
0
  6
CONTINUOUS
 62
     7
 10
992.9999389648437
 20
-521.8897705078125
 11
1001.999938964844
 21
-520.774658203125
  0
LINE
  8
0
  6
CONTINUOUS
 62
     7
 10
981.5742797851563
 20
-510
 11
975
 21
-510
  0
LINE
  8
0
  6
CONTINUOUS
 62
     7
 10
993.0001220703125
 20
-557.7493286132812
 11
1002.122985839844
 21
-556.1835327148437
  0
LINE
  8
0
  6
CONTINUOUS
 62
     7
 10
590
 20
-400
 11
615
 21
-400
  0
LINE
  8
0
  6
CONTINUOUS
 62
     7
 10
590
 20
-850
 11
615
 21
-850
  0
LINE
  8
0
  6
CONTINUOUS
 62
     7
 10
725
 20
-447.5
 11
725
 21
-802.5
  0
LINE
  8
0
  6
CONTINUOUS
 62
     7
 10
590
 20
-400
 11
590
 21
-485.2767944335938
  0
LINE
  8
0
  6
CONTINUOUS
 62
     7
 10
615
 20
-400
 11
615
 21
-850
  0
LINE
  8
0
  6
CONTINUOUS
 62
     7
 10
700
 20
-447.5
 11
700
 21
-802.5
  0
LINE
  8
0
  6
CONTINUOUS
 62
     7
 10
625
 20
-447.5
 11
725
 21
-447.5
  0
LINE
  8
0
  6
CONTINUOUS
 62
     7
 10
700
 20
-802.5
 11
725
 21
-802.5
  0
LINE
  8
0
  6
CONTINUOUS
 62
     7
 10
655.7060546875
 20
-544.9932861328125
 11
700
 21
-544.9932861328125
  0
LINE
  8
0
  6
CONTINUOUS
 62
     7
 10
655.7060546875
 20
-705.0067138671875
 11
700
 21
-705.0067138671875
  0
LINE
  8
0
  6
CONTINUOUS
 62
     7
 10
615
 20
-518.1932983398437
 11
649.8916015625
 21
-543.129150390625
  0
LINE
  8
0
  6
CONTINUOUS
 62
     7
 10
615
 20
-731.8067626953125
 11
649.8916015625
 21
-706.8709106445313
  0
LINE
  8
0
  6
CONTINUOUS
 62
     7
 10
618.1577758789062
 20
-768.3433837890625
 11
693.1577758789062
 21
-738.6190185546875
  0
LINE
  8
0
  6
CONTINUOUS
 62
     7
 10
618.1577758789062
 20
-789.5565795898437
 11
693.1577758789062
 21
-759.8322143554688
  0
LINE
  8
0
  6
CONTINUOUS
 62
     7
 10
618.1578369140625
 20
-481.6566162109375
 11
693.1578369140625
 21
-511.3809814453125
  0
LINE
  8
0
  6
CONTINUOUS
 62
     7
 10
618.1577758789062
 20
-460.4434204101562
 11
693.1577758789062
 21
-490.1677856445313
  0
LINE
  8
0
  6
CONTINUOUS
 62
     7
 10
582
 20
-450
 11
582
 21
-480.5072021484375
  0
LINE
  8
0
  6
CONTINUOUS
 62
     7
 10
582
 20
-450
 11
590
 21
-450
  0
LINE
  8
0
  6
CONTINUOUS
 62
     7
 10
582
 20
-800
 11
590
 21
-800
  0
LINE
  8
0
  6
CONTINUOUS
 62
     7
 10
450
 20
-577.5
 11
590
 21
-577.5
  0
LINE
  8
0
  6
CONTINUOUS
 62
     7
 10
450
 20
-672.5
 11
590
 21
-672.5
  0
LINE
  8
0
  6
CONTINUOUS
 62
     7
 10
450
 20
-572.5
 11
450
 21
-672.5
  0
LINE
  8
0
  6
CONTINUOUS
 62
     7
 10
582
 20
-748.54296875
 11
582
 21
-800
  0
LINE
  8
0
  6
CONTINUOUS
 62
     7
 10
590
 20
-741.47412109375
 11
590
 21
-850
  0
LINE
  8
0
  6
CONTINUOUS
 62
     7
 10
450
 20
-572.5
 11
560
 21
-572.5
  0
LINE
  8
0
  6
CONTINUOUS
 62
     7
 10
590
 20
-570
 11
590
 21
-680
  0
LINE
  8
0
  6
CONTINUOUS
 62
     7
 10
590
 20
-570
 11
594.797607421875
 21
-570
  0
LINE
  8
0
  6
CONTINUOUS
 62
     7
 10
590
 20
-680
 11
595.4757080078125
 21
-680
  0
LINE
  8
0
  6
CONTINUOUS
 62
     7
 10
668.5
 20
-410.2000122070313
 11
695.5
 21
-410.2000122070313
  0
LINE
  8
0
  6
CONTINUOUS
 62
     7
 10
673.3499755859375
 20
-410.2000122070313
 11
673.3499755859375
 21
-447.5
  0
LINE
  8
0
  6
CONTINUOUS
 62
     7
 10
690.6500244140625
 20
-410.2000122070313
 11
690.6500244140625
 21
-447.5
  0
LINE
  8
0
  6
CONTINUOUS
 62
     3
 10
682
 20
-355.53759765625
 11
682
 21
-462.5
  0
LINE
  8
0
  6
CONTINUOUS
 62
     7
 10
668.5
 20
-378.2000122070312
 11
695.5
 21
-378.2000122070312
  0
LINE
  8
0
  6
CONTINUOUS
 62
     7
 10
690.071044921875
 20
-363.550048828125
 11
673.928955078125
 21
-363.550048828125
  0
LINE
  8
0
  6
CONTINUOUS
 62
     7
 10
690.507568359375
 20
-372.550048828125
 11
673.492431640625
 21
-372.550048828125
  0
LINE
  8
0
  6
CONTINUOUS
 62
     7
 10
690.507568359375
 20
-372.5500183105469
 11
690.3309936523437
 21
-378.1999816894531
  0
LINE
  8
0
  6
CONTINUOUS
 62
     7
 10
673.492431640625
 20
-372.5500793457031
 11
673.6689453125
 21
-378.2000122070312
  0
LINE
  8
0
  6
CONTINUOUS
 62
     7
 10
690.071044921875
 20
-363.550048828125
 11
690.071044921875
 21
-372.550048828125
  0
LINE
  8
0
  6
CONTINUOUS
 62
     7
 10
673.928955078125
 20
-363.550048828125
 11
673.928955078125
 21
-372.550048828125
  0
LINE
  8
0
  6
CONTINUOUS
 62
     7
 10
695.5
 20
-378.2000122070312
 11
695.5
 21
-410.2000122070313
  0
LINE
  8
0
  6
CONTINUOUS
 62
     7
 10
668.5
 20
-378.2000122070312
 11
668.5
 21
-410.2000122070313
  0
LINE
  8
0
  6
CONTINUOUS
 62
     3
 10
673.928955078125
 20
-372.5500793457031
 11
682
 21
-363.550048828125
  0
LINE
  8
0
  6
CONTINUOUS
 62
     7
 10
682
 20
-363.550048828125
 11
682
 21
-372.550048828125
  0
LINE
  8
0
  6
CONTINUOUS
 62
     3
 10
682
 20
-372.5500793457031
 11
690.071044921875
 21
-363.5500793457031
  0
LINE
  8
0
  6
CONTINUOUS
 62
     3
 10
690.071044921875
 20
-372.550048828125
 11
682
 21
-363.550048828125
  0
LINE
  8
0
  6
CONTINUOUS
 62
     3
 10
673.928955078125
 20
-363.5500183105469
 11
682
 21
-372.5500183105469
  0
LINE
  8
0
  6
CONTINUOUS
 62
     7
 10
560
 20
-572.5
 11
560
 21
-577.5
  0
LINE
  8
0
  6
CONTINUOUS
 62
     3
 10
1033.4326171875
 20
-475.9199829101562
 11
972.7659301757812
 21
-475.9199829101562
  0
LINE
  8
0
  6
CONTINUOUS
 62
     3
 10
990
 20
-455.2937927246094
 11
990
 21
-521.1241455078125
  0
LINE
  8
0
  6
CONTINUOUS
 62
     7
 10
998.5
 20
-500.2359313964844
 11
998.5
 21
-513.2833862304687
  0
LINE
  8
0
  6
CONTINUOUS
 62
     7
 10
981.5
 20
-500.2359619140625
 11
981.5
 21
-513.2806396484375
  0
LINE
  8
0
  6
CONTINUOUS
 62
     7
 10
1028
 20
-484.1878051757812
 11
1028
 21
-467.6521911621094
  0
LINE
  8
0
  6
CONTINUOUS
 62
     7
 10
1019
 20
-484.4275512695312
 11
1019
 21
-467.4124145507813
  0
LINE
  8
0
  6
CONTINUOUS
 62
     7
 10
1019
 20
-484.4275512695312
 11
1013
 21
-484.2400512695313
  0
LINE
  8
0
  6
CONTINUOUS
 62
     7
 10
1019
 20
-467.4124450683594
 11
1013
 21
-467.5999450683594
  0
LINE
  8
0
  6
CONTINUOUS
 62
     7
 10
1001
 20
-463.9199829101562
 11
1013
 21
-463.9199829101562
  0
LINE
  8
0
  6
CONTINUOUS
 62
     7
 10
1007
 20
-487.9199829101563
 11
1013
 21
-487.9199829101563
  0
LINE
  8
0
  6
CONTINUOUS
 62
     7
 10
1013
 20
-463.9199829101562
 11
1013
 21
-487.9199829101563
  0
LINE
  8
0
  6
CONTINUOUS
 62
     7
 10
978
 20
-486.9199829101562
 11
978
 21
-498.3305053710937
  0
LINE
  8
0
  6
CONTINUOUS
 62
     7
 10
1002
 20
-492.9199829101562
 11
1002
 21
-498.3305053710937
  0
LINE
  8
0
  6
CONTINUOUS
 62
     7
 10
1019
 20
-467.6521911621094
 11
1028
 21
-467.6521911621094
  0
LINE
  8
0
  6
CONTINUOUS
 62
     7
 10
1019
 20
-484.1878051757812
 11
1028
 21
-484.1878051757812
  0
LINE
  8
0
  6
CONTINUOUS
 62
     3
 10
1019
 20
-467.6521911621094
 11
1028
 21
-475.9199829101562
  0
LINE
  8
0
  6
CONTINUOUS
 62
     7
 10
1019
 20
-475.9199829101562
 11
1028
 21
-475.9199829101562
  0
LINE
  8
0
  6
CONTINUOUS
 62
     3
 10
1028
 20
-467.6521911621094
 11
1019
 21
-475.9200134277344
  0
LINE
  8
0
  6
CONTINUOUS
 62
     3
 10
1019
 20
-475.9199829101562
 11
1028
 21
-484.1878051757812
  0
LINE
  8
0
  6
CONTINUOUS
 62
     3
 10
1028
 20
-475.9199829101562
 11
1019
 21
-484.1878051757812
  0
LINE
  8
0
  6
CONTINUOUS
 62
     3
 10
960
 20
-615.135009765625
 11
960
 21
-634.864990234375
  0
LINE
  8
0
  6
CONTINUOUS
 62
     7
 10
960
 20
-620.0502319335937
 11
955.0502319335938
 21
-625
  0
LINE
  8
0
  6
CONTINUOUS
 62
     7
 10
955.0502319335938
 20
-625
 11
960
 21
-629.9497680664063
  0
LINE
  8
0
  6
CONTINUOUS
 62
     7
 10
960
 20
-629.9497680664063
 11
964.94970703125
 21
-625
  0
LINE
  8
0
  6
CONTINUOUS
 62
     7
 10
964.94970703125
 20
-625
 11
960
 21
-620.0502319335937
  0
LINE
  8
0
  6
CONTINUOUS
 62
     3
 10
0
 20
-355.53759765625
 11
0
 21
-870
  0
LINE
  8
0
  6
CONTINUOUS
 62
     3
 10
-245
 20
-625
 11
245
 21
-625
  0
LINE
  8
0
  6
CONTINUOUS
 62
     7
 10
-12.5
 20
-572.5
 11
-12.5
 21
-586.5
  0
LINE
  8
0
  6
CONTINUOUS
 62
     7
 10
12.5
 20
-572.5
 11
12.5
 21
-586.5
  0
LINE
  8
0
  6
CONTINUOUS
 62
     3
 10
172.4159393310547
 20
-696.4176025390625
 11
195.4671478271484
 21
-705.9656982421875
  0
LINE
  8
0
  6
CONTINUOUS
 62
     3
 10
172.4161376953125
 20
-553.5828857421875
 11
195.4673309326172
 21
-544.0347290039062
  0
LINE
  8
0
  6
CONTINUOUS
 62
     3
 10
71.41724395751953
 20
-452.5839233398438
 11
80.96536254882813
 21
-429.53271484375
  0
LINE
  8
0
  6
CONTINUOUS
 62
     3
 10
-71.41686248779297
 20
-452.5837707519531
 11
-80.96498107910156
 21
-429.5325622558594
  0
LINE
  8
0
  6
CONTINUOUS
 62
     3
 10
-172.4159698486328
 20
-553.5826416015625
 11
-195.4671783447266
 21
-544.0345458984375
  0
LINE
  8
0
  6
CONTINUOUS
 62
     3
 10
-172.4161834716797
 20
-696.4168701171875
 11
-195.4673919677734
 21
-705.9649658203125
  0
LINE
  8
0
  6
CONTINUOUS
 62
     3
 10
-71.41748046875
 20
-797.4158935546875
 11
-80.96560668945312
 21
-820.4671020507812
  0
LINE
  8
0
  6
CONTINUOUS
 62
     3
 10
71.4166259765625
 20
-797.4163208007812
 11
80.96473693847656
 21
-820.467529296875
  0
LINE
  8
0
  6
CONTINUOUS
 62
     7
 10
-12.5
 20
-586.5
 11
12.5
 21
-586.5
  0
LINE
  8
0
  6
CONTINUOUS
 62
     7
 10
-12.5
 20
-572.5
 11
12.5
 21
-572.5
  0
LINE
  8
0
  6
CONTINUOUS
 62
     3
 10
63.84315872192383
 20
-514.4204711914062
 11
52.58005905151367
 21
-533.9287109375
  0
LINE
  8
0
  6
CONTINUOUS
 62
     3
 10
-63.84307861328125
 20
-514.4204711914062
 11
-52.57998657226562
 21
-533.9287109375
  0
LINE
  8
0
  6
CONTINUOUS
 62
     3
 10
-63.84309387207031
 20
-735.5795288085938
 11
-52.58000183105469
 21
-716.0712890625
  0
LINE
  8
0
  6
CONTINUOUS
 62
     3
 10
63.84317398071289
 20
-735.5795288085938
 11
52.58005142211914
 21
-716.0712280273437
  0
LINE
  8
0
  6
CONTINUOUS
 62
     7
 10
-13.5
 20
-378.2000122070312
 11
13.5
 21
-378.2000122070312
  0
LINE
  8
0
  6
CONTINUOUS
 62
     7
 10
8.071044921875
 20
-363.550048828125
 11
-8.071044921875
 21
-363.550048828125
  0
LINE
  8
0
  6
CONTINUOUS
 62
     7
 10
8.507568359375
 20
-372.550048828125
 11
-8.507568359375
 21
-372.550048828125
  0
LINE
  8
0
  6
CONTINUOUS
 62
     7
 10
8.507541656494141
 20
-372.5499877929687
 11
8.33098030090332
 21
-378.1999816894531
  0
LINE
  8
0
  6
CONTINUOUS
 62
     7
 10
-8.507637977600098
 20
-372.550048828125
 11
-8.331076622009277
 21
-378.2000122070312
  0
LINE
  8
0
  6
CONTINUOUS
 62
     7
 10
8.071044921875
 20
-363.550048828125
 11
8.071044921875
 21
-372.550048828125
  0
LINE
  8
0
  6
CONTINUOUS
 62
     7
 10
-8.071044921875
 20
-363.550048828125
 11
-8.071044921875
 21
-372.550048828125
  0
LINE
  8
0
  6
CONTINUOUS
 62
     7
 10
13.5
 20
-378.2000122070312
 11
13.5
 21
-400.4053649902344
  0
LINE
  8
0
  6
CONTINUOUS
 62
     7
 10
-13.5
 20
-378.2000122070312
 11
-13.5
 21
-400.4053649902344
  0
LINE
  8
0
  6
CONTINUOUS
 62
     3
 10
-8.071027755737305
 20
-363.5500793457031
 11
6.960085011087358E-05
 21
-372.5501403808594
  0
LINE
  8
0
  6
CONTINUOUS
 62
     3
 10
-8.071048736572266
 20
-372.5500183105469
 11
-1.223221806867514E-05
 21
-363.5500183105469
  0
LINE
  8
0
  6
CONTINUOUS
 62
     3
 10
1.189822069136426E-05
 20
-372.550048828125
 11
8.071047782897949
 21
-363.550048828125
  0
LINE
  8
0
  6
CONTINUOUS
 62
     3
 10
8.071073532104492
 20
-372.5501708984375
 11
-2.419263182673603E-05
 21
-363.5501098632813
  0
LINE
  8
0
  6
CONTINUOUS
 62
     7
 10
0
 20
-363.550048828125
 11
0
 21
-372.550048828125
  0
LINE
  8
0
  6
CONTINUOUS
 62
     3
 10
430
 20
0
 11
1116
 21
0
  0
LINE
  8
0
  6
CONTINUOUS
 62
     7
 10
805
 20
177.5000152587891
 11
805
 21
-177.4999847412109
  0
LINE
  8
0
  6
CONTINUOUS
 62
     7
 10
805
 20
-177.5
 11
827
 21
-177.5
  0
LINE
  8
0
  6
CONTINUOUS
 62
     7
 10
805
 20
177.5
 11
827
 21
177.5
  0
LINE
  8
0
  6
CONTINUOUS
 62
     7
 10
923
 20
115.0000152587891
 11
923
 21
-114.9999847412109
  0
LINE
  8
0
  6
CONTINUOUS
 62
     7
 10
905
 20
115.0000152587891
 11
905
 21
-114.9999847412109
  0
LINE
  8
0
  6
CONTINUOUS
 62
     7
 10
905
 20
115
 11
923
 21
115
  0
LINE
  8
0
  6
CONTINUOUS
 62
     7
 10
905
 20
-115
 11
923
 21
-115
  0
LINE
  8
0
  6
CONTINUOUS
 62
     7
 10
876.9904174804687
 20
-72.50000762939453
 11
902.5000610351562
 21
-87.22800445556641
  0
LINE
  8
0
  6
CONTINUOUS
 62
     7
 10
860
 20
-72.5
 11
876.9904174804687
 21
-72.5
  0
LINE
  8
0
  6
CONTINUOUS
 62
     7
 10
831.1317749023437
 20
-139.2086944580078
 11
850.8682861328125
 21
-135.7286071777344
  0
LINE
  8
0
  6
CONTINUOUS
 62
     7
 10
827
 20
177.5000152587891
 11
827
 21
27.2213249206543
  0
LINE
  8
0
  6
CONTINUOUS
 62
     7
 10
860
 20
72.5
 11
876.9903564453125
 21
72.5
  0
LINE
  8
0
  6
CONTINUOUS
 62
     7
 10
876.9903564453125
 20
72.50012969970703
 11
902.5
 21
87.22812652587891
  0
LINE
  8
0
  6
CONTINUOUS
 62
     7
 10
855
 20
4
 11
905
 21
4
  0
LINE
  8
0
  6
CONTINUOUS
 62
     7
 10
855
 20
-4
 11
905
 21
-4
  0
LINE
  8
0
  6
CONTINUOUS
 62
     7
 10
831.1318359375
 20
139.2084655761719
 11
850.8682861328125
 21
135.7283935546875
  0
LINE
  8
0
  6
CONTINUOUS
 62
     7
 10
827
 20
-27.2213020324707
 11
827
 21
-177.4999847412109
  0
LINE
  8
0
  6
CONTINUOUS
 62
     7
 10
858.7058715820313
 20
122.4044494628906
 11
898.9231567382812
 21
111.6282577514648
  0
LINE
  8
0
  6
CONTINUOUS
 62
     7
 10
858.7058715820313
 20
-122.4045028686523
 11
898.9231567382812
 21
-111.6283187866211
  0
LINE
  8
0
  6
CONTINUOUS
 62
     7
 10
927
 20
117.5
 11
971
 21
117.5
  0
LINE
  8
0
  6
CONTINUOUS
 62
     7
 10
927
 20
-117.5
 11
971
 21
-117.5
  0
LINE
  8
0
  6
CONTINUOUS
 62
     7
 10
927
 20
-111.4677734375
 11
971
 21
-111.4677734375
  0
LINE
  8
0
  6
CONTINUOUS
 62
     7
 10
923.0001220703125
 20
113.4999618530273
 11
927.0001220703125
 21
117.4999694824219
  0
LINE
  8
0
  6
CONTINUOUS
 62
     7
 10
970.9998168945312
 20
117.4999313354492
 11
974.9998168945312
 21
113.4999237060547
  0
LINE
  8
0
  6
CONTINUOUS
 62
     7
 10
975.0000610351562
 20
-113.5000762939453
 11
971.0000610351563
 21
-117.5000839233398
  0
LINE
  8
0
  6
CONTINUOUS
 62
     7
 10
927.0000610351562
 20
-117.4998397827148
 11
923.0000610351562
 21
-113.4998168945313
  0
LINE
  8
0
  6
CONTINUOUS
 62
     7
 10
927
 20
111.4676513671875
 11
971
 21
111.4676513671875
  0
LINE
  8
0
  6
CONTINUOUS
 62
     7
 10
927
 20
105.0982666015625
 11
971
 21
105.0982666015625
  0
LINE
  8
0
  6
CONTINUOUS
 62
     7
 10
927
 20
100.2501831054688
 11
971
 21
100.2501831054688
  0
LINE
  8
0
  6
CONTINUOUS
 62
     7
 10
927
 20
90.495849609375
 11
971
 21
90.495849609375
  0
LINE
  8
0
  6
CONTINUOUS
 62
     7
 10
927
 20
74.94110107421875
 11
971
 21
74.94110107421875
  0
LINE
  8
0
  6
CONTINUOUS
 62
     7
 10
927
 20
61.28466796875
 11
971
 21
61.28466796875
  0
LINE
  8
0
  6
CONTINUOUS
 62
     7
 10
927
 20
52.53948974609375
 11
971
 21
52.53948974609375
  0
LINE
  8
0
  6
CONTINUOUS
 62
     7
 10
927
 20
37.16400146484375
 11
971
 21
37.16400146484375
  0
LINE
  8
0
  6
CONTINUOUS
 62
     7
 10
927
 20
27.5504150390625
 11
971
 21
27.5504150390625
  0
LINE
  8
0
  6
CONTINUOUS
 62
     7
 10
927
 20
10.99951171875
 11
971
 21
10.99951171875
  0
LINE
  8
0
  6
CONTINUOUS
 62
     7
 10
927
 20
-90.497802734375
 11
971
 21
-90.497802734375
  0
LINE
  8
0
  6
CONTINUOUS
 62
     7
 10
927
 20
-100.250732421875
 11
971
 21
-100.250732421875
  0
LINE
  8
0
  6
CONTINUOUS
 62
     7
 10
927
 20
-105.098876953125
 11
971
 21
-105.098876953125
  0
LINE
  8
0
  6
CONTINUOUS
 62
     7
 10
730
 20
-180
 11
800
 21
-180
  0
LINE
  8
0
  6
CONTINUOUS
 62
     7
 10
730
 20
180
 11
800
 21
180
  0
LINE
  8
0
  6
CONTINUOUS
 62
     7
 10
725.0001831054687
 20
174.9998474121094
 11
730.0001831054688
 21
179.9998321533203
  0
LINE
  8
0
  6
CONTINUOUS
 62
     7
 10
799.9999389648437
 20
179.9999237060547
 11
804.9999389648437
 21
174.9999389648438
  0
LINE
  8
0
  6
CONTINUOUS
 62
     7
 10
725
 20
-175
 11
730.0000610351562
 21
-180.0000305175781
  0
LINE
  8
0
  6
CONTINUOUS
 62
     7
 10
799.9998779296875
 20
-179.9998931884766
 11
804.9998779296875
 21
-174.9998779296875
  0
LINE
  8
0
  6
CONTINUOUS
 62
     7
 10
730
 20
172.9221801757813
 11
800
 21
172.9221801757813
  0
LINE
  8
0
  6
CONTINUOUS
 62
     7
 10
730
 20
157.6149291992188
 11
800
 21
157.6149291992188
  0
LINE
  8
0
  6
CONTINUOUS
 62
     7
 10
730
 20
146.8772583007812
 11
800
 21
146.8772583007812
  0
LINE
  8
0
  6
CONTINUOUS
 62
     7
 10
730
 20
134.4267578125
 11
800
 21
134.4267578125
  0
LINE
  8
0
  6
CONTINUOUS
 62
     7
 10
730
 20
119.7057495117187
 11
800
 21
119.7057495117187
  0
LINE
  8
0
  6
CONTINUOUS
 62
     7
 10
730
 20
49.97906494140625
 11
800
 21
49.97906494140625
  0
LINE
  8
0
  6
CONTINUOUS
 62
     7
 10
730
 20
29.99993896484375
 11
800
 21
29.99993896484375
  0
LINE
  8
0
  6
CONTINUOUS
 62
     7
 10
730
 20
-29.99993896484375
 11
800
 21
-29.99993896484375
  0
LINE
  8
0
  6
CONTINUOUS
 62
     7
 10
730
 20
-49.97900390625
 11
800
 21
-49.97900390625
  0
LINE
  8
0
  6
CONTINUOUS
 62
     7
 10
730
 20
-119.7056274414063
 11
800
 21
-119.7056274414063
  0
LINE
  8
0
  6
CONTINUOUS
 62
     7
 10
730
 20
-134.4266357421875
 11
800
 21
-134.4266357421875
  0
LINE
  8
0
  6
CONTINUOUS
 62
     7
 10
730
 20
-146.8770446777344
 11
800
 21
-146.8770446777344
  0
LINE
  8
0
  6
CONTINUOUS
 62
     7
 10
730
 20
-157.6150207519531
 11
800
 21
-157.6150207519531
  0
LINE
  8
0
  6
CONTINUOUS
 62
     7
 10
730
 20
-172.9222412109375
 11
800
 21
-172.9222412109375
  0
LINE
  8
0
  6
CONTINUOUS
 62
     7
 10
735
 20
5
 11
775
 21
5
  0
LINE
  8
0
  6
CONTINUOUS
 62
     7
 10
735
 20
-5
 11
775
 21
-5
  0
LINE
  8
0
  6
CONTINUOUS
 62
     7
 10
975
 20
115.0000152587891
 11
975
 21
4.000014781951904
  0
LINE
  8
0
  6
CONTINUOUS
 62
     7
 10
1046
 20
34.99998474121094
 11
1046
 21
-34.99998474121094
  0
LINE
  8
0
  6
CONTINUOUS
 62
     7
 10
1028
 20
55.00001525878906
 11
1028
 21
-25.07954025268555
  0
LINE
  8
0
  6
CONTINUOUS
 62
     7
 10
1046.000122070313
 20
34.99995040893555
 11
1040
 21
38.46405792236328
  0
LINE
  8
0
  6
CONTINUOUS
 62
     7
 10
1046
 20
-34.99994277954102
 11
1040
 21
-38.46403884887695
  0
LINE
  8
0
  6
CONTINUOUS
 62
     7
 10
1040
 20
55.00001525878906
 11
1040
 21
-54.99998474121094
  0
LINE
  8
0
  6
CONTINUOUS
 62
     7
 10
1040
 20
55
 11
1020.88671875
 21
55
  0
LINE
  8
0
  6
CONTINUOUS
 62
     7
 10
1040
 20
-55
 11
1020.88671875
 21
-55
  0
LINE
  8
0
  6
CONTINUOUS
 62
     7
 10
1016.556640625
 20
57.50009918212891
 11
1002.122863769531
 21
82.50008392333984
  0
LINE
  8
0
  6
CONTINUOUS
 62
     7
 10
1016.556640625
 20
-57.50001907348633
 11
1002.122924804688
 21
-82.50003051757812
  0
LINE
  8
0
  6
CONTINUOUS
 62
     7
 10
1002.122863769531
 20
-82.5
 11
998
 21
-82.5
  0
LINE
  8
0
  6
CONTINUOUS
 62
     7
 10
993
 20
115.0000152587891
 11
993
 21
12.58738708496094
  0
LINE
  8
0
  6
CONTINUOUS
 62
     7
 10
993
 20
-115
 11
975
 21
-115
  0
LINE
  8
0
  6
CONTINUOUS
 62
     7
 10
993
 20
115
 11
975
 21
115
  0
LINE
  8
0
  6
CONTINUOUS
 62
     7
 10
1002.122863769531
 20
82.5
 11
998
 21
82.5
  0
LINE
  8
0
  6
CONTINUOUS
 62
     7
 10
1002
 20
-48.60105895996094
 11
1002
 21
-46.41798400878906
  0
LINE
  8
0
  6
CONTINUOUS
 62
     7
 10
993
 20
-50.92420959472656
 11
993
 21
-114.9999847412109
  0
LINE
  8
0
  6
CONTINUOUS
 62
     7
 10
1096
 20
14.00001811981201
 11
1096
 21
-13.99998188018799
  0
LINE
  8
0
  6
CONTINUOUS
 62
     7
 10
1096
 20
-14
 11
1051
 21
-14
  0
LINE
  8
0
  6
CONTINUOUS
 62
     7
 10
1096
 20
14
 11
1051
 21
14
  0
LINE
  8
0
  6
CONTINUOUS
 62
     7
 10
1051
 20
17.5000171661377
 11
1051
 21
-17.4999828338623
  0
LINE
  8
0
  6
CONTINUOUS
 62
     7
 10
1051
 20
17.5
 11
1046
 21
17.5
  0
LINE
  8
0
  6
CONTINUOUS
 62
     7
 10
1051
 20
-17.5
 11
1046
 21
-17.5
  0
LINE
  8
0
  6
CONTINUOUS
 62
     7
 10
1096
 20
4
 11
1057
 21
4
  0
LINE
  8
0
  6
CONTINUOUS
 62
     7
 10
1096
 20
-4
 11
1057
 21
-4
  0
LINE
  8
0
  6
CONTINUOUS
 62
     7
 10
1002.122924804688
 20
82.50001525878906
 11
1002.122924804688
 21
21.26472473144531
  0
LINE
  8
0
  6
CONTINUOUS
 62
     7
 10
1002.122924804688
 20
-50.86241149902344
 11
1002.122924804688
 21
-82.49995422363281
  0
LINE
  8
0
  6
CONTINUOUS
 62
     7
 10
1060
 20
4.000017166137695
 11
1060
 21
-3.999982833862305
  0
LINE
  8
0
  6
CONTINUOUS
 62
     7
 10
973.5
 20
4
 11
1006.5
 21
4
  0
LINE
  8
0
  6
CONTINUOUS
 62
     7
 10
973.5
 20
-4
 11
1006.5
 21
-4
  0
LINE
  8
0
  6
CONTINUOUS
 62
     7
 10
992.9999389648437
 20
12.58738899230957
 11
1001.999938964844
 21
10.05747985839844
  0
LINE
  8
0
  6
CONTINUOUS
 62
     7
 10
1002
 20
-48.60105133056641
 11
993.0000610351562
 21
-50.92419052124023
  0
LINE
  8
0
  6
CONTINUOUS
 62
     7
 10
992.9999389648437
 20
21.90393447875977
 11
1001.999938964844
 21
19.2224063873291
  0
LINE
  8
0
  6
CONTINUOUS
 62
     7
 10
975
 20
-3.999985218048096
 11
975
 21
-114.9999847412109
  0
LINE
  8
0
  6
CONTINUOUS
 62
     7
 10
1002
 20
4.000015735626221
 11
1002
 21
19.22242736816406
  0
LINE
  8
0
  6
CONTINUOUS
 62
     7
 10
590
 20
225
 11
615
 21
225
  0
LINE
  8
0
  6
CONTINUOUS
 62
     7
 10
590
 20
-225
 11
615
 21
-225
  0
LINE
  8
0
  6
CONTINUOUS
 62
     7
 10
725
 20
177.5000152587891
 11
725
 21
-177.4999847412109
  0
LINE
  8
0
  6
CONTINUOUS
 62
     7
 10
590
 20
225
 11
590
 21
97.62189483642578
  0
LINE
  8
0
  6
CONTINUOUS
 62
     7
 10
615
 20
225
 11
615
 21
-225
  0
LINE
  8
0
  6
CONTINUOUS
 62
     7
 10
700
 20
177.5
 11
700
 21
30.00000762939453
  0
LINE
  8
0
  6
CONTINUOUS
 62
     7
 10
700
 20
177.5
 11
725
 21
177.5
  0
LINE
  8
0
  6
CONTINUOUS
 62
     7
 10
700
 20
-177.5
 11
725
 21
-177.5
  0
LINE
  8
0
  6
CONTINUOUS
 62
     7
 10
615
 20
30
 11
700
 21
30
  0
LINE
  8
0
  6
CONTINUOUS
 62
     7
 10
615
 20
-30
 11
700
 21
-30
  0
LINE
  8
0
  6
CONTINUOUS
 62
     7
 10
655.7060546875
 20
-80.00677490234375
 11
700
 21
-80.00677490234375
  0
LINE
  8
0
  6
CONTINUOUS
 62
     7
 10
655.7060546875
 20
80.0068359375
 11
700
 21
80.0068359375
  0
LINE
  8
0
  6
CONTINUOUS
 62
     7
 10
615
 20
106.806884765625
 11
649.8916015625
 21
81.87100982666016
  0
LINE
  8
0
  6
CONTINUOUS
 62
     7
 10
615
 20
-106.8068161010742
 11
649.8916015625
 21
-81.87091827392578
  0
LINE
  8
0
  6
CONTINUOUS
 62
     7
 10
618.1577758789062
 20
164.5565795898437
 11
693.1578369140625
 21
134.8322296142578
  0
LINE
  8
0
  6
CONTINUOUS
 62
     7
 10
618.15771484375
 20
143.3433990478516
 11
693.1577758789062
 21
113.6190338134766
  0
LINE
  8
0
  6
CONTINUOUS
 62
     7
 10
618.1578369140625
 20
-143.3433532714844
 11
693.1577758789062
 21
-113.6190032958984
  0
LINE
  8
0
  6
CONTINUOUS
 62
     7
 10
618.1577758789062
 20
-164.5566101074219
 11
693.1577758789062
 21
-134.832275390625
  0
LINE
  8
0
  6
CONTINUOUS
 62
     7
 10
582
 20
175
 11
582
 21
110.2680053710938
  0
LINE
  8
0
  6
CONTINUOUS
 62
     7
 10
582
 20
175
 11
590
 21
175
  0
LINE
  8
0
  6
CONTINUOUS
 62
     7
 10
582
 20
-175
 11
590
 21
-175
  0
LINE
  8
0
  6
CONTINUOUS
 62
     7
 10
450
 20
47.5
 11
590
 21
47.5
  0
LINE
  8
0
  6
CONTINUOUS
 62
     7
 10
450
 20
-47.5
 11
590
 21
-47.5
  0
LINE
  8
0
  6
CONTINUOUS
 62
     7
 10
450
 20
12.5
 11
567.5
 21
12.5
  0
LINE
  8
0
  6
CONTINUOUS
 62
     7
 10
450
 20
-12.5
 11
567.5
 21
-12.5
  0
LINE
  8
0
  6
CONTINUOUS
 62
     7
 10
450
 20
47.5
 11
450
 21
-47.5
  0
LINE
  8
0
  6
CONTINUOUS
 62
     7
 10
590
 20
55.00000381469727
 11
590
 21
-54.99999618530273
  0
LINE
  8
0
  6
CONTINUOUS
 62
     7
 10
590
 20
55
 11
598.6505126953125
 21
55
  0
LINE
  8
0
  6
CONTINUOUS
 62
     7
 10
590
 20
-55
 11
597.2322387695313
 21
-55
  0
LINE
  8
0
  6
CONTINUOUS
 62
     7
 10
582
 20
-126.021484375
 11
582
 21
-175
  0
LINE
  8
0
  6
CONTINUOUS
 62
     7
 10
590
 20
-105.9050216674805
 11
590
 21
-225
  0
LINE
  8
0
  6
CONTINUOUS
 62
     7
 10
682.0001831054687
 20
8.485232353210449
 11
673.5148315429688
 21
-6.964427302591503E-05
  0
LINE
  8
0
  6
CONTINUOUS
 62
     7
 10
690.4853515625
 20
-6.200811185408384E-05
 11
682.0001831054687
 21
8.485132217407227
  0
LINE
  8
0
  6
CONTINUOUS
 62
     7
 10
682
 20
-8.485276222229004
 11
673.5148315429688
 21
-8.043386333156377E-05
  0
LINE
  8
0
  6
CONTINUOUS
 62
     7
 10
690.4853515625
 20
-4.790680577571038E-06
 11
682.0000610351563
 21
-8.485306739807129
  0
LINE
  8
0
  6
CONTINUOUS
 62
     3
 10
682
 20
15.72766780853271
 11
682
 21
-15.83092594146729
  0
LINE
  8
0
  6
CONTINUOUS
 62
     7
 10
700
 20
-29.99999237060547
 11
700
 21
-177.5
  0
LINE
  8
0
  6
CONTINUOUS
 62
     7
 10
560
 20
12.50000286102295
 11
560
 21
-12.49999713897705
  0
LINE
  8
0
  6
CONTINUOUS
 62
     7
 10
855
 20
130.8045196533203
 11
855
 21
-130.8044891357422
  0
LINE
  8
0
  6
CONTINUOUS
 62
     3
 10
989.9999389648438
 20
-10.14311122894287
 11
989.9999389648438
 21
-50.9259147644043
  0
LINE
  8
0
  6
CONTINUOUS
 62
     7
 10
1027.999877929688
 20
-42.68579483032227
 11
1027.999877929688
 21
-26.15018081665039
  0
LINE
  8
0
  6
CONTINUOUS
 62
     7
 10
1018.999938964844
 20
-42.9255485534668
 11
1018.999938964844
 21
-25.91042137145996
  0
LINE
  8
0
  6
CONTINUOUS
 62
     7
 10
1018.999938964844
 20
-42.92555999755859
 11
1013
 21
-42.73806381225586
  0
LINE
  8
0
  6
CONTINUOUS
 62
     7
 10
1018.999938964844
 20
-25.91043853759766
 11
1012.999938964844
 21
-26.09793853759766
  0
LINE
  8
0
  6
CONTINUOUS
 62
     7
 10
1001.997924804687
 20
-22.41799926757812
 11
1012.999938964844
 21
-22.41799926757812
  0
LINE
  8
0
  6
CONTINUOUS
 62
     7
 10
1000.999938964844
 20
-46.41799926757813
 11
1012.999938964844
 21
-46.41799926757813
  0
LINE
  8
0
  6
CONTINUOUS
 62
     7
 10
1012.999938964844
 20
-22.41798400878906
 11
1012.999938964844
 21
-46.41798400878906
  0
LINE
  8
0
  6
CONTINUOUS
 62
     7
 10
977.9999389648438
 20
-29.24411010742188
 11
977.9999389648438
 21
-31.94352340698242
  0
LINE
  8
0
  6
CONTINUOUS
 62
     7
 10
1018.999938964844
 20
-26.15019798278809
 11
1028
 21
-26.15019798278809
  0
LINE
  8
0
  6
CONTINUOUS
 62
     7
 10
1018.999938964844
 20
-42.68581008911133
 11
1028
 21
-42.68581008911133
  0
LINE
  8
0
  6
CONTINUOUS
 62
     3
 10
970.9985961914062
 20
-34.41799926757812
 11
1033.62939453125
 21
-34.41799926757812
  0
LINE
  8
0
  6
CONTINUOUS
 62
     3
 10
1028
 20
-26.15019989013672
 11
1018.999938964844
 21
-34.41800689697266
  0
LINE
  8
0
  6
CONTINUOUS
 62
     7
 10
1018.999938964844
 20
-34.41799926757812
 11
1028
 21
-34.41799926757812
  0
LINE
  8
0
  6
CONTINUOUS
 62
     3
 10
1027.999877929688
 20
-34.41798400878906
 11
1018.999938964844
 21
-26.15017509460449
  0
LINE
  8
0
  6
CONTINUOUS
 62
     3
 10
1018.999938964844
 20
-34.41800308227539
 11
1027.999877929688
 21
-42.68579483032227
  0
LINE
  8
0
  6
CONTINUOUS
 62
     3
 10
1028
 20
-34.41799926757812
 11
1018.999938964844
 21
-42.68581008911133
  0
LINE
  8
0
  6
CONTINUOUS
 62
     7
 10
1002
 20
-22.41798400878906
 11
1002
 21
-3.999984502792358
  0
LINE
  8
0
  6
CONTINUOUS
 62
     7
 10
1028
 20
-43.74694442749023
 11
1028
 21
-54.99998474121094
  0
LINE
  8
0
  6
CONTINUOUS
 62
     7
 10
955.0090942382812
 20
-121.5299911499023
 11
955.135009765625
 21
-117.4999923706055
  0
LINE
  8
0
  6
CONTINUOUS
 62
     7
 10
964.9910278320312
 20
-121.5299835205078
 11
964.8651123046875
 21
-117.4999847412109
  0
LINE
  8
0
  6
CONTINUOUS
 62
     3
 10
960
 20
-112.517936706543
 11
960
 21
-132.2556610107422
  0
LINE
  8
0
  6
CONTINUOUS
 62
     7
 10
955.009033203125
 20
-121.5299987792969
 11
964.990966796875
 21
-121.5299987792969
  0
LINE
  8
0
  6
CONTINUOUS
 62
     7
 10
964.5355224609375
 20
-128.5299835205078
 11
964.5355224609375
 21
-121.5299835205078
  0
LINE
  8
0
  6
CONTINUOUS
 62
     3
 10
960
 20
-121.5299682617188
 11
964.5355224609375
 21
-128.5299530029297
  0
LINE
  8
0
  6
CONTINUOUS
 62
     3
 10
960
 20
-128.5299682617187
 11
964.5355834960937
 21
-121.5299682617188
  0
LINE
  8
0
  6
CONTINUOUS
 62
     3
 10
955.4644775390625
 20
-121.5299453735352
 11
960
 21
-128.5299682617187
  0
LINE
  8
0
  6
CONTINUOUS
 62
     3
 10
955.4644775390625
 20
-128.5299835205078
 11
960
 21
-121.5299835205078
  0
LINE
  8
0
  6
CONTINUOUS
 62
     7
 10
955.4644775390625
 20
-128.5299835205078
 11
955.4644775390625
 21
-121.5299835205078
  0
LINE
  8
0
  6
CONTINUOUS
 62
     7
 10
955.4644775390625
 20
-128.5299987792969
 11
964.5355224609375
 21
-128.5299987792969
  0
LINE
  8
0
  6
CONTINUOUS
 62
     7
 10
723.0586547851562
 20
-406
 11
786.5538940429688
 21
-406
  0
LINE
  8
0
  6
CONTINUOUS
 62
     7
 10
755
 20
-373.6622009277344
 11
755
 21
-448.575439453125
  0
ARC
  8
0
  6
CONTINUOUS
 62
     7
 10
773.4063720703125
 20
-430.9440612792969
 40
6.000000000000024
 50
126.4238645555929
 51
189.9999620293671
  0
ARC
  8
0
  6
CONTINUOUS
 62
     7
 10
860
 20
-752.2340698242188
 40
4.999999999999977
 50
105.0000541483105
 51
179.9999640278219
  0
ARC
  8
0
  6
CONTINUOUS
 62
     7
 10
860
 20
-497.7658996582031
 40
5.000000000000038
 50
179.9999776881996
 51
254.9999217186572
  0
ARC
  8
0
  6
CONTINUOUS
 62
     7
 10
860
 20
-702.5
 40
5.000000000000019
 50
89.99998201391031
 51
179.9999640278219
  0
ARC
  8
0
  6
CONTINUOUS
 62
     7
 10
850
 20
-755.8045043945312
 40
5.000000000000044
 50
280.000159421607
 51
0
  0
ARC
  8
0
  6
CONTINUOUS
 62
     7
 10
900
 20
-716.55810546875
 40
5
 50
0
 51
60.0000289904086
  0
ARC
  8
0
  6
CONTINUOUS
 62
     7
 10
832
 20
-769.1326904296875
 40
5.000000000000012
 50
100.0001780909426
 51
179.9999640278219
  0
ARC
  8
0
  6
CONTINUOUS
 62
     7
 10
860
 20
-547.5
 40
5.000000000000038
 50
179.9999776882003
 51
269.9999733624889
  0
ARC
  8
0
  6
CONTINUOUS
 62
     7
 10
900
 20
-533.44189453125
 40
5.000000000000004
 50
299.9999163680779
 51
359.9999453584866
  0
ARC
  8
0
  6
CONTINUOUS
 62
     7
 10
832
 20
-480.8673400878906
 40
5.000000000000038
 50
179.9999776881996
 51
259.9997567948901
  0
ARC
  8
0
  6
CONTINUOUS
 62
     7
 10
850
 20
-494.1954956054688
 40
5
 50
359.9999453584866
 51
79.99978593687854
  0
ARC
  8
0
  6
CONTINUOUS
 62
     7
 10
845
 20
-483.1596069335937
 40
5.000000000000038
 50
179.9999776881996
 51
260.0001666062392
  0
ARC
  8
0
  6
CONTINUOUS
 62
     7
 10
900.21728515625
 20
-741.4578857421875
 40
5.000000000000037
 50
16.9523724256209
 51
104.9999858464176
  0
ARC
  8
0
  6
CONTINUOUS
 62
     7
 10
900.21728515625
 20
-508.5421142578125
 40
4.999999999999996
 50
255.0000141535823
 51
343.0476344045686
  0
ARC
  8
0
  6
CONTINUOUS
 62
     7
 10
755
 20
-406
 40
25
 50
306.4238458862582
 51
233.5761318019415
  0
CIRCLE
  8
0
  6
CONTINUOUS
 62
     7
 10
755
 20
-406
 40
15
  0
ARC
  8
0
  6
CONTINUOUS
 62
     7
 10
745.76513671875
 20
-425
 40
1.999999999999985
 50
89.99998201391097
 51
170.0000206677889
  0
ARC
  8
0
  6
CONTINUOUS
 62
     7
 10
764.23486328125
 20
-425
 40
1.999999999999964
 50
9.999994586450628
 51
89.99998201391097
  0
ARC
  8
0
  6
CONTINUOUS
 62
     7
 10
736.5936279296875
 20
-430.9440612792969
 40
6.000000000000009
 50
349.8636347103541
 51
53.57615411374161
  0
ARC
  8
0
  6
CONTINUOUS
 62
     7
 10
1020.88671875
 20
-565
 40
5.000000000000015
 50
210.0000163164367
 51
269.9999838351438
  0
ARC
  8
0
  6
CONTINUOUS
 62
     7
 10
1020.88671875
 20
-685
 40
4.999999999999972
 50
90.00001616485616
 51
149.9999836835633
  0
ARC
  8
0
  6
CONTINUOUS
 62
     7
 10
998
 20
-712.5
 40
4.999999999999972
 50
90.00001616485616
 51
180.0000050089569
  0
ARC
  8
0
  6
CONTINUOUS
 62
     7
 10
1007
 20
-540.947509765625
 40
4.999999999999943
 50
180.0000086514214
 51
210.0000163164367
  0
ARC
  8
0
  6
CONTINUOUS
 62
     7
 10
990
 20
-486.5
 40
20.50000000000002
 50
298.9583330102184
 51
356.0280383844153
  0
ARC
  8
0
  6
CONTINUOUS
 62
     7
 10
625
 20
-437.5
 40
9.999999999999963
 50
179.9999776881996
 51
270.0000280040023
  0
ARC
  8
0
  6
CONTINUOUS
 62
     7
 10
655.7060546875
 20
-534.9932861328125
 40
9.99999999999998
 50
234.4477495447707
 51
270.0000179860891
  0
ARC
  8
0
  6
CONTINUOUS
 62
     7
 10
655.7060546875
 20
-715.0067138671875
 40
10.00000000000004
 50
89.99998201391097
 51
125.5520592099326
  0
ARC
  8
0
  6
CONTINUOUS
 62
     7
 10
695
 20
-743.2672729492187
 40
5
 50
0
 51
111.6196412654544
  0
ARC
  8
0
  6
CONTINUOUS
 62
     7
 10
695
 20
-764.48046875
 40
5
 50
0
 51
111.6196412654544
  0
ARC
  8
0
  6
CONTINUOUS
 62
     7
 10
620
 20
-794.204833984375
 40
4.999999999999943
 50
111.6196412654544
 51
180.0000050089569
  0
ARC
  8
0
  6
CONTINUOUS
 62
     7
 10
620
 20
-772.9916381835938
 40
4.999999999999943
 50
111.6196412654544
 51
180.0000050089569
  0
ARC
  8
0
  6
CONTINUOUS
 62
     7
 10
620
 20
-455.795166015625
 40
4.999999999999943
 50
179.999991348578
 51
248.3803482618904
  0
ARC
  8
0
  6
CONTINUOUS
 62
     7
 10
620
 20
-477.0083618164062
 40
4.999999999999943
 50
179.999991348578
 51
248.3803482618904
  0
ARC
  8
0
  6
CONTINUOUS
 62
     7
 10
695
 20
-485.51953125
 40
4.999999999999996
 50
248.3803587345459
 51
0
  0
ARC
  8
0
  6
CONTINUOUS
 62
     7
 10
695
 20
-506.7327270507813
 40
4.999999999999996
 50
248.3803587345459
 51
0
  0
ARC
  8
0
  6
CONTINUOUS
 62
     7
 10
1007
 20
-492.9199829101562
 40
5.000000000000004
 50
90.00000250447782
 51
180.0000050089563
  0
ARC
  8
0
  6
CONTINUOUS
 62
     7
 10
1001
 20
-486.9199829101562
 40
23.00000000000002
 50
90.00000250447805
 51
180.0000050089564
  0
ARC
  8
0
  6
CONTINUOUS
 62
     7
 10
990
 20
-486.5
 40
20.5
 50
86.23568717739825
 51
241.7845165426793
  0
CIRCLE
  8
0
  6
CONTINUOUS
 62
     3
 10
960
 20
-625
 40
4.990937232971191
  0
CIRCLE
  8
0
  6
CONTINUOUS
 62
     7
 10
0
 20
-625
 40
225
  0
ARC
  8
0
  6
CONTINUOUS
 62
     7
 10
0
 20
-625
 40
47.49999999999995
 50
105.2575454498303
 51
74.74246957703872
  0
ARC
  8
0
  6
CONTINUOUS
 62
     3
 10
0
 20
-625
 40
200
 50
333.5707059500407
 51
341.4592534225145
  0
CIRCLE
  8
0
  6
CONTINUOUS
 62
     7
 10
184.7759399414062
 20
-701.536865234375
 40
9.5
  0
CIRCLE
  8
0
  6
CONTINUOUS
 62
     7
 10
184.7759399414062
 20
-548.46337890625
 40
9.5
  0
ARC
  8
0
  6
CONTINUOUS
 62
     3
 10
0
 20
-625
 40
200
 50
18.57071915511085
 51
26.45925979739542
  0
CIRCLE
  8
0
  6
CONTINUOUS
 62
     7
 10
76.5367431640625
 20
-440.2240905761719
 40
9.5
  0
ARC
  8
0
  6
CONTINUOUS
 62
     3
 10
0
 20
-625
 40
200
 50
63.57071528470806
 51
71.45925592699263
  0
CIRCLE
  8
0
  6
CONTINUOUS
 62
     7
 10
-76.53662109375
 20
-440.2240600585938
 40
9.5
  0
ARC
  8
0
  6
CONTINUOUS
 62
     3
 10
0
 20
-625
 40
200
 50
108.5707131218526
 51
116.4592605943263
  0
CIRCLE
  8
0
  6
CONTINUOUS
 62
     7
 10
-184.77587890625
 20
-548.4632568359375
 40
9.5
  0
ARC
  8
0
  6
CONTINUOUS
 62
     3
 10
0
 20
-625
 40
200
 50
153.5707109589971
 51
161.4592516012816
  0
CIRCLE
  8
0
  6
CONTINUOUS
 62
     7
 10
-184.7760009765625
 20
-701.53662109375
 40
9.5
  0
ARC
  8
0
  6
CONTINUOUS
 62
     3
 10
0
 20
-625
 40
200
 50
198.5707192687964
 51
206.4592599110809
  0
CIRCLE
  8
0
  6
CONTINUOUS
 62
     7
 10
-76.536865234375
 20
-809.77587890625
 40
9.5
  0
ARC
  8
0
  6
CONTINUOUS
 62
     3
 10
0
 20
-625
 40
200
 50
243.5707102757517
 51
251.4592577482255
  0
CIRCLE
  8
0
  6
CONTINUOUS
 62
     7
 10
76.53656005859375
 20
-809.7760620117188
 40
9.5
  0
ARC
  8
0
  6
CONTINUOUS
 62
     3
 10
0
 20
-625
 40
200
 50
288.5707081128962
 51
296.4592555853699
  0
CIRCLE
  8
0
  6
CONTINUOUS
 62
     7
 10
0
 20
-625
 40
90
  0
CIRCLE
  8
0
  6
CONTINUOUS
 62
     7
 10
0
 20
-625
 40
132.5
  0
ARC
  8
0
  6
CONTINUOUS
 62
     3
 10
0
 20
-625
 40
117.5
 50
55.11785758300787
 51
64.88213892610717
  0
ARC
  8
0
  6
CONTINUOUS
 62
     3
 10
0
 20
-625
 40
117.5
 50
115.1178524224708
 51
124.8821405957593
  0
ARC
  8
0
  6
CONTINUOUS
 62
     3
 10
0
 20
-625
 40
117.5
 50
175.1178540921229
 51
184.8821422654114
  0
ARC
  8
0
  6
CONTINUOUS
 62
     3
 10
0
 20
-625
 40
117.5
 50
235.1178594042407
 51
244.8821475775292
  0
ARC
  8
0
  6
CONTINUOUS
 62
     3
 10
0
 20
-625
 40
117.5
 50
295.1178610738928
 51
304.8821424169921
  0
ARC
  8
0
  6
CONTINUOUS
 62
     3
 10
0
 20
-625
 40
117.5
 50
355.1178576209031
 51
4.882142379096913
  0
ARC
  8
0
  6
CONTINUOUS
 62
     7
 10
0
 20
-625
 40
175
 50
14.86316782267558
 51
185.1368263591828
  0
CIRCLE
  8
0
  6
CONTINUOUS
 62
     3
 10
0
 20
-625
 40
8
  0
CIRCLE
  8
0
  6
CONTINUOUS
 62
     7
 10
0
 20
-625
 40
7
  0
ARC
  8
0
  6
CONTINUOUS
 62
     7
 10
0
 20
-625
 40
165
 50
16.59408973006584
 51
183.4059061593399
  0
CIRCLE
  8
0
  6
CONTINUOUS
 62
     7
 10
-160.03125
 20
-653.2178344726562
 40
19
  0
CIRCLE
  8
0
  6
CONTINUOUS
 62
     7
 10
160.03125
 20
-596.7821655273438
 40
19
  0
ARC
  8
0
  6
CONTINUOUS
 62
     7
 10
0
 20
-625
 40
175
 50
194.8631696439084
 51
5.136832022397078
  0
ARC
  8
0
  6
CONTINUOUS
 62
     7
 10
0
 20
-625
 40
165
 50
196.5940898437514
 51
3.405909688119992
  0
ARC
  8
0
  6
CONTINUOUS
 62
     7
 10
755
 20
8.581966540077701E-06
 40
20.04728698730464
 50
14.44262624528875
 51
165.557392424046
  0
ARC
  8
0
  6
CONTINUOUS
 62
     7
 10
860
 20
-127.2341156005859
 40
5.000000000000004
 50
105.0000541483104
 51
179.9999640278213
  0
ARC
  8
0
  6
CONTINUOUS
 62
     7
 10
860
 20
127.2341461181641
 40
5.000000000000038
 50
179.9999776881996
 51
254.9999217186572
  0
ARC
  8
0
  6
CONTINUOUS
 62
     7
 10
860
 20
-77.49998474121094
 40
5.000000000000004
 50
89.99998201391031
 51
179.9999640278213
  0
ARC
  8
0
  6
CONTINUOUS
 62
     7
 10
850
 20
-130.8044891357422
 40
4.999999999999988
 50
280.0001594216071
 51
0
  0
ARC
  8
0
  6
CONTINUOUS
 62
     7
 10
900
 20
-91.55809020996094
 40
5
 50
0
 51
60.00002899040844
  0
ARC
  8
0
  6
CONTINUOUS
 62
     7
 10
832
 20
-144.1326446533203
 40
5.000000000000012
 50
100.0001780909426
 51
179.9999640278213
  0
ARC
  8
0
  6
CONTINUOUS
 62
     7
 10
860
 20
77.50001525878906
 40
5.000000000000038
 50
179.9999776881996
 51
269.9999733624889
  0
ARC
  8
0
  6
CONTINUOUS
 62
     7
 10
900
 20
91.55812072753906
 40
5.000000000000004
 50
299.9999163680779
 51
359.9999453584866
  0
ARC
  8
0
  6
CONTINUOUS
 62
     7
 10
832
 20
144.1327056884766
 40
5.000000000000038
 50
179.9999776881996
 51
259.9997567948902
  0
ARC
  8
0
  6
CONTINUOUS
 62
     7
 10
850
 20
130.8045196533203
 40
5
 50
359.9999453584866
 51
79.99978593687854
  0
ARC
  8
0
  6
CONTINUOUS
 62
     7
 10
810
 20
1.012953453027876E-05
 40
29.99999999999999
 50
308.9447799164507
 51
51.0552200835493
  0
ARC
  8
0
  6
CONTINUOUS
 62
     7
 10
832
 20
27.2213249206543
 40
5.000000000000038
 50
179.9999776881997
 51
231.0550270170197
  0
ARC
  8
0
  6
CONTINUOUS
 62
     7
 10
832
 20
-27.2213020324707
 40
5.000000000000032
 50
128.9449693405151
 51
179.9999640278213
  0
ARC
  8
0
  6
CONTINUOUS
 62
     7
 10
900.21728515625
 20
116.4579010009766
 40
4.999999999999981
 50
255.0000141535823
 51
343.0476344045685
  0
ARC
  8
0
  6
CONTINUOUS
 62
     7
 10
900.21728515625
 20
-116.4578704833984
 40
5.000000000000028
 50
16.95237242562059
 51
104.9999858464177
  0
ARC
  8
0
  6
CONTINUOUS
 62
     7
 10
755
 20
8.581966540077701E-06
 40
20.04728698730467
 50
194.4426348967107
 51
345.557401075468
  0
ARC
  8
0
  6
CONTINUOUS
 62
     7
 10
755
 20
8.581966540077701E-06
 40
12.5
 50
23.57817843000461
 51
156.4218368242355
  0
ARC
  8
0
  6
CONTINUOUS
 62
     7
 10
735
 20
8.019214874366298E-06
 40
5
 50
89.99998201391031
 51
270.0000006832456
  0
ARC
  8
0
  6
CONTINUOUS
 62
     7
 10
775
 20
9.144718205789104E-06
 40
5
 50
270.0000179860897
 51
89.99998201391031
  0
ARC
  8
0
  6
CONTINUOUS
 62
     7
 10
755
 20
8.581966540077701E-06
 40
12.50000000000001
 50
203.5781631757645
 51
336.4218215699954
  0
ARC
  8
0
  6
CONTINUOUS
 62
     7
 10
1020.88671875
 20
60.00001525878906
 40
5.000000000000033
 50
210.000016316437
 51
269.9999838351438
  0
ARC
  8
0
  6
CONTINUOUS
 62
     7
 10
1020.88671875
 20
-59.99998474121094
 40
5
 50
90.00001616485616
 51
149.999983683563
  0
ARC
  8
0
  6
CONTINUOUS
 62
     7
 10
998
 20
-87.49998474121094
 40
5
 50
90.00001616485616
 51
180.0000050089563
  0
ARC
  8
0
  6
CONTINUOUS
 62
     7
 10
998
 20
87.50001525878906
 40
4.999999999999943
 50
180.0000496325571
 51
270.0000384766572
  0
ARC
  8
0
  6
CONTINUOUS
 62
     7
 10
1057
 20
1.707952105789445E-05
 40
4
 50
90.00001616485682
 51
269.9999733624896
  0
ARC
  8
0
  6
CONTINUOUS
 62
     7
 10
990
 20
1.519430134067079E-05
 40
9.999999999999986
 50
23.57817672245736
 51
156.4218368242355
  0
ARC
  8
0
  6
CONTINUOUS
 62
     7
 10
973.5
 20
1.473003158025676E-05
 40
4
 50
89.99998201391097
 51
270.0000006832446
  0
ARC
  8
0
  6
CONTINUOUS
 62
     7
 10
1006.5
 20
1.565857201057952E-05
 40
4
 50
270.0000179860891
 51
89.99998201391097
  0
ARC
  8
0
  6
CONTINUOUS
 62
     7
 10
990
 20
1.519430134067079E-05
 40
10.00000000000001
 50
203.5781631757645
 51
336.4218232775426
  0
ARC
  8
0
  6
CONTINUOUS
 62
     7
 10
655.7060546875
 20
90.00684356689453
 40
9.99999999999998
 50
234.4478861485543
 51
270.0000179860891
  0
ARC
  8
0
  6
CONTINUOUS
 62
     7
 10
655.7060546875
 20
-90.00676727294922
 40
9.999999999999995
 50
89.99998201391097
 51
125.5522504552292
  0
ARC
  8
0
  6
CONTINUOUS
 62
     7
 10
695
 20
139.48046875
 40
4.999999999999996
 50
248.3803587345459
 51
0
  0
ARC
  8
0
  6
CONTINUOUS
 62
     7
 10
695
 20
118.2672805786133
 40
4.999999999999982
 50
248.3803587345459
 51
0
  0
ARC
  8
0
  6
CONTINUOUS
 62
     7
 10
620
 20
169.204833984375
 40
4.999999999999943
 50
179.999991348578
 51
248.3803482618903
  0
ARC
  8
0
  6
CONTINUOUS
 62
     7
 10
620
 20
147.9916381835937
 40
4.999999999999943
 50
179.999991348578
 51
248.3803482618903
  0
ARC
  8
0
  6
CONTINUOUS
 62
     7
 10
695
 20
-139.48046875
 40
5
 50
0
 51
111.6196412654541
  0
ARC
  8
0
  6
CONTINUOUS
 62
     7
 10
695
 20
-118.2672653198242
 40
5
 50
0
 51
111.6196412654542
  0
ARC
  8
0
  6
CONTINUOUS
 62
     7
 10
620
 20
-147.9916381835937
 40
4.999999999999996
 50
111.6196412654541
 51
180.0000050089563
  0
ARC
  8
0
  6
CONTINUOUS
 62
     7
 10
620
 20
-169.204833984375
 40
4.999999999999996
 50
111.6196412654541
 51
180.0000050089563
  0
ARC
  8
0
  6
CONTINUOUS
 62
     7
 10
567.5
 20
3.306167400296545E-06
 40
12.5
 50
270.0000179860895
 51
89.99998201391058
  0
CIRCLE
  8
0
  6
CONTINUOUS
 62
     7
 10
682
 20
6.527922323584789E-06
 40
13.5
  0
ARC
  8
0
  6
CONTINUOUS
 62
     7
 10
1001.997924804687
 20
-17.41797637939453
 40
4.999999999999965
 50
225.6327620434661
 51
269.9999974955222
  0
POLYLINE
  8
0
  6
CONTINUOUS
 62
     7
 66
     1
 10
0
 20
0
  0
VERTEX
  8
0
  6
CONTINUOUS
 62
     7
 10
581.9994700688353
 20
-480.5069501295669
 42
-0.2644330309540103
  0
VERTEX
  8
0
  6
CONTINUOUS
 62
     7
 10
598.1872743834618
 20
-498.8381225081248
 42
-0.06854676145332309
  0
VERTEX
  8
0
  6
CONTINUOUS
 62
     7
 10
597.2545952388743
 20
-524.2896092524978
 42
0.01629674886606506
  0
VERTEX
  8
0
  6
CONTINUOUS
 62
     7
 10
595.3135980027918
 20
-549.7761165157133
 42
0.01055548226566109
  0
VERTEX
  8
0
  6
CONTINUOUS
 62
     7
 10
594.7662491923285
 20
-575.3335437838059
 42
0.001925957091879136
  0
VERTEX
  8
0
  6
CONTINUOUS
 62
     7
 10
594.8694776215704
 20
-600.8972339592474
 42
-0.00710829730132062
  0
VERTEX
  8
0
  6
CONTINUOUS
 62
     7
 10
594.6979839953169
 20
-626.4599789236041
 42
0.004663506566641366
  0
VERTEX
  8
0
  6
CONTINUOUS
 62
     7
 10
594.2104778567885
 20
-652.0193793345734
 42
0.0251210539275616
  0
VERTEX
  8
0
  6
CONTINUOUS
 62
     7
 10
595.2366851042306
 20
-677.5526949024206
 42
-0.001802003515110769
  0
VERTEX
  8
0
  6
CONTINUOUS
 62
     7
 10
597.9367765537999
 20
-702.9734405753063
 42
-0.0835471128917146
  0
VERTEX
  8
0
  6
CONTINUOUS
 62
     7
 10
596.7529708773936
 20
-728.386892569333
 42
-0.19094060381432
  0
VERTEX
  8
0
  6
CONTINUOUS
 62
     7
 10
581.9993381455233
 20
-748.543059482353
 42
0
  0
SEQEND
  8
0
  0
POLYLINE
  8
0
  6
CONTINUOUS
 62
     7
 66
     1
 10
0
 20
0
  0
VERTEX
  8
0
  6
CONTINUOUS
 62
     7
 10
978.0000000000001
 20
-498.3305130004883
 42
0.2480812916140285
  0
VERTEX
  8
0
  6
CONTINUOUS
 62
     7
 10
979.0447734108698
 20
-499.4321528667419
 42
0.04461256540236289
  0
VERTEX
  8
0
  6
CONTINUOUS
 62
     7
 10
980.5322130233292
 20
-499.9890740474451
 42
0.02126253877712458
  0
VERTEX
  8
0
  6
CONTINUOUS
 62
     7
 10
982.0788185751211
 20
-500.3582535367776
 42
0.01385516061058023
  0
VERTEX
  8
0
  6
CONTINUOUS
 62
     7
 10
983.6478524408782
 20
-500.620709344138
 42
0.01053214690756591
  0
VERTEX
  8
0
  6
CONTINUOUS
 62
     7
 10
985.2278915897679
 20
-500.8072917499257
 42
0.008816710518780205
  0
VERTEX
  8
0
  6
CONTINUOUS
 62
     7
 10
986.8143834089017
 20
-500.9330668714106
 42
0.007912367335630244
  0
VERTEX
  8
0
  6
CONTINUOUS
 62
     7
 10
988.4043501786995
 20
-501.0059516358256
 42
0.007515194556671117
  0
VERTEX
  8
0
  6
CONTINUOUS
 62
     7
 10
989.9958281644683
 20
-501.0299223222229
 42
0.007513493884928126
  0
VERTEX
  8
0
  6
CONTINUOUS
 62
     7
 10
991.5871626358992
 20
-501.0062070844061
 42
0.007906904577900943
  0
VERTEX
  8
0
  6
CONTINUOUS
 62
     7
 10
993.1767227039859
 20
-500.9336169280361
 42
0.008810155397824017
  0
VERTEX
  8
0
  6
CONTINUOUS
 62
     7
 10
994.7632993370983
 20
-500.8081496797229
 42
0.01052393834316368
  0
VERTEX
  8
0
  6
CONTINUOUS
 62
     7
 10
996.3440250191959
 20
-500.6218483574139
 42
0.01384404029489241
  0
VERTEX
  8
0
  6
CONTINUOUS
 62
     7
 10
997.9143991006083
 20
-500.3595932186304
 42
0.0212464240308292
  0
VERTEX
  8
0
  6
CONTINUOUS
 62
     7
 10
999.4630227661818
 20
-499.9904493358754
 42
0.04455014115770776
  0
VERTEX
  8
0
  6
CONTINUOUS
 62
     7
 10
1000.952386686471
 20
-499.4335808492976
 42
0.2479906576401469
  0
VERTEX
  8
0
  6
CONTINUOUS
 62
     7
 10
1002
 20
-498.3305130004882
 42
0
  0
SEQEND
  8
0
  0
POLYLINE
  8
0
  6
CONTINUOUS
 62
     7
 66
     1
 10
0
 20
0
  0
VERTEX
  8
0
  6
CONTINUOUS
 62
     7
 10
981.500621035036
 20
-513.1157317131557
 42
0.2995531798425645
  0
VERTEX
  8
0
  6
CONTINUOUS
 62
     7
 10
982.1670187891087
 20
-513.9462135831767
 42
0.04805519091221222
  0
VERTEX
  8
0
  6
CONTINUOUS
 62
     7
 10
983.2260536864043
 20
-514.3572097390796
 42
0.02208998107595687
  0
VERTEX
  8
0
  6
CONTINUOUS
 62
     7
 10
984.3312961469331
 20
-514.6264339731747
 42
0.01419187684894925
  0
VERTEX
  8
0
  6
CONTINUOUS
 62
     7
 10
985.4534381133085
 20
-514.8169557556105
 42
0.01071039644548483
  0
VERTEX
  8
0
  6
CONTINUOUS
 62
     7
 10
986.5837267837295
 20
-514.9520906823889
 42
0.008929941848438415
  0
VERTEX
  8
0
  6
CONTINUOUS
 62
     7
 10
987.7188002177094
 20
-515.0430834523754
 42
0.00799572171181529
  0
VERTEX
  8
0
  6
CONTINUOUS
 62
     7
 10
988.8564134600728
 20
-515.0957940995373
 42
0.007586407948156801
  0
VERTEX
  8
0
  6
CONTINUOUS
 62
     7
 10
989.9951566484934
 20
-515.1131588869212
 42
0.007583861279695439
  0
VERTEX
  8
0
  6
CONTINUOUS
 62
     7
 10
991.13377415693
 20
-515.0960921512855
 42
0.007988346346993884
  0
VERTEX
  8
0
  6
CONTINUOUS
 62
     7
 10
992.2711344936026
 20
-515.0437118349176
 42
0.008927576543618251
  0
VERTEX
  8
0
  6
CONTINUOUS
 62
     7
 10
993.4072557869196
 20
-514.952977668808
 42
0.01069683422716408
  0
VERTEX
  8
0
  6
CONTINUOUS
 62
     7
 10
994.5381116193397
 20
-514.8181535606178
 42
0.01417002310844961
  0
VERTEX
  8
0
  6
CONTINUOUS
 62
     7
 10
995.6613274041871
 20
-514.6279095604457
 42
0.02204862386102993
  0
VERTEX
  8
0
  6
CONTINUOUS
 62
     7
 10
996.7682330036978
 20
-514.3588879751874
 42
0.04789169351622288
  0
VERTEX
  8
0
  6
CONTINUOUS
 62
     7
 10
997.8290652306416
 20
-513.9482615496456
 42
0.2979083701281217
  0
VERTEX
  8
0
  6
CONTINUOUS
 62
     7
 10
998.4998302454483
 20
-513.1184085262281
 42
0
  0
SEQEND
  8
0
  0
POLYLINE
  8
0
  6
CONTINUOUS
 62
     7
 66
     1
 10
0
 20
0
  0
VERTEX
  8
0
  6
CONTINUOUS
 62
     7
 10
582.0011634110998
 20
110.2676002188339
 42
-0.0997664388825545
  0
VERTEX
  8
0
  6
CONTINUOUS
 62
     7
 10
594.2703966691381
 20
86.50646926811667
 42
-0.06191152874986533
  0
VERTEX
  8
0
  6
CONTINUOUS
 62
     7
 10
598.5088263046484
 20
59.99301160958441
 42
-0.02907612477647019
  0
VERTEX
  8
0
  6
CONTINUOUS
 62
     7
 10
597.8376707853604
 20
33.09813611372343
 42
0.005408465811211518
  0
VERTEX
  8
0
  6
CONTINUOUS
 62
     7
 10
595.9008546384584
 20
6.249872728838334
 42
0.02393001140891451
  0
VERTEX
  8
0
  6
CONTINUOUS
 62
     7
 10
595.9334025032446
 20
-20.65877628752483
 42
-0.003105124881442085
  0
VERTEX
  8
0
  6
CONTINUOUS
 62
     7
 10
597.1044659802284
 20
-47.55183517820919
 42
-0.03121805979910542
  0
VERTEX
  8
0
  6
CONTINUOUS
 62
     7
 10
596.4334139956313
 20
-74.44465593020998
 42
-0.04386639932517004
  0
VERTEX
  8
0
  6
CONTINUOUS
 62
     7
 10
591.4992575522804
 20
-100.8723695406179
 42
-0.04471143738235623
  0
VERTEX
  8
0
  6
CONTINUOUS
 62
     7
 10
582.0000700345156
 20
-126.0213243936727
 42
0
  0
SEQEND
  8
0
  0
POLYLINE
  8
0
  6
CONTINUOUS
 62
     7
 66
     1
 10
0
 20
0
  0
VERTEX
  8
0
  6
CONTINUOUS
 62
     7
 10
977.9999398636579
 20
-31.94352380912283
 42
0.05059491920232499
  0
VERTEX
  8
0
  6
CONTINUOUS
 62
     7
 10
978.188438575012
 20
-33.79286048386485
 42
0.04716348571898989
  0
VERTEX
  8
0
  6
CONTINUOUS
 62
     7
 10
978.7339320125254
 20
-35.57101490850151
 42
0.04170063377373508
  0
VERTEX
  8
0
  6
CONTINUOUS
 62
     7
 10
979.5854914269053
 20
-37.22465403782304
 42
0.03588152629283597
  0
VERTEX
  8
0
  6
CONTINUOUS
 62
     7
 10
980.6824973517664
 20
-38.72744006329079
 42
0.03066399054944336
  0
VERTEX
  8
0
  6
CONTINUOUS
 62
     7
 10
981.9694048397432
 20
-40.07225945454079
 42
0.02635005902514533
  0
VERTEX
  8
0
  6
CONTINUOUS
 62
     7
 10
983.4007693473825
 20
-41.26239620345437
 42
0.02293336187738869
  0
VERTEX
  8
0
  6
CONTINUOUS
 62
     7
 10
984.9425121683196
 20
-42.30654947757782
 42
0.02026821843945432
  0
VERTEX
  8
0
  6
CONTINUOUS
 62
     7
 10
986.5690629836813
 20
-43.21440155737048
 42
0.01819160727928269
  0
VERTEX
  8
0
  6
CONTINUOUS
 62
     7
 10
988.2601573655293
 20
-43.99468182864064
 42
0.0165947777338759
  0
VERTEX
  8
0
  6
CONTINUOUS
 62
     7
 10
990.0019096621821
 20
-44.65592777758622
 42
0.01536230439673197
  0
VERTEX
  8
0
  6
CONTINUOUS
 62
     7
 10
991.782300487934
 20
-45.20473536384236
 42
0.01442613962404107
  0
VERTEX
  8
0
  6
CONTINUOUS
 62
     7
 10
993.5922630791625
 20
-45.64671046242718
 42
0.01373157514411382
  0
VERTEX
  8
0
  6
CONTINUOUS
 62
     7
 10
995.4243278595485
 20
-45.98623855164439
 42
0.01323990307246699
  0
VERTEX
  8
0
  6
CONTINUOUS
 62
     7
 10
997.2721115435336
 20
-46.22659825864709
 42
0.01292485528633485
  0
VERTEX
  8
0
  6
CONTINUOUS
 62
     7
 10
999.1299446800309
 20
-46.37006376013154
 42
0.01277046229088768
  0
VERTEX
  8
0
  6
CONTINUOUS
 62
     7
 10
1000.9926376244
 20
-46.41798303438302
 42
0
  0
SEQEND
  8
0
  0
POLYLINE
  8
0
  6
CONTINUOUS
 62
     7
 66
     1
 10
0
 20
0
  0
VERTEX
  8
0
  6
CONTINUOUS
 62
     7
 10
998.5019385008244
 20
-20.99262657878671
 42
0.03674702411530704
  0
VERTEX
  8
0
  6
CONTINUOUS
 62
     7
 10
997.1648729038272
 20
-19.86462805781935
 42
0.03635561652167001
  0
VERTEX
  8
0
  6
CONTINUOUS
 62
     7
 10
995.6775610151415
 20
-18.94318731307931
 42
0.03602153907105784
  0
VERTEX
  8
0
  6
CONTINUOUS
 62
     7
 10
994.072718870353
 20
-18.24569929931996
 42
0.03576747088024456
  0
VERTEX
  8
0
  6
CONTINUOUS
 62
     7
 10
992.3845578793778
 20
-17.78485443962534
 42
0.03560864243373416
  0
VERTEX
  8
0
  6
CONTINUOUS
 62
     7
 10
990.6482517206086
 20
-17.56874470146735
 42
0.03555214999442418
  0
VERTEX
  8
0
  6
CONTINUOUS
 62
     7
 10
988.8995331101913
 20
-17.60093285505713
 42
0.03561923640826036
  0
VERTEX
  8
0
  6
CONTINUOUS
 62
     7
 10
987.1732727118996
 20
-17.88068336280755
 42
0.03581098244878918
  0
VERTEX
  8
0
  6
CONTINUOUS
 62
     7
 10
985.5039023467898
 20
-18.40336549454649
 42
0.03608619299427662
  0
VERTEX
  8
0
  6
CONTINUOUS
 62
     7
 10
983.9267601300232
 20
-19.15966219870645
 42
0.03644317135121863
  0
VERTEX
  8
0
  6
CONTINUOUS
 62
     7
 10
982.4754142023367
 20
-20.13588529545476
 42
0.03685493471028504
  0
VERTEX
  8
0
  6
CONTINUOUS
 62
     7
 10
981.1819991864111
 20
-21.31367575733929
 42
0.03728605210201586
  0
VERTEX
  8
0
  6
CONTINUOUS
 62
     7
 10
980.076523238014
 20
-22.66976110260054
 42
0.03769687694113141
  0
VERTEX
  8
0
  6
CONTINUOUS
 62
     7
 10
979.1858535436761
 20
-24.17593014870635
 42
0.03804675864751748
  0
VERTEX
  8
0
  6
CONTINUOUS
 62
     7
 10
978.5325584790162
 20
-25.79930671763594
 42
0.03829838438711035
  0
VERTEX
  8
0
  6
CONTINUOUS
 62
     7
 10
978.1337288545069
 20
-27.50300113253244
 42
0.03841513654765605
  0
VERTEX
  8
0
  6
CONTINUOUS
 62
     7
 10
977.9999401101446
 20
-29.24682072443128
 42
0
  0
SEQEND
  8
0
  0
TEXT
  8
0
  6
CONTINUOUS
 62
     7
 10
-135.0000319480896
 20
-17.5
 40
35
 41
0.8455558345589002
  1
ＥＲＶ－＿ＮＤＦ
  0
ENDSEC
  0
EOF
