  0
SECTION
  2
HEADER
  0
ENDSEC
  0
SECTION
  2
TABLES
  0
TABLE
  2
LTYPE
 70
    22
  0
LTYPE
  2
CONTINUOUS
 70
    64
  3
Solid line
 72
    65
 73
     0
 40
0.000000
  0
LTYPE
  2
DASHED
 70
    64
  3
__ __ __ __ __ __ __ __ __ __ __ __ __ __ __
 72
    65
 73
     2
 40
3.500000
 49
2.000000
 49
-1.500000
  0
LTYPE
  2
CENTER
 70
    64
  3
____ _ ____ _ ____ _ ____ _ ____ _ ____ _ ____
 72
    65
 73
     4
 40
17.500000
 49
13.000000
 49
-1.500000
 49
1.500000
 49
-1.500000
  0
LTYPE
  2
PHANTOM
 70
    64
  3
_____ _ _ _____ _ _ _____ _ _ _____ _ _ ____  
 72
    65
 73
     6
 40
15.500000
 49
8.000000
 49
-1.500000
 49
1.500000
 49
-1.500000
 49
1.500000
 49
-1.500000
  0
LTYPE
  2
DOT
 70
    64
  3
. . . . . . . . . . . . . . . . . . . . . . . .
 72
    65
 73
     2
 40
0.25
 49
0.0
 49
-0.25
  0
ENDTAB
  0
TABLE
  2
LAYER
 70
     1
  0
LAYER
  2
0
 70
     0
 62
     7
  6
CONTINUOUS
  0
ENDTAB
  0
TABLE
  2
STYLE
 70
     1
  0
STYLE
  2
STANDARD
 70
     0
 40
0.000000
 41
1.000000
 50
0.000000
 71
     0
 42
0.200000
  3
txt
  4
BIGFONT
  0
ENDTAB
  0
TABLE
  2
VIEW
 70
     0
  0
ENDTAB
  0
ENDSEC
  0
SECTION
  2
BLOCKS
  0
ENDSEC
  0
SECTION
  2
ENTITIES
  0
LINE
  8
0
  6
CONTINUOUS
 62
     3
 10
330
 20
-500
 11
715
 21
-500
  0
LINE
  8
0
  6
CONTINUOUS
 62
     7
 10
526
 20
-382.5
 11
570
 21
-382.5
  0
LINE
  8
0
  6
CONTINUOUS
 62
     7
 10
526
 20
-617.5
 11
570
 21
-617.5
  0
LINE
  8
0
  6
CONTINUOUS
 62
     7
 10
522
 20
-385
 11
522
 21
-615
  0
LINE
  8
0
  6
CONTINUOUS
 62
     7
 10
574
 20
-385
 11
574
 21
-615
  0
LINE
  8
0
  6
CONTINUOUS
 62
     7
 10
522
 20
-386.5
 11
526
 21
-382.5
  0
LINE
  8
0
  6
CONTINUOUS
 62
     7
 10
570
 20
-382.5
 11
574
 21
-386.5
  0
LINE
  8
0
  6
CONTINUOUS
 62
     7
 10
574
 20
-613.5
 11
570
 21
-617.5
  0
LINE
  8
0
  6
CONTINUOUS
 62
     7
 10
526
 20
-617.5
 11
522
 21
-613.5
  0
LINE
  8
0
  6
CONTINUOUS
 62
     7
 10
526
 20
-425.0578002929687
 11
570
 21
-425.0578002929687
  0
LINE
  8
0
  6
CONTINUOUS
 62
     7
 10
526
 20
-438.7132568359375
 11
570
 21
-438.7132568359375
  0
LINE
  8
0
  6
CONTINUOUS
 62
     7
 10
526
 20
-447.4596557617187
 11
570
 21
-447.4596557617187
  0
LINE
  8
0
  6
CONTINUOUS
 62
     7
 10
526
 20
-462.8352966308594
 11
570
 21
-462.8352966308594
  0
LINE
  8
0
  6
CONTINUOUS
 62
     7
 10
526
 20
-472.447998046875
 11
570
 21
-472.447998046875
  0
LINE
  8
0
  6
CONTINUOUS
 62
     7
 10
526
 20
-489.00048828125
 11
570
 21
-489.00048828125
  0
LINE
  8
0
  6
CONTINUOUS
 62
     7
 10
526
 20
-511.0003051757812
 11
570
 21
-511.0003051757812
  0
LINE
  8
0
  6
CONTINUOUS
 62
     7
 10
526
 20
-537.1639404296875
 11
570
 21
-537.1639404296875
  0
LINE
  8
0
  6
CONTINUOUS
 62
     7
 10
526
 20
-552.5404663085938
 11
570
 21
-552.5404663085938
  0
LINE
  8
0
  6
CONTINUOUS
 62
     7
 10
526
 20
-561.2864379882813
 11
570
 21
-561.2864379882813
  0
LINE
  8
0
  6
CONTINUOUS
 62
     7
 10
526
 20
-574.94091796875
 11
570
 21
-574.94091796875
  0
LINE
  8
0
  6
CONTINUOUS
 62
     7
 10
526
 20
-590.4974365234375
 11
570
 21
-590.4974365234375
  0
LINE
  8
0
  6
CONTINUOUS
 62
     7
 10
526
 20
-600.2504272460938
 11
570
 21
-600.2504272460938
  0
LINE
  8
0
  6
CONTINUOUS
 62
     7
 10
526
 20
-605.0982055664063
 11
570
 21
-605.0982055664063
  0
LINE
  8
0
  6
CONTINUOUS
 62
     7
 10
526
 20
-611.4676513671875
 11
570
 21
-611.4676513671875
  0
LINE
  8
0
  6
CONTINUOUS
 62
     7
 10
645
 20
-465
 11
645
 21
-535
  0
LINE
  8
0
  6
CONTINUOUS
 62
     7
 10
627
 20
-445
 11
627
 21
-555
  0
LINE
  8
0
  6
CONTINUOUS
 62
     7
 10
645.0000610351563
 20
-465
 11
639
 21
-461.535888671875
  0
LINE
  8
0
  6
CONTINUOUS
 62
     7
 10
645
 20
-535
 11
639
 21
-538.464111328125
  0
LINE
  8
0
  6
CONTINUOUS
 62
     7
 10
639
 20
-445
 11
639
 21
-555
  0
LINE
  8
0
  6
CONTINUOUS
 62
     7
 10
639
 20
-445
 11
619.88671875
 21
-445
  0
LINE
  8
0
  6
CONTINUOUS
 62
     7
 10
639
 20
-555
 11
619.88671875
 21
-555
  0
LINE
  8
0
  6
CONTINUOUS
 62
     7
 10
615.556640625
 20
-442.5
 11
601.6698608398438
 21
-418.4474792480469
  0
LINE
  8
0
  6
CONTINUOUS
 62
     7
 10
615.556640625
 20
-557.5
 11
601.1228637695312
 21
-582.5
  0
LINE
  8
0
  6
CONTINUOUS
 62
     7
 10
601.1228637695312
 20
-582.5
 11
597
 21
-582.5
  0
LINE
  8
0
  6
CONTINUOUS
 62
     7
 10
592
 20
-396.8897705078125
 11
592
 21
-615
  0
LINE
  8
0
  6
CONTINUOUS
 62
     7
 10
592
 20
-615
 11
574
 21
-615
  0
LINE
  8
0
  6
CONTINUOUS
 62
     7
 10
601
 20
-385
 11
597.4257202148437
 21
-385
  0
LINE
  8
0
  6
CONTINUOUS
 62
     7
 10
601
 20
-385
 11
601
 21
-431.2046508789063
  0
LINE
  8
0
  6
CONTINUOUS
 62
     7
 10
695
 20
-483
 11
695
 21
-514
  0
LINE
  8
0
  6
CONTINUOUS
 62
     7
 10
695
 20
-486
 11
650
 21
-486
  0
LINE
  8
0
  6
CONTINUOUS
 62
     7
 10
695
 20
-514
 11
650
 21
-514
  0
LINE
  8
0
  6
CONTINUOUS
 62
     7
 10
650
 20
-482.5
 11
650
 21
-517.5
  0
LINE
  8
0
  6
CONTINUOUS
 62
     7
 10
650
 20
-482.5
 11
645
 21
-482.5
  0
LINE
  8
0
  6
CONTINUOUS
 62
     7
 10
650
 20
-517.5
 11
645
 21
-517.5
  0
LINE
  8
0
  6
CONTINUOUS
 62
     7
 10
601.1228637695312
 20
-431.1835632324219
 11
601.1228637695312
 21
-582.5
  0
LINE
  8
0
  6
CONTINUOUS
 62
     7
 10
695
 20
-483
 11
659
 21
-483
  0
LINE
  8
0
  6
CONTINUOUS
 62
     7
 10
659
 20
-483
 11
659
 21
-486
  0
LINE
  8
0
  6
CONTINUOUS
 62
     7
 10
592
 20
-396.8898010253906
 11
601
 21
-395.7746276855469
  0
LINE
  8
0
  6
CONTINUOUS
 62
     7
 10
580.5742797851562
 20
-385
 11
574
 21
-385
  0
LINE
  8
0
  6
CONTINUOUS
 62
     7
 10
592
 20
-432.7493286132812
 11
601.1228637695312
 21
-431.1835327148437
  0
LINE
  8
0
  6
CONTINUOUS
 62
     7
 10
580.5
 20
-375.2359924316406
 11
580.5
 21
-388.2413330078125
  0
LINE
  8
0
  6
CONTINUOUS
 62
     7
 10
597.5
 20
-375.2359313964844
 11
597.5
 21
-388.2413330078125
  0
LINE
  8
0
  6
CONTINUOUS
 62
     7
 10
601
 20
-367.9199829101563
 11
601
 21
-373.3305053710937
  0
LINE
  8
0
  6
CONTINUOUS
 62
     7
 10
577
 20
-361.9199829101562
 11
577
 21
-373.3305053710937
  0
LINE
  8
0
  6
CONTINUOUS
 62
     7
 10
612
 20
-338.9199829101562
 11
612
 21
-362.9199829101562
  0
LINE
  8
0
  6
CONTINUOUS
 62
     7
 10
606
 20
-362.9199829101562
 11
612
 21
-362.9199829101562
  0
LINE
  8
0
  6
CONTINUOUS
 62
     7
 10
600
 20
-338.9199829101562
 11
612
 21
-338.9199829101562
  0
LINE
  8
0
  6
CONTINUOUS
 62
     7
 10
618
 20
-342.4124450683594
 11
612
 21
-342.5999450683594
  0
LINE
  8
0
  6
CONTINUOUS
 62
     7
 10
618
 20
-359.4275512695312
 11
618
 21
-342.4124450683594
  0
LINE
  8
0
  6
CONTINUOUS
 62
     3
 10
632.4326171875
 20
-350.9199829101563
 11
571.7659301757812
 21
-350.9199829101563
  0
LINE
  8
0
  6
CONTINUOUS
 62
     3
 10
589
 20
-336.5993957519531
 11
589
 21
-393.7841186523438
  0
LINE
  8
0
  6
CONTINUOUS
 62
     7
 10
618
 20
-359.4275817871094
 11
612
 21
-359.2400817871094
  0
LINE
  8
0
  6
CONTINUOUS
 62
     7
 10
618
 20
-359.1878051757812
 11
627
 21
-359.1878051757812
  0
LINE
  8
0
  6
CONTINUOUS
 62
     7
 10
627
 20
-359.1878051757812
 11
627
 21
-342.6522216796875
  0
LINE
  8
0
  6
CONTINUOUS
 62
     7
 10
618
 20
-342.6522216796875
 11
627
 21
-342.6522216796875
  0
LINE
  8
0
  6
CONTINUOUS
 62
     3
 10
559
 20
-490.135009765625
 11
559
 21
-509.864990234375
  0
LINE
  8
0
  6
CONTINUOUS
 62
     7
 10
559
 20
-495.0502624511719
 11
554.0502319335938
 21
-500
  0
LINE
  8
0
  6
CONTINUOUS
 62
     7
 10
554.0502319335938
 20
-500
 11
559
 21
-504.9497375488281
  0
LINE
  8
0
  6
CONTINUOUS
 62
     7
 10
559
 20
-504.9497375488281
 11
563.9497680664063
 21
-500
  0
LINE
  8
0
  6
CONTINUOUS
 62
     7
 10
563.94970703125
 20
-500
 11
559
 21
-495.0502624511719
  0
LINE
  8
0
  6
CONTINUOUS
 62
     7
 10
526
 20
-527.5513305664062
 11
570
 21
-527.5513305664062
  0
LINE
  8
0
  6
CONTINUOUS
 62
     7
 10
350
 20
-468.5
 11
413
 21
-468.5
  0
LINE
  8
0
  6
CONTINUOUS
 62
     7
 10
430
 20
-467.5
 11
430
 21
-532.5
  0
LINE
  8
0
  6
CONTINUOUS
 62
     7
 10
350
 20
-527.5
 11
430
 21
-527.5
  0
LINE
  8
0
  6
CONTINUOUS
 62
     7
 10
350
 20
-472.5
 11
430
 21
-472.5
  0
LINE
  8
0
  6
CONTINUOUS
 62
     7
 10
430
 20
-532.5
 11
434.2197875976563
 21
-532.5
  0
LINE
  8
0
  6
CONTINUOUS
 62
     7
 10
430
 20
-467.5
 11
434.1791381835937
 21
-467.5
  0
LINE
  8
0
  6
CONTINUOUS
 62
     7
 10
350
 20
-468.5
 11
350
 21
-527.5
  0
LINE
  8
0
  6
CONTINUOUS
 62
     7
 10
430
 20
-650
 11
452
 21
-650
  0
LINE
  8
0
  6
CONTINUOUS
 62
     7
 10
452
 20
-350
 11
452
 21
-650
  0
LINE
  8
0
  6
CONTINUOUS
 62
     7
 10
504
 20
-385
 11
504
 21
-615
  0
LINE
  8
0
  6
CONTINUOUS
 62
     7
 10
504
 20
-615
 11
522
 21
-615
  0
LINE
  8
0
  6
CONTINUOUS
 62
     7
 10
455.095703125
 20
-566.2222290039063
 11
489.6410522460937
 21
-551.9927978515625
  0
LINE
  8
0
  6
CONTINUOUS
 62
     7
 10
452
 20
-592.734375
 11
504
 21
-571.45361328125
  0
LINE
  8
0
  6
CONTINUOUS
 62
     7
 10
452.0000305175781
 20
-606.87646484375
 11
504.0000305175781
 21
-585.595703125
  0
LINE
  8
0
  6
CONTINUOUS
 62
     7
 10
425
 20
-615
 11
430
 21
-615
  0
LINE
  8
0
  6
CONTINUOUS
 62
     7
 10
425
 20
-583.642578125
 11
425
 21
-615
  0
LINE
  8
0
  6
CONTINUOUS
 62
     7
 10
430
 20
-576.7078857421875
 11
430
 21
-650
  0
LINE
  8
0
  6
CONTINUOUS
 62
     7
 10
457
 20
-385
 11
522
 21
-385
  0
LINE
  8
0
  6
CONTINUOUS
 62
     7
 10
455.095703125
 20
-433.7777709960937
 11
489.6410217285156
 21
-448.0072326660156
  0
LINE
  8
0
  6
CONTINUOUS
 62
     7
 10
452.0000305175781
 20
-393.1235046386719
 11
504.0000305175781
 21
-414.4042663574219
  0
LINE
  8
0
  6
CONTINUOUS
 62
     7
 10
452.0000305175781
 20
-407.2656555175781
 11
504.0000305175781
 21
-428.54638671875
  0
LINE
  8
0
  6
CONTINUOUS
 62
     7
 10
489.6410217285156
 20
-448.0072326660156
 11
499
 21
-448.0072326660156
  0
LINE
  8
0
  6
CONTINUOUS
 62
     7
 10
489.6410217285156
 20
-551.9927978515625
 11
499
 21
-551.9927978515625
  0
LINE
  8
0
  6
CONTINUOUS
 62
     7
 10
464.5
 20
-315.7000122070312
 11
491.5
 21
-315.7000122070312
  0
LINE
  8
0
  6
CONTINUOUS
 62
     7
 10
486.0710754394531
 20
-301.0500183105469
 11
469.9289245605469
 21
-301.0500183105469
  0
LINE
  8
0
  6
CONTINUOUS
 62
     7
 10
486.507568359375
 20
-310.0500183105469
 11
469.492431640625
 21
-310.0500183105469
  0
LINE
  8
0
  6
CONTINUOUS
 62
     7
 10
486.5075378417969
 20
-310.0500183105469
 11
486.3309936523437
 21
-315.6999816894531
  0
LINE
  8
0
  6
CONTINUOUS
 62
     7
 10
469.4924011230469
 20
-310.0500183105469
 11
469.6689453125
 21
-315.7000122070312
  0
LINE
  8
0
  6
CONTINUOUS
 62
     7
 10
486.071044921875
 20
-301.0500183105469
 11
486.071044921875
 21
-310.0500183105469
  0
LINE
  8
0
  6
CONTINUOUS
 62
     7
 10
469.928955078125
 20
-301.0500183105469
 11
469.928955078125
 21
-310.0500183105469
  0
LINE
  8
0
  6
CONTINUOUS
 62
     7
 10
430
 20
-350
 11
452
 21
-350
  0
LINE
  8
0
  6
CONTINUOUS
 62
     7
 10
430
 20
-350
 11
430
 21
-412.6487731933594
  0
LINE
  8
0
  6
CONTINUOUS
 62
     7
 10
425
 20
-385
 11
430
 21
-385
  0
LINE
  8
0
  6
CONTINUOUS
 62
     7
 10
425
 20
-385
 11
425
 21
-406.1378784179688
  0
LINE
  8
0
  6
CONTINUOUS
 62
     7
 10
464.5
 20
-347.7000122070313
 11
491.5
 21
-347.7000122070313
  0
LINE
  8
0
  6
CONTINUOUS
 62
     7
 10
469.3499755859375
 20
-347.7000122070313
 11
469.3499755859375
 21
-385
  0
LINE
  8
0
  6
CONTINUOUS
 62
     7
 10
486.6500244140625
 20
-347.7000122070313
 11
486.6500244140625
 21
-385
  0
LINE
  8
0
  6
CONTINUOUS
 62
     7
 10
491.5
 20
-315.7000122070312
 11
491.5
 21
-347.7000122070313
  0
LINE
  8
0
  6
CONTINUOUS
 62
     7
 10
464.5
 20
-315.7000122070312
 11
464.5
 21
-347.7000122070313
  0
LINE
  8
0
  6
CONTINUOUS
 62
     3
 10
478
 20
-296.7441101074219
 11
478
 21
-395.8260498046875
  0
LINE
  8
0
  6
CONTINUOUS
 62
     3
 10
478
 20
-301.0500183105469
 11
469.928955078125
 21
-310.0500183105469
  0
LINE
  8
0
  6
CONTINUOUS
 62
     3
 10
469.928955078125
 20
-301.0500183105469
 11
478
 21
-310.0500183105469
  0
LINE
  8
0
  6
CONTINUOUS
 62
     7
 10
478
 20
-310.0500183105469
 11
478
 21
-301.0500183105469
  0
LINE
  8
0
  6
CONTINUOUS
 62
     3
 10
478
 20
-301.0500183105469
 11
486.071044921875
 21
-310.0500183105469
  0
LINE
  8
0
  6
CONTINUOUS
 62
     3
 10
486.071044921875
 20
-301.0500183105469
 11
478
 21
-310.0500183105469
  0
LINE
  8
0
  6
CONTINUOUS
 62
     7
 10
413
 20
-468.5
 11
413
 21
-472.5
  0
LINE
  8
0
  6
CONTINUOUS
 62
     7
 10
618
 20
-350.9199829101563
 11
627
 21
-350.9199829101563
  0
LINE
  8
0
  6
CONTINUOUS
 62
     3
 10
627
 20
-350.9199829101563
 11
618
 21
-342.6521911621094
  0
LINE
  8
0
  6
CONTINUOUS
 62
     3
 10
627
 20
-342.6521911621094
 11
618
 21
-350.9199829101563
  0
LINE
  8
0
  6
CONTINUOUS
 62
     3
 10
618
 20
-350.9200134277344
 11
627
 21
-359.1878051757812
  0
LINE
  8
0
  6
CONTINUOUS
 62
     3
 10
627
 20
-350.9199829101563
 11
618
 21
-359.1878051757812
  0
LINE
  8
0
  6
CONTINUOUS
 62
     3
 10
-170
 20
-500
 11
170
 21
-500
  0
LINE
  8
0
  6
CONTINUOUS
 62
     3
 10
0
 20
-281.0500183105469
 11
0
 21
-670
  0
LINE
  8
0
  6
CONTINUOUS
 62
     3
 10
37.59789657592773
 20
-337.1456298828125
 11
33.74266052246094
 21
-353.844482421875
  0
LINE
  8
0
  6
CONTINUOUS
 62
     3
 10
49.3457145690918
 20
-354.3678283691406
 11
20.06473541259766
 21
-347.6077880859375
  0
LINE
  8
0
  6
CONTINUOUS
 62
     7
 10
46.10995101928711
 20
-353.6208190917969
 11
45.32695007324219
 21
-357.0123596191406
  0
LINE
  8
0
  6
CONTINUOUS
 62
     7
 10
22.72507095336914
 20
-348.2219543457031
 11
21.94206809997559
 21
-351.613525390625
  0
LINE
  8
0
  6
CONTINUOUS
 62
     7
 10
-8
 20
-478.5
 11
8
 21
-478.5
  0
LINE
  8
0
  6
CONTINUOUS
 62
     7
 10
-8
 20
-468.5
 11
-8
 21
-478.5
  0
LINE
  8
0
  6
CONTINUOUS
 62
     7
 10
8
 20
-468.5
 11
8
 21
-478.5
  0
LINE
  8
0
  6
CONTINUOUS
 62
     7
 10
-8
 20
-468.5
 11
8
 21
-468.5
  0
LINE
  8
0
  6
CONTINUOUS
 62
     3
 10
111.7655792236328
 20
-546.2949829101562
 11
132.5182342529297
 21
-554.8910522460938
  0
LINE
  8
0
  6
CONTINUOUS
 62
     3
 10
111.7657165527344
 20
-453.7051391601562
 11
132.5183868408203
 21
-445.1091003417969
  0
LINE
  8
0
  6
CONTINUOUS
 62
     3
 10
46.29490661621094
 20
-388.2343444824219
 11
54.89093017578125
 21
-367.4817199707031
  0
LINE
  8
0
  6
CONTINUOUS
 62
     3
 10
-46.29470443725586
 20
-388.2343444824219
 11
-54.8907356262207
 21
-367.481689453125
  0
LINE
  8
0
  6
CONTINUOUS
 62
     3
 10
-111.7655868530273
 20
-453.7050170898438
 11
-132.5182495117187
 21
-445.1089782714844
  0
LINE
  8
0
  6
CONTINUOUS
 62
     3
 10
-111.7656326293945
 20
-546.2947387695313
 11
-132.5182952880859
 21
-554.8907470703125
  0
LINE
  8
0
  6
CONTINUOUS
 62
     3
 10
-46.29491806030273
 20
-611.7655029296875
 11
-54.89096450805664
 21
-632.5181884765625
  0
LINE
  8
0
  6
CONTINUOUS
 62
     3
 10
46.29465484619141
 20
-611.7656860351562
 11
54.89068603515625
 21
-632.518310546875
  0
LINE
  8
0
  6
CONTINUOUS
 62
     3
 10
58.56743621826172
 20
-533.8139038085937
 11
71.13252258300781
 21
-541.068359375
  0
LINE
  8
0
  6
CONTINUOUS
 62
     3
 10
58.56747055053711
 20
-466.1860961914062
 11
71.13255310058594
 21
-458.931640625
  0
LINE
  8
0
  6
CONTINUOUS
 62
     3
 10
-58.56741333007813
 20
-466.1860656738281
 11
-71.13255310058594
 21
-458.9315795898438
  0
LINE
  8
0
  6
CONTINUOUS
 62
     3
 10
-58.56743621826172
 20
-533.81396484375
 11
-71.13252258300781
 21
-541.0684204101563
  0
LINE
  8
0
  6
CONTINUOUS
 62
     7
 10
-13.5
 20
-315.7000122070312
 11
13.5
 21
-315.7000122070312
  0
LINE
  8
0
  6
CONTINUOUS
 62
     7
 10
8.07110595703125
 20
-301.0500183105469
 11
-8.07110595703125
 21
-301.0500183105469
  0
LINE
  8
0
  6
CONTINUOUS
 62
     7
 10
8.507568359375
 20
-310.0500183105469
 11
-8.507568359375
 21
-310.0500183105469
  0
LINE
  8
0
  6
CONTINUOUS
 62
     7
 10
8.507616996765137
 20
-310.0500183105469
 11
8.3310546875
 21
-315.7000122070312
  0
LINE
  8
0
  6
CONTINUOUS
 62
     7
 10
-8.507541656494141
 20
-310.050048828125
 11
-8.330979347229004
 21
-315.7000122070312
  0
LINE
  8
0
  6
CONTINUOUS
 62
     7
 10
8.07110595703125
 20
-301.0500183105469
 11
8.07110595703125
 21
-310.0500183105469
  0
LINE
  8
0
  6
CONTINUOUS
 62
     7
 10
-8.07110595703125
 20
-301.0500183105469
 11
-8.07110595703125
 21
-310.0500183105469
  0
LINE
  8
0
  6
CONTINUOUS
 62
     7
 10
-13.5
 20
-315.7000122070312
 11
-13.5
 21
-350.6087341308594
  0
LINE
  8
0
  6
CONTINUOUS
 62
     7
 10
13.5
 20
-315.7000122070312
 11
13.5
 21
-350.6087341308594
  0
LINE
  8
0
  6
CONTINUOUS
 62
     3
 10
2.402638529019896E-05
 20
-301.0500183105469
 11
-8.071086883544922
 21
-310.0500183105469
  0
LINE
  8
0
  6
CONTINUOUS
 62
     3
 10
-8.071135520935059
 20
-301.0500183105469
 11
-4.156547220190987E-06
 21
-310.050048828125
  0
LINE
  8
0
  6
CONTINUOUS
 62
     3
 10
1.43439738167217E-05
 20
-310.050048828125
 11
8.071125030517578
 21
-301.0500183105469
  0
LINE
  8
0
  6
CONTINUOUS
 62
     3
 10
6.53589449939318E-06
 20
-301.050048828125
 11
8.071097373962402
 21
-310.050048828125
  0
LINE
  8
0
  6
CONTINUOUS
 62
     7
 10
0
 20
-310.0500183105469
 11
0
 21
-301.0500183105469
  0
LINE
  8
0
  6
CONTINUOUS
 62
     3
 10
330
 20
0
 11
715
 21
0
  0
LINE
  8
0
  6
CONTINUOUS
 62
     7
 10
526
 20
117.5
 11
570
 21
117.5
  0
LINE
  8
0
  6
CONTINUOUS
 62
     7
 10
526
 20
-117.5
 11
570
 21
-117.5
  0
LINE
  8
0
  6
CONTINUOUS
 62
     7
 10
522
 20
115
 11
522
 21
-114.9999694824219
  0
LINE
  8
0
  6
CONTINUOUS
 62
     7
 10
522.0000610351562
 20
113.4999694824219
 11
526.0000610351563
 21
117.4999694824219
  0
LINE
  8
0
  6
CONTINUOUS
 62
     7
 10
569.9998779296875
 20
117.4999542236328
 11
573.9998779296875
 21
113.4999465942383
  0
LINE
  8
0
  6
CONTINUOUS
 62
     7
 10
574
 20
-113.5000305175781
 11
570
 21
-117.5000305175781
  0
LINE
  8
0
  6
CONTINUOUS
 62
     7
 10
526.0001220703125
 20
-117.4999160766602
 11
522.0001220703125
 21
-113.4998779296875
  0
LINE
  8
0
  6
CONTINUOUS
 62
     7
 10
526
 20
111.4676513671875
 11
570
 21
111.4676513671875
  0
LINE
  8
0
  6
CONTINUOUS
 62
     7
 10
526
 20
105.0982666015625
 11
570
 21
105.0982666015625
  0
LINE
  8
0
  6
CONTINUOUS
 62
     7
 10
526
 20
100.2501831054688
 11
570
 21
100.2501831054688
  0
LINE
  8
0
  6
CONTINUOUS
 62
     7
 10
526
 20
90.495849609375
 11
570
 21
90.495849609375
  0
LINE
  8
0
  6
CONTINUOUS
 62
     7
 10
526
 20
74.94110107421875
 11
570
 21
74.94110107421875
  0
LINE
  8
0
  6
CONTINUOUS
 62
     7
 10
526
 20
61.28469848632813
 11
570
 21
61.28469848632813
  0
LINE
  8
0
  6
CONTINUOUS
 62
     7
 10
526
 20
52.53948974609375
 11
570
 21
52.53948974609375
  0
LINE
  8
0
  6
CONTINUOUS
 62
     7
 10
526
 20
37.16400146484375
 11
570
 21
37.16400146484375
  0
LINE
  8
0
  6
CONTINUOUS
 62
     7
 10
526
 20
27.5504150390625
 11
570
 21
27.5504150390625
  0
LINE
  8
0
  6
CONTINUOUS
 62
     7
 10
526
 20
10.99948120117188
 11
570
 21
10.99948120117188
  0
LINE
  8
0
  6
CONTINUOUS
 62
     7
 10
526
 20
-90.49783325195313
 11
570
 21
-90.49783325195313
  0
LINE
  8
0
  6
CONTINUOUS
 62
     7
 10
526
 20
-100.2507019042969
 11
570
 21
-100.2507019042969
  0
LINE
  8
0
  6
CONTINUOUS
 62
     7
 10
526
 20
-105.0988464355469
 11
570
 21
-105.0988464355469
  0
LINE
  8
0
  6
CONTINUOUS
 62
     7
 10
526
 20
-111.4677429199219
 11
570
 21
-111.4677429199219
  0
LINE
  8
0
  6
CONTINUOUS
 62
     7
 10
574
 20
115
 11
574
 21
4
  0
LINE
  8
0
  6
CONTINUOUS
 62
     7
 10
645
 20
34.99996948242187
 11
645
 21
-35
  0
LINE
  8
0
  6
CONTINUOUS
 62
     7
 10
627
 20
55
 11
627
 21
-55
  0
LINE
  8
0
  6
CONTINUOUS
 62
     7
 10
645.0000610351563
 20
34.99995803833008
 11
639.0000610351562
 21
38.46406936645508
  0
LINE
  8
0
  6
CONTINUOUS
 62
     7
 10
645
 20
-34.99993896484375
 11
639.0000610351562
 21
-38.46403503417969
  0
LINE
  8
0
  6
CONTINUOUS
 62
     7
 10
639
 20
55
 11
639
 21
-55
  0
LINE
  8
0
  6
CONTINUOUS
 62
     7
 10
639
 20
55
 11
619.88671875
 21
55
  0
LINE
  8
0
  6
CONTINUOUS
 62
     7
 10
639
 20
-55
 11
619.88671875
 21
-55
  0
LINE
  8
0
  6
CONTINUOUS
 62
     7
 10
615.5565795898437
 20
57.50005340576172
 11
601.1228637695312
 21
82.50003814697266
  0
LINE
  8
0
  6
CONTINUOUS
 62
     7
 10
615.556640625
 20
-57.50001525878906
 11
601.1228637695312
 21
-82.50003814697266
  0
LINE
  8
0
  6
CONTINUOUS
 62
     7
 10
601.1228637695312
 20
-82.5
 11
597
 21
-82.5
  0
LINE
  8
0
  6
CONTINUOUS
 62
     7
 10
592
 20
115
 11
592
 21
12.58737182617188
  0
LINE
  8
0
  6
CONTINUOUS
 62
     7
 10
592
 20
-115
 11
574
 21
-115
  0
LINE
  8
0
  6
CONTINUOUS
 62
     7
 10
592
 20
115
 11
574
 21
115
  0
LINE
  8
0
  6
CONTINUOUS
 62
     7
 10
601.1228637695312
 20
82.5
 11
597
 21
82.5
  0
LINE
  8
0
  6
CONTINUOUS
 62
     7
 10
601
 20
-48.60107421875
 11
601
 21
-46.19300079345703
  0
LINE
  8
0
  6
CONTINUOUS
 62
     7
 10
592
 20
-50.92422485351563
 11
592
 21
-115
  0
LINE
  8
0
  6
CONTINUOUS
 62
     7
 10
695
 20
14
 11
695
 21
-14
  0
LINE
  8
0
  6
CONTINUOUS
 62
     7
 10
695
 20
-14
 11
650
 21
-14
  0
LINE
  8
0
  6
CONTINUOUS
 62
     7
 10
695
 20
14
 11
650
 21
14
  0
LINE
  8
0
  6
CONTINUOUS
 62
     7
 10
650
 20
17.5
 11
650
 21
-17.5
  0
LINE
  8
0
  6
CONTINUOUS
 62
     7
 10
650
 20
17.5
 11
645
 21
17.5
  0
LINE
  8
0
  6
CONTINUOUS
 62
     7
 10
650
 20
-17.5
 11
645
 21
-17.5
  0
LINE
  8
0
  6
CONTINUOUS
 62
     7
 10
695
 20
4
 11
656
 21
4
  0
LINE
  8
0
  6
CONTINUOUS
 62
     7
 10
695
 20
-4
 11
656
 21
-4
  0
LINE
  8
0
  6
CONTINUOUS
 62
     7
 10
601.1229248046875
 20
82.5
 11
601.1229248046875
 21
21.26470947265625
  0
LINE
  8
0
  6
CONTINUOUS
 62
     7
 10
601.1229248046875
 20
-50.8624267578125
 11
601.1229248046875
 21
-82.49996948242188
  0
LINE
  8
0
  6
CONTINUOUS
 62
     7
 10
659
 20
4
 11
659
 21
-4
  0
LINE
  8
0
  6
CONTINUOUS
 62
     7
 10
572.5
 20
4
 11
605.5
 21
4
  0
LINE
  8
0
  6
CONTINUOUS
 62
     7
 10
572.5
 20
-4
 11
605.5
 21
-4
  0
LINE
  8
0
  6
CONTINUOUS
 62
     7
 10
592
 20
12.58734226226807
 11
601
 21
10.05743312835693
  0
LINE
  8
0
  6
CONTINUOUS
 62
     7
 10
600.9999389648438
 20
-48.60105895996094
 11
591.9999389648437
 21
-50.92420196533203
  0
LINE
  8
0
  6
CONTINUOUS
 62
     7
 10
591.9999389648437
 20
21.90391540527344
 11
600.9999389648438
 21
19.22238922119141
  0
LINE
  8
0
  6
CONTINUOUS
 62
     7
 10
574
 20
-4
 11
574
 21
-115
  0
LINE
  8
0
  6
CONTINUOUS
 62
     7
 10
601
 20
4
 11
601
 21
19.222412109375
  0
LINE
  8
0
  6
CONTINUOUS
 62
     7
 10
554.0090942382812
 20
-121.5300064086914
 11
554.135009765625
 21
-117.5000076293945
  0
LINE
  8
0
  6
CONTINUOUS
 62
     7
 10
563.9910278320313
 20
-121.5300064086914
 11
563.8650512695313
 21
-117.5
  0
LINE
  8
0
  6
CONTINUOUS
 62
     3
 10
559
 20
-112.517951965332
 11
559
 21
-132.2556762695312
  0
LINE
  8
0
  6
CONTINUOUS
 62
     7
 10
554.009033203125
 20
-121.5299987792969
 11
563.990966796875
 21
-121.5299987792969
  0
LINE
  8
0
  6
CONTINUOUS
 62
     7
 10
563.5355224609375
 20
-128.5299987792969
 11
563.5355224609375
 21
-121.5299987792969
  0
LINE
  8
0
  6
CONTINUOUS
 62
     3
 10
559
 20
-121.5299911499023
 11
563.5355224609375
 21
-128.5299835205078
  0
LINE
  8
0
  6
CONTINUOUS
 62
     3
 10
559
 20
-128.5299835205078
 11
563.5355224609375
 21
-121.5299911499023
  0
LINE
  8
0
  6
CONTINUOUS
 62
     3
 10
554.4644775390625
 20
-121.5299682617188
 11
559
 21
-128.5299835205078
  0
LINE
  8
0
  6
CONTINUOUS
 62
     3
 10
554.4644775390625
 20
-128.5299987792969
 11
559
 21
-121.5299987792969
  0
LINE
  8
0
  6
CONTINUOUS
 62
     7
 10
554.4644775390625
 20
-128.5299987792969
 11
554.4644775390625
 21
-121.5299987792969
  0
LINE
  8
0
  6
CONTINUOUS
 62
     7
 10
554.4644775390625
 20
-128.5299987792969
 11
563.5355224609375
 21
-128.5299987792969
  0
LINE
  8
0
  6
CONTINUOUS
 62
     7
 10
577
 20
-29.01912498474121
 11
577
 21
-31.71853828430176
  0
LINE
  8
0
  6
CONTINUOUS
 62
     3
 10
569.9986572265625
 20
-34.19300079345703
 11
632.62939453125
 21
-34.19300079345703
  0
LINE
  8
0
  6
CONTINUOUS
 62
     3
 10
589
 20
-15.03795146942139
 11
589
 21
-48.40578460693359
  0
LINE
  8
0
  6
CONTINUOUS
 62
     7
 10
600.9979858398438
 20
-22.19300079345703
 11
612
 21
-22.19300079345703
  0
LINE
  8
0
  6
CONTINUOUS
 62
     7
 10
612
 20
-22.19300079345703
 11
612
 21
-46.19300079345703
  0
LINE
  8
0
  6
CONTINUOUS
 62
     7
 10
600
 20
-46.19300079345703
 11
612
 21
-46.19300079345703
  0
LINE
  8
0
  6
CONTINUOUS
 62
     7
 10
618
 20
-25.68543815612793
 11
612
 21
-25.87293815612793
  0
LINE
  8
0
  6
CONTINUOUS
 62
     7
 10
618
 20
-42.70056533813477
 11
618
 21
-25.6854362487793
  0
LINE
  8
0
  6
CONTINUOUS
 62
     7
 10
618
 20
-42.70056533813477
 11
612
 21
-42.51306533813477
  0
LINE
  8
0
  6
CONTINUOUS
 62
     7
 10
618
 20
-42.46081161499023
 11
627
 21
-42.46081161499023
  0
LINE
  8
0
  6
CONTINUOUS
 62
     7
 10
618
 20
-25.92519760131836
 11
627
 21
-25.92519760131836
  0
LINE
  8
0
  6
CONTINUOUS
 62
     7
 10
601
 20
-22.19300079345703
 11
601
 21
-4
  0
LINE
  8
0
  6
CONTINUOUS
 62
     7
 10
430
 20
32.5
 11
430
 21
-32.5
  0
LINE
  8
0
  6
CONTINUOUS
 62
     7
 10
350
 20
-27.5
 11
430
 21
-27.5
  0
LINE
  8
0
  6
CONTINUOUS
 62
     7
 10
350
 20
27.5
 11
430
 21
27.5
  0
LINE
  8
0
  6
CONTINUOUS
 62
     7
 10
430
 20
-32.5
 11
433.0631713867188
 21
-32.5
  0
LINE
  8
0
  6
CONTINUOUS
 62
     7
 10
430
 20
32.5
 11
434.0924072265625
 21
32.5
  0
LINE
  8
0
  6
CONTINUOUS
 62
     7
 10
350
 20
27.5
 11
350
 21
-27.5
  0
LINE
  8
0
  6
CONTINUOUS
 62
     7
 10
350
 20
-8
 11
417
 21
-8
  0
LINE
  8
0
  6
CONTINUOUS
 62
     7
 10
430
 20
-149.9999694824219
 11
452
 21
-149.9999694824219
  0
LINE
  8
0
  6
CONTINUOUS
 62
     7
 10
452
 20
150
 11
452
 21
-149.9999694824219
  0
LINE
  8
0
  6
CONTINUOUS
 62
     7
 10
504
 20
-114.9999694824219
 11
522
 21
-114.9999694824219
  0
LINE
  8
0
  6
CONTINUOUS
 62
     7
 10
504
 20
-17.5
 11
504
 21
-114.9999694824219
  0
LINE
  8
0
  6
CONTINUOUS
 62
     7
 10
452.0000305175781
 20
-92.73438262939453
 11
504.0000305175781
 21
-71.45362854003906
  0
LINE
  8
0
  6
CONTINUOUS
 62
     7
 10
452.0000305175781
 20
-106.8765258789063
 11
504.0000305175781
 21
-85.59577178955078
  0
LINE
  8
0
  6
CONTINUOUS
 62
     7
 10
455.0956726074219
 20
-66.22222900390625
 11
489.6409912109375
 21
-51.99276733398438
  0
LINE
  8
0
  6
CONTINUOUS
 62
     7
 10
425
 20
-115
 11
430
 21
-115
  0
LINE
  8
0
  6
CONTINUOUS
 62
     7
 10
425
 20
-87.62200927734375
 11
425
 21
-115
  0
LINE
  8
0
  6
CONTINUOUS
 62
     7
 10
430
 20
-84.46197509765625
 11
430
 21
-149.9999694824219
  0
LINE
  8
0
  6
CONTINUOUS
 62
     7
 10
350
 20
8
 11
417
 21
8
  0
LINE
  8
0
  6
CONTINUOUS
 62
     7
 10
504
 20
115
 11
504
 21
17.5
  0
LINE
  8
0
  6
CONTINUOUS
 62
     7
 10
504
 20
115
 11
522
 21
115
  0
LINE
  8
0
  6
CONTINUOUS
 62
     7
 10
452
 20
17.5
 11
504
 21
17.5
  0
LINE
  8
0
  6
CONTINUOUS
 62
     7
 10
452
 20
-17.5
 11
504
 21
-17.5
  0
LINE
  8
0
  6
CONTINUOUS
 62
     7
 10
452
 20
106.8764953613281
 11
504
 21
85.59574127197266
  0
LINE
  8
0
  6
CONTINUOUS
 62
     7
 10
452
 20
92.734375
 11
503.9999694824219
 21
71.45362854003906
  0
LINE
  8
0
  6
CONTINUOUS
 62
     7
 10
489.6410217285156
 20
51.9927978515625
 11
499
 21
51.9927978515625
  0
LINE
  8
0
  6
CONTINUOUS
 62
     7
 10
489.6410217285156
 20
-51.9927978515625
 11
499
 21
-51.9927978515625
  0
LINE
  8
0
  6
CONTINUOUS
 62
     7
 10
455.095703125
 20
66.22221374511719
 11
489.6409912109375
 21
51.99277496337891
  0
LINE
  8
0
  6
CONTINUOUS
 62
     7
 10
486.4852600097656
 20
5.752423930971418E-06
 11
478
 21
8.485286712646484
  0
LINE
  8
0
  6
CONTINUOUS
 62
     7
 10
478
 20
8.485270500183105
 11
469.5147399902344
 21
7.15253918315284E-07
  0
LINE
  8
0
  6
CONTINUOUS
 62
     7
 10
477.9999694824219
 20
-8.485238075256348
 11
469.5147399902344
 21
7.15253918315284E-07
  0
LINE
  8
0
  6
CONTINUOUS
 62
     7
 10
486.4852600097656
 20
9.359085197502282E-06
 11
478
 21
-8.485248565673828
  0
LINE
  8
0
  6
CONTINUOUS
 62
     3
 10
478
 20
15.72772216796875
 11
478
 21
-15.83087158203125
  0
LINE
  8
0
  6
CONTINUOUS
 62
     7
 10
430
 20
150
 11
452
 21
150
  0
LINE
  8
0
  6
CONTINUOUS
 62
     7
 10
430
 20
150
 11
430
 21
84.3685302734375
  0
LINE
  8
0
  6
CONTINUOUS
 62
     7
 10
425
 20
115
 11
425
 21
89.71722412109375
  0
LINE
  8
0
  6
CONTINUOUS
 62
     7
 10
425
 20
115
 11
430
 21
115
  0
LINE
  8
0
  6
CONTINUOUS
 62
     7
 10
413
 20
8
 11
413
 21
-8
  0
LINE
  8
0
  6
CONTINUOUS
 62
     7
 10
559
 20
-121.5299987792969
 11
559
 21
-128.5299987792969
  0
LINE
  8
0
  6
CONTINUOUS
 62
     3
 10
627
 20
-25.92519950866699
 11
618
 21
-34.19299697875977
  0
LINE
  8
0
  6
CONTINUOUS
 62
     3
 10
618
 20
-25.92519378662109
 11
627
 21
-34.1929931640625
  0
LINE
  8
0
  6
CONTINUOUS
 62
     7
 10
627
 20
-34.19300079345703
 11
618
 21
-34.19300079345703
  0
LINE
  8
0
  6
CONTINUOUS
 62
     3
 10
618
 20
-34.1930046081543
 11
627
 21
-42.46081924438477
  0
LINE
  8
0
  6
CONTINUOUS
 62
     3
 10
627
 20
-34.19299697875977
 11
618
 21
-42.46080780029297
  0
ARC
  8
0
  6
CONTINUOUS
 62
     7
 10
619.88671875
 20
-440
 40
5.000000000000044
 50
210.0000163164373
 51
269.9999838351438
  0
ARC
  8
0
  6
CONTINUOUS
 62
     7
 10
619.88671875
 20
-560
 40
4.999999999999972
 50
90.00001616485616
 51
149.9999836835633
  0
ARC
  8
0
  6
CONTINUOUS
 62
     7
 10
597
 20
-587.5
 40
4.999999999999972
 50
90.00001616485616
 51
180.0000050089569
  0
ARC
  8
0
  6
CONTINUOUS
 62
     7
 10
606
 20
-415.9474792480469
 40
4.999999999999943
 50
180.0000086514221
 51
210.0000163164373
  0
ARC
  8
0
  6
CONTINUOUS
 62
     7
 10
589
 20
-364
 40
20.50000000000002
 50
299.0160139577593
 51
3.019913073120957
  0
ARC
  8
0
  6
CONTINUOUS
 62
     7
 10
600
 20
-361.9199829101562
 40
23.00000000000002
 50
90.00000250447805
 51
180.0000050089564
  0
ARC
  8
0
  6
CONTINUOUS
 62
     7
 10
606
 20
-367.9199829101563
 40
5.000000000000004
 50
90.00000250447782
 51
180.0000050089563
  0
ARC
  8
0
  6
CONTINUOUS
 62
     7
 10
589
 20
-364
 40
20.49999999999999
 50
98.63801980438811
 51
239.9785872053713
  0
CIRCLE
  8
0
  6
CONTINUOUS
 62
     3
 10
559
 20
-500
 40
4.990937232971191
  0
ARC
  8
0
  6
CONTINUOUS
 62
     7
 10
457
 20
-570.8453979492188
 40
4.999999999999956
 50
112.3871086413541
 51
180.0000050089569
  0
ARC
  8
0
  6
CONTINUOUS
 62
     7
 10
499
 20
-556.9927978515625
 40
5
 50
0
 51
90.00000250447847
  0
ARC
  8
0
  6
CONTINUOUS
 62
     7
 10
499
 20
-443.0072326660156
 40
5.000000000000004
 50
269.9999974955215
 51
0
  0
ARC
  8
0
  6
CONTINUOUS
 62
     7
 10
457
 20
-380
 40
4.999999999999981
 50
179.9999776881996
 51
270.0000280040023
  0
ARC
  8
0
  6
CONTINUOUS
 62
     7
 10
457
 20
-429.1546020507812
 40
5
 50
179.999991348578
 51
247.6128808859912
  0
ARC
  8
0
  6
CONTINUOUS
 62
     7
 10
34.41751098632812
 20
-350.92138671875
 40
12
 50
347.0000002074245
 51
166.9999966786442
  0
CIRCLE
  8
0
  6
CONTINUOUS
 62
     7
 10
103.40478515625
 20
-481.7669372558594
 40
17.5
  0
ARC
  8
0
  6
CONTINUOUS
 62
     7
 10
0
 20
-500
 40
107.5
 50
19.35118096590611
 51
0.6488233475505203
  0
ARC
  8
0
  6
CONTINUOUS
 62
     7
 10
0
 20
-500
 40
27.50000000000001
 50
106.9124114932652
 51
73.08759670341468
  0
ARC
  8
0
  6
CONTINUOUS
 62
     3
 10
0
 20
-500
 40
75
 50
83.87679938526426
 51
96.12319879350289
  0
ARC
  8
0
  6
CONTINUOUS
 62
     3
 10
0
 20
-500
 40
74.99999999999999
 50
203.8768063670341
 51
216.1231989450836
  0
ARC
  8
0
  6
CONTINUOUS
 62
     3
 10
0
 20
-500
 40
74.99999999999999
 50
143.8768010549164
 51
156.1231936329658
  0
ARC
  8
0
  6
CONTINUOUS
 62
     3
 10
0
 20
-500
 40
74.99999999999999
 50
23.87680113070673
 51
36.12320053894538
  0
CIRCLE
  8
0
  6
CONTINUOUS
 62
     7
 10
0
 20
-500
 40
150
  0
ARC
  8
0
  6
CONTINUOUS
 62
     3
 10
0
 20
-500
 40
75.00000000000006
 50
263.8768012064971
 51
276.1232006147357
  0
ARC
  8
0
  6
CONTINUOUS
 62
     3
 10
0
 20
-500
 40
132.5
 50
333.1091217659313
 51
342.2186338544365
  0
CIRCLE
  8
0
  6
CONTINUOUS
 62
     7
 10
122.4140625
 20
-550.70556640625
 40
7.5
  0
CIRCLE
  8
0
  6
CONTINUOUS
 62
     7
 10
122.4140625
 20
-449.2944641113281
 40
7.5
  0
ARC
  8
0
  6
CONTINUOUS
 62
     3
 10
0
 20
-500
 40
132.5
 50
18.10912301817034
 51
27.21863510667556
  0
CIRCLE
  8
0
  6
CONTINUOUS
 62
     7
 10
50.70556640625
 20
-377.5859680175781
 40
7.5
  0
ARC
  8
0
  6
CONTINUOUS
 62
     3
 10
0
 20
-500
 40
132.5
 50
63.10911744022025
 51
72.21863635891464
  0
CIRCLE
  8
0
  6
CONTINUOUS
 62
     7
 10
-50.70556640625
 20
-377.5859680175781
 40
7.5
  0
ARC
  8
0
  6
CONTINUOUS
 62
     3
 10
0
 20
-500
 40
132.5
 50
108.1091152773648
 51
117.2186410262483
  0
CIRCLE
  8
0
  6
CONTINUOUS
 62
     7
 10
-122.4140625
 20
-449.2944641113281
 40
7.5
  0
ARC
  8
0
  6
CONTINUOUS
 62
     3
 10
0
 20
-500
 40
132.5
 50
153.1091131145093
 51
162.2186320332036
  0
CIRCLE
  8
0
  6
CONTINUOUS
 62
     7
 10
-122.4140625
 20
-550.70556640625
 40
7.5
  0
ARC
  8
0
  6
CONTINUOUS
 62
     3
 10
0
 20
-500
 40
132.5
 50
198.1091350846869
 51
207.218640343003
  0
CIRCLE
  8
0
  6
CONTINUOUS
 62
     7
 10
-50.70556640625
 20
-622.4140625
 40
7.5
  0
ARC
  8
0
  6
CONTINUOUS
 62
     3
 10
0
 20
-500
 40
132.5
 50
243.1091260916423
 51
252.2186381801475
  0
CIRCLE
  8
0
  6
CONTINUOUS
 62
     7
 10
50.70556640625
 20
-622.4140625
 40
7.5
  0
ARC
  8
0
  6
CONTINUOUS
 62
     3
 10
0
 20
-500
 40
132.5
 50
288.1091239287867
 51
297.218636017292
  0
CIRCLE
  8
0
  6
CONTINUOUS
 62
     7
 10
0
 20
-500
 40
55
  0
CIRCLE
  8
0
  6
CONTINUOUS
 62
     7
 10
0
 20
-500
 40
87.5
  0
ARC
  8
0
  6
CONTINUOUS
 62
     3
 10
0
 20
-500
 40
75
 50
323.8767994610546
 51
336.1231988692933
  0
ARC
  8
0
  6
CONTINUOUS
 62
     7
 10
0
 20
-500
 40
115
 50
17.4935163607298
 51
2.506470877253908
  0
ARC
  8
0
  6
CONTINUOUS
 62
     7
 10
619.88671875
 20
60
 40
5.000000000000033
 50
210.000016316437
 51
269.9999838351438
  0
ARC
  8
0
  6
CONTINUOUS
 62
     7
 10
619.88671875
 20
-60
 40
5
 50
90.00001616485616
 51
149.999983683563
  0
ARC
  8
0
  6
CONTINUOUS
 62
     7
 10
597
 20
-87.5
 40
5
 50
90.00001616485616
 51
180.0000050089563
  0
ARC
  8
0
  6
CONTINUOUS
 62
     7
 10
597
 20
87.5
 40
4.999999999999943
 50
180.0000496325571
 51
270.0000384766572
  0
ARC
  8
0
  6
CONTINUOUS
 62
     7
 10
656
 20
0
 40
4
 50
90.00001616485682
 51
269.9999733624879
  0
ARC
  8
0
  6
CONTINUOUS
 62
     7
 10
589
 20
0
 40
9.999999999999986
 50
23.57817672245736
 51
156.4218368242355
  0
ARC
  8
0
  6
CONTINUOUS
 62
     7
 10
572.5
 20
0
 40
4
 50
89.99998201391097
 51
270.0000006832446
  0
ARC
  8
0
  6
CONTINUOUS
 62
     7
 10
605.5
 20
0
 40
4
 50
270.0000179860891
 51
89.99998201391097
  0
ARC
  8
0
  6
CONTINUOUS
 62
     7
 10
589
 20
0
 40
10.00000000000001
 50
203.5781631757645
 51
336.4218232775426
  0
ARC
  8
0
  6
CONTINUOUS
 62
     7
 10
600.9979858398438
 20
-17.1929931640625
 40
4.999999999999965
 50
225.6327620434661
 51
269.9999974955222
  0
ARC
  8
0
  6
CONTINUOUS
 62
     7
 10
417
 20
0
 40
8
 50
270.0000179860895
 51
89.99998201391055
  0
ARC
  8
0
  6
CONTINUOUS
 62
     7
 10
457
 20
-70.84539794921875
 40
4.999999999999996
 50
112.3871086413539
 51
180.0000050089563
  0
ARC
  8
0
  6
CONTINUOUS
 62
     7
 10
457
 20
70.84539794921875
 40
5
 50
179.999991348578
 51
247.6128808859913
  0
ARC
  8
0
  6
CONTINUOUS
 62
     7
 10
499
 20
56.9927978515625
 40
4.999999999999997
 50
269.9999974955215
 51
0
  0
ARC
  8
0
  6
CONTINUOUS
 62
     7
 10
499
 20
-56.9927978515625
 40
5
 50
0
 51
90.00000250447847
  0
CIRCLE
  8
0
  6
CONTINUOUS
 62
     7
 10
478
 20
0
 40
13.5
  0
POLYLINE
  8
0
  6
CONTINUOUS
 62
     7
 66
     1
 10
0
 20
0
  0
VERTEX
  8
0
  6
CONTINUOUS
 62
     7
 10
580.5
 20
-388.241340637207
 42
0.2478644677253367
  0
VERTEX
  8
0
  6
CONTINUOUS
 62
     7
 10
581.24808736943
 20
-389.0092285495943
 42
0.04354526513361493
  0
VERTEX
  8
0
  6
CONTINUOUS
 62
     7
 10
582.3024657153311
 20
-389.3939696834722
 42
0.02075779906478649
  0
VERTEX
  8
0
  6
CONTINUOUS
 62
     7
 10
583.3972754596798
 20
-389.6490595004689
 42
0.01353032140019457
  0
VERTEX
  8
0
  6
CONTINUOUS
 62
     7
 10
584.50723007061
 20
-389.8304089402438
 42
0.0102881006356247
  0
VERTEX
  8
0
  6
CONTINUOUS
 62
     7
 10
585.6246142174716
 20
-389.9593440596876
 42
0.008614041801768996
  0
VERTEX
  8
0
  6
CONTINUOUS
 62
     7
 10
586.746366947313
 20
-390.046273037139
 42
0.007731261929504067
  0
VERTEX
  8
0
  6
CONTINUOUS
 62
     7
 10
587.8704709375584
 20
-390.0966645429172
 42
0.007343427992776172
  0
VERTEX
  8
0
  6
CONTINUOUS
 62
     7
 10
588.9956150097113
 20
-390.1132657421197
 42
0.007341175681789152
  0
VERTEX
  8
0
  6
CONTINUOUS
 62
     7
 10
590.1206407389008
 20
-390.0969259361809
 42
0.007724350582001114
  0
VERTEX
  8
0
  6
CONTINUOUS
 62
     7
 10
591.2444568756152
 20
-390.0468274991381
 42
0.008612163074446197
  0
VERTEX
  8
0
  6
CONTINUOUS
 62
     7
 10
592.3671795580465
 20
-389.9601248875217
 42
0.01027610846353799
  0
VERTEX
  8
0
  6
CONTINUOUS
 62
     7
 10
593.4850564058278
 20
-389.8314653841956
 42
0.01351145619518463
  0
VERTEX
  8
0
  6
CONTINUOUS
 62
     7
 10
594.5959744967709
 20
-389.6503610681415
 42
0.02072228547930502
  0
VERTEX
  8
0
  6
CONTINUOUS
 62
     7
 10
595.6922472868703
 20
-389.3954580911244
 42
0.04343645848773047
  0
VERTEX
  8
0
  6
CONTINUOUS
 62
     7
 10
596.7486134439461
 20
-389.0108418249537
 42
0.2478621101721963
  0
VERTEX
  8
0
  6
CONTINUOUS
 62
     7
 10
597.5
 20
-388.241340637207
 42
0
  0
SEQEND
  8
0
  0
POLYLINE
  8
0
  6
CONTINUOUS
 62
     7
 66
     1
 10
0
 20
0
  0
VERTEX
  8
0
  6
CONTINUOUS
 62
     7
 10
577
 20
-373.3305130004883
 42
0.248081001412655
  0
VERTEX
  8
0
  6
CONTINUOUS
 62
     7
 10
578.0447728808399
 20
-374.4321539432505
 42
0.0446125906493521
  0
VERTEX
  8
0
  6
CONTINUOUS
 62
     7
 10
579.5322121757047
 20
-374.9890767212064
 42
0.02126257413969963
  0
VERTEX
  8
0
  6
CONTINUOUS
 62
     7
 10
581.0788176569829
 20
-375.3582576395223
 42
0.01385519661487713
  0
VERTEX
  8
0
  6
CONTINUOUS
 62
     7
 10
582.6478515879066
 20
-375.6207146537998
 42
0.01053218383436984
  0
VERTEX
  8
0
  6
CONTINUOUS
 62
     7
 10
584.2278908877699
 20
-375.8072980321334
 42
0.008816749579916018
  0
VERTEX
  8
0
  6
CONTINUOUS
 62
     7
 10
585.8143829133039
 20
-375.9330738793033
 42
0.007912410063016609
  0
VERTEX
  8
0
  6
CONTINUOUS
 62
     7
 10
587.4043499256231
 20
-376.0059591028261
 42
0.007515242933827476
  0
VERTEX
  8
0
  6
CONTINUOUS
 62
     7
 10
588.9958281720379
 20
-376.029929951617
 42
0.007513542296226533
  0
VERTEX
  8
0
  6
CONTINUOUS
 62
     7
 10
590.5871629041961
 20
-376.0062145525948
 42
0.007906947318600465
  0
VERTEX
  8
0
  6
CONTINUOUS
 62
     7
 10
592.1767232135753
 20
-375.9336239383211
 42
0.008810194488065182
  0
VERTEX
  8
0
  6
CONTINUOUS
 62
     7
 10
593.7633000532842
 20
-375.8081559651844
 42
0.01052397530643654
  0
VERTEX
  8
0
  6
CONTINUOUS
 62
     7
 10
595.3440258854822
 20
-375.6218536707506
 42
0.01384407635781812
  0
VERTEX
  8
0
  6
CONTINUOUS
 62
     7
 10
596.9144000311056
 20
-375.3595973246652
 42
0.02124645949803246
  0
VERTEX
  8
0
  6
CONTINUOUS
 62
     7
 10
598.4630236244653
 20
-374.9904520114864
 42
0.04455016669388417
  0
VERTEX
  8
0
  6
CONTINUOUS
 62
     7
 10
599.9523872245425
 20
-374.4335819254907
 42
0.2479903681183258
  0
VERTEX
  8
0
  6
CONTINUOUS
 62
     7
 10
601
 20
-373.3305130004883
 42
0
  0
SEQEND
  8
0
  0
POLYLINE
  8
0
  6
CONTINUOUS
 62
     7
 66
     1
 10
0
 20
0
  0
VERTEX
  8
0
  6
CONTINUOUS
 62
     7
 10
425.0001883536578
 20
-406.1374161461115
 42
-0.1118160930713691
  0
VERTEX
  8
0
  6
CONTINUOUS
 62
     7
 10
435.1106861639171
 20
-423.5536253258065
 42
-0.08596976837162837
  0
VERTEX
  8
0
  6
CONTINUOUS
 62
     7
 10
436.6158607257753
 20
-443.7021808418075
 42
-0.007747774921083979
  0
VERTEX
  8
0
  6
CONTINUOUS
 62
     7
 10
434.4986570154306
 20
-463.8967907116558
 42
0.02883928013189717
  0
VERTEX
  8
0
  6
CONTINUOUS
 62
     7
 10
433.7204803203119
 20
-484.1776697553445
 42
0.006667304431753413
  0
VERTEX
  8
0
  6
CONTINUOUS
 62
     7
 10
434.408527886928
 20
-504.4734775821445
 42
-0.01896128590871723
  0
VERTEX
  8
0
  6
CONTINUOUS
 62
     7
 10
434.6102550449218
 20
-524.7745894725011
 42
-0.008219202687066133
  0
VERTEX
  8
0
  6
CONTINUOUS
 62
     7
 10
433.3469628723857
 20
-545.0407565622227
 42
0.006667913212932804
  0
VERTEX
  8
0
  6
CONTINUOUS
 62
     7
 10
432.3231909849289
 20
-565.3204940255642
 42
-0.2065625884221158
  0
VERTEX
  8
0
  6
CONTINUOUS
 62
     7
 10
424.9987292372338
 20
-583.6436575115181
 42
0
  0
SEQEND
  8
0
  0
POLYLINE
  8
0
  6
CONTINUOUS
 62
     7
 66
     1
 10
0
 20
0
  0
VERTEX
  8
0
  6
CONTINUOUS
 62
     7
 10
577
 20
-31.71853828430176
 42
0.05059491804571652
  0
VERTEX
  8
0
  6
CONTINUOUS
 62
     7
 10
577.1884986650219
 20
-33.56787502799612
 42
0.04716348060088846
  0
VERTEX
  8
0
  6
CONTINUOUS
 62
     7
 10
577.7339920471406
 20
-35.34602953738992
 42
0.04170062768878352
  0
VERTEX
  8
0
  6
CONTINUOUS
 62
     7
 10
578.585551384153
 20
-36.99966877999795
 42
0.03588152117347593
  0
VERTEX
  8
0
  6
CONTINUOUS
 62
     7
 10
579.6825572159939
 20
-38.50245495429014
 42
0.03066398704864666
  0
VERTEX
  8
0
  6
CONTINUOUS
 62
     7
 10
580.9694646079986
 20
-39.84727452742634
 42
0.02635005710645167
  0
VERTEX
  8
0
  6
CONTINUOUS
 62
     7
 10
582.4008290281437
 20
-41.03741148341581
 42
0.02293336125978981
  0
VERTEX
  8
0
  6
CONTINUOUS
 62
     7
 10
583.9425717768777
 20
-42.0815649798125
 42
0.02026821883556092
  0
VERTEX
  8
0
  6
CONTINUOUS
 62
     7
 10
585.5691225385541
 20
-42.98941728767588
 42
0.01819160847441216
  0
VERTEX
  8
0
  6
CONTINUOUS
 62
     7
 10
587.2602168877279
 20
-43.76969778534058
 42
0.01659477954222963
  0
VERTEX
  8
0
  6
CONTINUOUS
 62
     7
 10
589.0019691703764
 20
-44.43094395153872
 42
0.01536230671640995
  0
VERTEX
  8
0
  6
CONTINUOUS
 62
     7
 10
590.7823600005315
 20
-44.97975174075737
 42
0.01442614238287828
  0
VERTEX
  8
0
  6
CONTINUOUS
 62
     7
 10
592.5923226127653
 20
-45.42172702329901
 42
0.0137315782995182
  0
VERTEX
  8
0
  6
CONTINUOUS
 62
     7
 10
594.4243874284953
 20
-45.76125527333419
 42
0.01323990660456359
  0
VERTEX
  8
0
  6
CONTINUOUS
 62
     7
 10
596.2721711596351
 20
-46.00161511430872
 42
0.01292485919279833
  0
VERTEX
  8
0
  6
CONTINUOUS
 62
     7
 10
598.1300043523246
 20
-46.14508071948389
 42
0.01277046658300743
  0
VERTEX
  8
0
  6
CONTINUOUS
 62
     7
 10
599.9926973588366
 20
-46.19300006387064
 42
0
  0
SEQEND
  8
0
  0
POLYLINE
  8
0
  6
CONTINUOUS
 62
     7
 66
     1
 10
0
 20
0
  0
VERTEX
  8
0
  6
CONTINUOUS
 62
     7
 10
597.5019989453006
 20
-20.76764258091871
 42
0.0367470279545276
  0
VERTEX
  8
0
  6
CONTINUOUS
 62
     7
 10
596.1649333270993
 20
-19.63964425015092
 42
0.03635561614813179
  0
VERTEX
  8
0
  6
CONTINUOUS
 62
     7
 10
594.6776214385789
 20
-18.7182037072358
 42
0.03602153408042322
  0
VERTEX
  8
0
  6
CONTINUOUS
 62
     7
 10
593.072779330156
 20
-18.02071587591294
 42
0.03576746137078911
  0
VERTEX
  8
0
  6
CONTINUOUS
 62
     7
 10
591.3846184140034
 20
-17.55987114237665
 42
0.03560862896496731
  0
VERTEX
  8
0
  6
CONTINUOUS
 62
     7
 10
589.6483123564418
 20
-17.34376143832108
 42
0.03555213439228023
  0
VERTEX
  8
0
  6
CONTINUOUS
 62
     7
 10
587.8995938478058
 20
-17.37594950785639
 42
0.03561922393191671
  0
VERTEX
  8
0
  6
CONTINUOUS
 62
     7
 10
586.1733335211638
 20
-17.65569982062437
 42
0.03581097405840715
  0
VERTEX
  8
0
  6
CONTINUOUS
 62
     7
 10
584.503963179861
 20
-18.17838167847322
 42
0.03608618917564124
  0
VERTEX
  8
0
  6
CONTINUOUS
 62
     7
 10
582.9268209295734
 20
-18.93467806934057
 42
0.03644317208877301
  0
VERTEX
  8
0
  6
CONTINUOUS
 62
     7
 10
581.475474917504
 20
-19.91090085209938
 42
0.03685493945743221
  0
VERTEX
  8
0
  6
CONTINUOUS
 62
     7
 10
580.1820597856583
 20
-21.08869102982046
 42
0.03728605978602158
  0
VERTEX
  8
0
  6
CONTINUOUS
 62
     7
 10
579.076583715167
 20
-22.44477613840527
 42
0.03769688599426756
  0
VERTEX
  8
0
  6
CONTINUOUS
 62
     7
 10
578.1859139161265
 20
-23.95094499824238
 42
0.03804676710968131
  0
VERTEX
  8
0
  6
CONTINUOUS
 62
     7
 10
577.5326187776599
 20
-25.57432142161663
 42
0.03829839008860348
  0
VERTEX
  8
0
  6
CONTINUOUS
 62
     7
 10
577.1337891071572
 20
-27.27801571561324
 42
0.03841513735352319
  0
VERTEX
  8
0
  6
CONTINUOUS
 62
     7
 10
577.0000003223651
 20
-29.02183519809995
 42
0
  0
SEQEND
  8
0
  0
POLYLINE
  8
0
  6
CONTINUOUS
 62
     7
 66
     1
 10
0
 20
0
  0
VERTEX
  8
0
  6
CONTINUOUS
 62
     7
 10
424.9996047970151
 20
89.71698401920719
 42
-0.1416855249114747
  0
VERTEX
  8
0
  6
CONTINUOUS
 62
     7
 10
436.1209201189102
 20
72.68218151681509
 42
-0.09589420179217448
  0
VERTEX
  8
0
  6
CONTINUOUS
 62
     7
 10
435.8883718043126
 20
52.19735530028854
 42
0.03876989681956848
  0
VERTEX
  8
0
  6
CONTINUOUS
 62
     7
 10
434.0793495768826
 20
31.67436914802997
 42
0.0129263623393716
  0
VERTEX
  8
0
  6
CONTINUOUS
 62
     7
 10
434.5803281366653
 20
11.0604167840977
 42
-0.0251376900448609
  0
VERTEX
  8
0
  6
CONTINUOUS
 62
     7
 10
434.5908695879533
 20
-9.552622178305283
 42
0.001255249837147646
  0
VERTEX
  8
0
  6
CONTINUOUS
 62
     7
 10
433.1697570676328
 20
-30.12400406076376
 42
0.03980512985313922
  0
VERTEX
  8
0
  6
CONTINUOUS
 62
     7
 10
433.566077355443
 20
-50.71985961451315
 42
-0.03400599025303463
  0
VERTEX
  8
0
  6
CONTINUOUS
 62
     7
 10
435.3522792468586
 20
-71.24171898250503
 42
-0.3224821186917397
  0
VERTEX
  8
0
  6
CONTINUOUS
 62
     7
 10
425.0005433701107
 20
-87.62178156421797
 42
0
  0
SEQEND
  8
0
  0
TEXT
  8
0
  6
CONTINUOUS
 62
     7
 10
-85.71429061889648
 20
-15
 40
30
 41
0.847397831130959
  1
ＥＲＶ－＿Ｄ
  0
ENDSEC
  0
EOF
