  0
SECTION
  2
HEADER
  0
ENDSEC
  0
SECTION
  2
TABLES
  0
TABLE
  2
LTYPE
 70
    22
  0
LTYPE
  2
CONTINUOUS
 70
    64
  3
Solid line
 72
    65
 73
     0
 40
0.000000
  0
LTYPE
  2
DASHED
 70
    64
  3
__ __ __ __ __ __ __ __ __ __ __ __ __ __ __
 72
    65
 73
     2
 40
3.500000
 49
2.000000
 49
-1.500000
  0
LTYPE
  2
CENTER
 70
    64
  3
____ _ ____ _ ____ _ ____ _ ____ _ ____ _ ____
 72
    65
 73
     4
 40
17.500000
 49
13.000000
 49
-1.500000
 49
1.500000
 49
-1.500000
  0
LTYPE
  2
PHANTOM
 70
    64
  3
_____ _ _ _____ _ _ _____ _ _ _____ _ _ ____  
 72
    65
 73
     6
 40
15.500000
 49
8.000000
 49
-1.500000
 49
1.500000
 49
-1.500000
 49
1.500000
 49
-1.500000
  0
LTYPE
  2
DOT
 70
    64
  3
. . . . . . . . . . . . . . . . . . . . . . . .
 72
    65
 73
     2
 40
0.25
 49
0.0
 49
-0.25
  0
ENDTAB
  0
TABLE
  2
LAYER
 70
     1
  0
LAYER
  2
0
 70
     0
 62
     7
  6
CONTINUOUS
  0
ENDTAB
  0
TABLE
  2
STYLE
 70
     1
  0
STYLE
  2
STANDARD
 70
     0
 40
0.000000
 41
1.000000
 50
0.000000
 71
     0
 42
0.200000
  3
txt
  4
BIGFONT
  0
ENDTAB
  0
TABLE
  2
VIEW
 70
     0
  0
ENDTAB
  0
ENDSEC
  0
SECTION
  2
BLOCKS
  0
ENDSEC
  0
SECTION
  2
ENTITIES
  0
LINE
  8
0
  6
CONTINUOUS
 62
     3
 10
455
 20
-625
 11
1090.38427734375
 21
-625
  0
LINE
  8
0
  6
CONTINUOUS
 62
     7
 10
983
 20
-532.5
 11
983
 21
-717.5
  0
LINE
  8
0
  6
CONTINUOUS
 62
     7
 10
983
 20
-532.5
 11
973
 21
-532.5
  0
LINE
  8
0
  6
CONTINUOUS
 62
     7
 10
983
 20
-717.5
 11
973
 21
-717.5
  0
LINE
  8
0
  6
CONTINUOUS
 62
     7
 10
1030
 20
-585
 11
1000
 21
-585
  0
LINE
  8
0
  6
CONTINUOUS
 62
     7
 10
1030
 20
-665
 11
1000
 21
-665
  0
LINE
  8
0
  6
CONTINUOUS
 62
     7
 10
1030
 20
-585
 11
1030
 21
-665
  0
LINE
  8
0
  6
CONTINUOUS
 62
     7
 10
1000
 20
-665
 11
986.2899169921875
 21
-669.9900512695313
  0
LINE
  8
0
  6
CONTINUOUS
 62
     7
 10
1000
 20
-585
 11
986.2898559570313
 21
-580.0099487304687
  0
LINE
  8
0
  6
CONTINUOUS
 62
     7
 10
1074
 20
-610
 11
1074
 21
-637
  0
LINE
  8
0
  6
CONTINUOUS
 62
     7
 10
1034
 20
-610
 11
1034
 21
-640
  0
LINE
  8
0
  6
CONTINUOUS
 62
     7
 10
1074
 20
-613
 11
1034
 21
-613
  0
LINE
  8
0
  6
CONTINUOUS
 62
     7
 10
1074
 20
-637
 11
1034
 21
-637
  0
LINE
  8
0
  6
CONTINUOUS
 62
     7
 10
1034
 20
-610
 11
1030
 21
-610
  0
LINE
  8
0
  6
CONTINUOUS
 62
     7
 10
1034
 20
-640
 11
1030
 21
-640
  0
LINE
  8
0
  6
CONTINUOUS
 62
     7
 10
1042
 20
-610
 11
1042
 21
-613
  0
LINE
  8
0
  6
CONTINUOUS
 62
     7
 10
1074
 20
-610
 11
1042
 21
-610
  0
LINE
  8
0
  6
CONTINUOUS
 62
     7
 10
973
 20
-534
 11
973
 21
-716
  0
LINE
  8
0
  6
CONTINUOUS
 62
     7
 10
927
 20
-720
 11
969
 21
-720
  0
LINE
  8
0
  6
CONTINUOUS
 62
     7
 10
927
 20
-530
 11
969
 21
-530
  0
LINE
  8
0
  6
CONTINUOUS
 62
     7
 10
927.0000610351562
 20
-530.0001220703125
 11
923.0000610351562
 21
-534.0000610351563
  0
LINE
  8
0
  6
CONTINUOUS
 62
     7
 10
923
 20
-715.9999389648437
 11
927
 21
-719.9999389648437
  0
LINE
  8
0
  6
CONTINUOUS
 62
     7
 10
969
 20
-720.0000610351563
 11
973
 21
-716.0000610351563
  0
LINE
  8
0
  6
CONTINUOUS
 62
     7
 10
972.9999389648438
 20
-534
 11
968.9998779296875
 21
-530
  0
LINE
  8
0
  6
CONTINUOUS
 62
     7
 10
927
 20
-587.3461303710937
 11
969
 21
-587.3461303710937
  0
LINE
  8
0
  6
CONTINUOUS
 62
     7
 10
927
 20
-598.7877197265625
 11
969
 21
-598.7877197265625
  0
LINE
  8
0
  6
CONTINUOUS
 62
     7
 10
927
 20
-608.53125
 11
969
 21
-608.53125
  0
LINE
  8
0
  6
CONTINUOUS
 62
     7
 10
927
 20
-620.00048828125
 11
969
 21
-620.00048828125
  0
LINE
  8
0
  6
CONTINUOUS
 62
     7
 10
927
 20
-630.0001220703125
 11
969
 21
-630.0001220703125
  0
LINE
  8
0
  6
CONTINUOUS
 62
     7
 10
927
 20
-641.469482421875
 11
969
 21
-641.469482421875
  0
LINE
  8
0
  6
CONTINUOUS
 62
     7
 10
927
 20
-651.2124633789062
 11
969
 21
-651.2124633789062
  0
LINE
  8
0
  6
CONTINUOUS
 62
     7
 10
927
 20
-662.6536865234375
 11
969
 21
-662.6536865234375
  0
LINE
  8
0
  6
CONTINUOUS
 62
     7
 10
927
 20
-681.7067260742187
 11
969
 21
-681.7067260742187
  0
LINE
  8
0
  6
CONTINUOUS
 62
     7
 10
927
 20
-690.9718017578125
 11
969
 21
-690.9718017578125
  0
LINE
  8
0
  6
CONTINUOUS
 62
     7
 10
927
 20
-697.793212890625
 11
969
 21
-697.793212890625
  0
LINE
  8
0
  6
CONTINUOUS
 62
     7
 10
927
 20
-704.658447265625
 11
969
 21
-704.658447265625
  0
LINE
  8
0
  6
CONTINUOUS
 62
     7
 10
927
 20
-709.65869140625
 11
969
 21
-709.65869140625
  0
LINE
  8
0
  6
CONTINUOUS
 62
     7
 10
927
 20
-714.26123046875
 11
969
 21
-714.26123046875
  0
LINE
  8
0
  6
CONTINUOUS
 62
     7
 10
923
 20
-532.5
 11
923
 21
-717.5
  0
LINE
  8
0
  6
CONTINUOUS
 62
     7
 10
830
 20
-447.5
 11
865
 21
-447.5
  0
LINE
  8
0
  6
CONTINUOUS
 62
     7
 10
830
 20
-802.5
 11
852
 21
-802.5
  0
LINE
  8
0
  6
CONTINUOUS
 62
     7
 10
830
 20
-447.5
 11
830
 21
-802.5
  0
LINE
  8
0
  6
CONTINUOUS
 62
     7
 10
852
 20
-447.5
 11
852
 21
-802.5
  0
LINE
  8
0
  6
CONTINUOUS
 62
     7
 10
908
 20
-532.5
 11
908
 21
-717.5
  0
LINE
  8
0
  6
CONTINUOUS
 62
     7
 10
908
 20
-532.5
 11
923
 21
-532.5
  0
LINE
  8
0
  6
CONTINUOUS
 62
     7
 10
908
 20
-717.5
 11
923
 21
-717.5
  0
LINE
  8
0
  6
CONTINUOUS
 62
     7
 10
880
 20
-494.1955261230469
 11
880
 21
-755.8045043945312
  0
LINE
  8
0
  6
CONTINUOUS
 62
     7
 10
856.1317138671875
 20
-764.2086181640625
 11
875.8681640625
 21
-760.728515625
  0
LINE
  8
0
  6
CONTINUOUS
 62
     7
 10
856.1317749023438
 20
-485.7914123535156
 11
875.8682250976563
 21
-489.271484375
  0
LINE
  8
0
  6
CONTINUOUS
 62
     7
 10
865
 20
-447.5
 11
865
 21
-483.1596069335937
  0
LINE
  8
0
  6
CONTINUOUS
 62
     7
 10
880
 20
-581.27587890625
 11
908
 21
-581.27587890625
  0
LINE
  8
0
  6
CONTINUOUS
 62
     7
 10
879.9999389648437
 20
-546.5120849609375
 11
907.9999389648438
 21
-558.345458984375
  0
LINE
  8
0
  6
CONTINUOUS
 62
     7
 10
880
 20
-668.72412109375
 11
908
 21
-668.72412109375
  0
LINE
  8
0
  6
CONTINUOUS
 62
     7
 10
880
 20
-703.4879150390625
 11
908
 21
-691.654541015625
  0
LINE
  8
0
  6
CONTINUOUS
 62
     7
 10
755
 20
-805
 11
825
 21
-805
  0
LINE
  8
0
  6
CONTINUOUS
 62
     7
 10
755
 20
-445
 11
825
 21
-445
  0
LINE
  8
0
  6
CONTINUOUS
 62
     7
 10
750.0001220703125
 20
-450.0000610351562
 11
755.0001220703125
 21
-445.0000915527344
  0
LINE
  8
0
  6
CONTINUOUS
 62
     7
 10
825
 20
-445.0000305175781
 11
830
 21
-450.0000610351562
  0
LINE
  8
0
  6
CONTINUOUS
 62
     7
 10
750
 20
-800
 11
755
 21
-805
  0
LINE
  8
0
  6
CONTINUOUS
 62
     7
 10
825
 20
-805
 11
830
 21
-800
  0
LINE
  8
0
  6
CONTINUOUS
 62
     7
 10
764.0001220703125
 20
-435
 11
796.0000610351562
 21
-435
  0
LINE
  8
0
  6
CONTINUOUS
 62
     7
 10
760.3602905273438
 20
-444.9999694824219
 11
764
 21
-435
  0
LINE
  8
0
  6
CONTINUOUS
 62
     7
 10
799.6397094726562
 20
-445
 11
796
 21
-435
  0
LINE
  8
0
  6
CONTINUOUS
 62
     7
 10
755
 20
-452.0777587890625
 11
825
 21
-452.0777587890625
  0
LINE
  8
0
  6
CONTINUOUS
 62
     7
 10
755
 20
-490.5732421875
 11
825
 21
-490.5732421875
  0
LINE
  8
0
  6
CONTINUOUS
 62
     7
 10
755
 20
-505.2942504882812
 11
825
 21
-505.2942504882812
  0
LINE
  8
0
  6
CONTINUOUS
 62
     7
 10
755
 20
-520.9464111328125
 11
825
 21
-520.9464111328125
  0
LINE
  8
0
  6
CONTINUOUS
 62
     7
 10
755
 20
-538.0659790039063
 11
825
 21
-538.0659790039063
  0
LINE
  8
0
  6
CONTINUOUS
 62
     7
 10
755
 20
-575.02099609375
 11
825
 21
-575.02099609375
  0
LINE
  8
0
  6
CONTINUOUS
 62
     7
 10
755
 20
-594.71923828125
 11
825
 21
-594.71923828125
  0
LINE
  8
0
  6
CONTINUOUS
 62
     7
 10
755
 20
-614.5905151367187
 11
825
 21
-614.5905151367187
  0
LINE
  8
0
  6
CONTINUOUS
 62
     7
 10
755
 20
-635.4093627929687
 11
825
 21
-635.4093627929687
  0
LINE
  8
0
  6
CONTINUOUS
 62
     7
 10
755
 20
-655.28076171875
 11
825
 21
-655.28076171875
  0
LINE
  8
0
  6
CONTINUOUS
 62
     7
 10
755
 20
-674.9788208007813
 11
825
 21
-674.9788208007813
  0
LINE
  8
0
  6
CONTINUOUS
 62
     7
 10
755
 20
-711.9341430664062
 11
825
 21
-711.9341430664062
  0
LINE
  8
0
  6
CONTINUOUS
 62
     7
 10
755
 20
-729.0533447265625
 11
825
 21
-729.0533447265625
  0
LINE
  8
0
  6
CONTINUOUS
 62
     7
 10
755
 20
-744.7055053710937
 11
825
 21
-744.7055053710937
  0
LINE
  8
0
  6
CONTINUOUS
 62
     7
 10
755
 20
-759.4265747070313
 11
825
 21
-759.4265747070313
  0
LINE
  8
0
  6
CONTINUOUS
 62
     7
 10
755
 20
-771.8770141601562
 11
825
 21
-771.8770141601562
  0
LINE
  8
0
  6
CONTINUOUS
 62
     7
 10
755
 20
-782.6148681640625
 11
825
 21
-782.6148681640625
  0
LINE
  8
0
  6
CONTINUOUS
 62
     7
 10
755
 20
-797.92236328125
 11
825
 21
-797.92236328125
  0
LINE
  8
0
  6
CONTINUOUS
 62
     7
 10
767.5
 20
-432.0000305175781
 11
768.7955322265625
 21
-424.6527404785156
  0
LINE
  8
0
  6
CONTINUOUS
 62
     7
 10
791.2044677734375
 20
-424.6527404785156
 11
792.5
 21
-432.0000305175781
  0
LINE
  8
0
  6
CONTINUOUS
 62
     7
 10
770.76513671875
 20
-423
 11
789.23486328125
 21
-423
  0
LINE
  8
0
  6
CONTINUOUS
 62
     7
 10
770.3418579101562
 20
-423.0452880859375
 11
779.5767211914063
 21
-421.0452880859375
  0
LINE
  8
0
  6
CONTINUOUS
 62
     7
 10
780.4232788085937
 20
-421.0452880859375
 11
789.658203125
 21
-423.0452880859375
  0
LINE
  8
0
  6
CONTINUOUS
 62
     7
 10
767.5
 20
-432
 11
767.5
 21
-435
  0
LINE
  8
0
  6
CONTINUOUS
 62
     7
 10
792.5
 20
-432.0000305175781
 11
792.5
 21
-435
  0
LINE
  8
0
  6
CONTINUOUS
 62
     7
 10
615
 20
-400
 11
640
 21
-400
  0
LINE
  8
0
  6
CONTINUOUS
 62
     7
 10
615
 20
-850
 11
640
 21
-850
  0
LINE
  8
0
  6
CONTINUOUS
 62
     7
 10
750
 20
-447.5
 11
750
 21
-802.5
  0
LINE
  8
0
  6
CONTINUOUS
 62
     7
 10
615
 20
-400
 11
615
 21
-485.2767944335938
  0
LINE
  8
0
  6
CONTINUOUS
 62
     7
 10
640
 20
-400
 11
640
 21
-850
  0
LINE
  8
0
  6
CONTINUOUS
 62
     7
 10
725
 20
-447.5
 11
725
 21
-802.5
  0
LINE
  8
0
  6
CONTINUOUS
 62
     7
 10
650
 20
-447.5
 11
750
 21
-447.5
  0
LINE
  8
0
  6
CONTINUOUS
 62
     7
 10
725
 20
-802.5
 11
750
 21
-802.5
  0
LINE
  8
0
  6
CONTINUOUS
 62
     7
 10
680.7060546875
 20
-544.9932861328125
 11
725
 21
-544.9932861328125
  0
LINE
  8
0
  6
CONTINUOUS
 62
     7
 10
680.7060546875
 20
-705.0067138671875
 11
725
 21
-705.0067138671875
  0
LINE
  8
0
  6
CONTINUOUS
 62
     7
 10
640
 20
-518.1932983398437
 11
674.8916015625
 21
-543.129150390625
  0
LINE
  8
0
  6
CONTINUOUS
 62
     7
 10
640
 20
-731.8067626953125
 11
674.8916015625
 21
-706.870849609375
  0
LINE
  8
0
  6
CONTINUOUS
 62
     7
 10
643.1577758789062
 20
-768.3433837890625
 11
718.1577758789062
 21
-738.6190185546875
  0
LINE
  8
0
  6
CONTINUOUS
 62
     7
 10
643.1577758789062
 20
-789.5565795898437
 11
718.1577758789062
 21
-759.8322143554688
  0
LINE
  8
0
  6
CONTINUOUS
 62
     7
 10
643.1578369140625
 20
-481.6566467285156
 11
718.1578369140625
 21
-511.3809814453125
  0
LINE
  8
0
  6
CONTINUOUS
 62
     7
 10
643.1577758789062
 20
-460.4434204101562
 11
718.1577758789062
 21
-490.1677856445313
  0
LINE
  8
0
  6
CONTINUOUS
 62
     7
 10
607
 20
-450
 11
607
 21
-480.5072021484375
  0
LINE
  8
0
  6
CONTINUOUS
 62
     7
 10
607
 20
-450
 11
615
 21
-450
  0
LINE
  8
0
  6
CONTINUOUS
 62
     7
 10
607
 20
-800
 11
615
 21
-800
  0
LINE
  8
0
  6
CONTINUOUS
 62
     7
 10
475
 20
-577.5
 11
615
 21
-577.5
  0
LINE
  8
0
  6
CONTINUOUS
 62
     7
 10
475
 20
-672.5
 11
615
 21
-672.5
  0
LINE
  8
0
  6
CONTINUOUS
 62
     7
 10
475
 20
-572.5
 11
475
 21
-672.5
  0
LINE
  8
0
  6
CONTINUOUS
 62
     7
 10
607
 20
-748.54296875
 11
607
 21
-800
  0
LINE
  8
0
  6
CONTINUOUS
 62
     7
 10
615
 20
-741.47412109375
 11
615
 21
-850
  0
LINE
  8
0
  6
CONTINUOUS
 62
     7
 10
475
 20
-572.5
 11
585
 21
-572.5
  0
LINE
  8
0
  6
CONTINUOUS
 62
     7
 10
615
 20
-570
 11
615
 21
-680
  0
LINE
  8
0
  6
CONTINUOUS
 62
     7
 10
615
 20
-570
 11
619.797607421875
 21
-570
  0
LINE
  8
0
  6
CONTINUOUS
 62
     7
 10
615
 20
-680
 11
620.4757080078125
 21
-680
  0
LINE
  8
0
  6
CONTINUOUS
 62
     7
 10
693.5
 20
-410.2000122070313
 11
720.5
 21
-410.2000122070313
  0
LINE
  8
0
  6
CONTINUOUS
 62
     7
 10
698.3499755859375
 20
-410.2000122070313
 11
698.3499755859375
 21
-447.5
  0
LINE
  8
0
  6
CONTINUOUS
 62
     7
 10
715.6500244140625
 20
-410.2000122070313
 11
715.6500244140625
 21
-447.5
  0
LINE
  8
0
  6
CONTINUOUS
 62
     3
 10
707
 20
-355.53759765625
 11
707
 21
-462.5
  0
LINE
  8
0
  6
CONTINUOUS
 62
     7
 10
693.5
 20
-378.2000122070312
 11
720.5
 21
-378.2000122070312
  0
LINE
  8
0
  6
CONTINUOUS
 62
     7
 10
715.071044921875
 20
-363.550048828125
 11
698.928955078125
 21
-363.550048828125
  0
LINE
  8
0
  6
CONTINUOUS
 62
     7
 10
715.507568359375
 20
-372.550048828125
 11
698.492431640625
 21
-372.550048828125
  0
LINE
  8
0
  6
CONTINUOUS
 62
     7
 10
715.507568359375
 20
-372.550048828125
 11
715.3309936523437
 21
-378.1999816894531
  0
LINE
  8
0
  6
CONTINUOUS
 62
     7
 10
698.492431640625
 20
-372.550048828125
 11
698.6690063476563
 21
-378.2000122070312
  0
LINE
  8
0
  6
CONTINUOUS
 62
     7
 10
715.071044921875
 20
-363.550048828125
 11
715.071044921875
 21
-372.550048828125
  0
LINE
  8
0
  6
CONTINUOUS
 62
     7
 10
698.928955078125
 20
-363.550048828125
 11
698.928955078125
 21
-372.550048828125
  0
LINE
  8
0
  6
CONTINUOUS
 62
     7
 10
720.5
 20
-378.2000122070312
 11
720.5
 21
-410.2000122070313
  0
LINE
  8
0
  6
CONTINUOUS
 62
     7
 10
693.5
 20
-378.2000122070312
 11
693.5
 21
-410.2000122070313
  0
LINE
  8
0
  6
CONTINUOUS
 62
     3
 10
698.928955078125
 20
-372.550048828125
 11
707
 21
-363.5500183105469
  0
LINE
  8
0
  6
CONTINUOUS
 62
     7
 10
707
 20
-363.550048828125
 11
707
 21
-372.550048828125
  0
LINE
  8
0
  6
CONTINUOUS
 62
     3
 10
707
 20
-372.5500793457031
 11
715.071044921875
 21
-363.550048828125
  0
LINE
  8
0
  6
CONTINUOUS
 62
     3
 10
715.0711059570313
 20
-372.550048828125
 11
707
 21
-363.550048828125
  0
LINE
  8
0
  6
CONTINUOUS
 62
     3
 10
698.9290161132813
 20
-363.5500183105469
 11
707.0000610351563
 21
-372.5500183105469
  0
LINE
  8
0
  6
CONTINUOUS
 62
     7
 10
585
 20
-572.5
 11
585
 21
-577.5
  0
LINE
  8
0
  6
CONTINUOUS
 62
     7
 10
807.9999389648437
 20
-616.5145874023438
 11
799.5146484375
 21
-624.9998779296875
  0
LINE
  8
0
  6
CONTINUOUS
 62
     7
 10
816.4854125976562
 20
-624.9999389648437
 11
808.0001220703125
 21
-616.5146484375
  0
LINE
  8
0
  6
CONTINUOUS
 62
     3
 10
808
 20
-614.492431640625
 11
808
 21
-635.507568359375
  0
LINE
  8
0
  6
CONTINUOUS
 62
     7
 10
808.0000610351562
 20
-633.4853515625
 11
799.5147705078125
 21
-625.0001220703125
  0
LINE
  8
0
  6
CONTINUOUS
 62
     7
 10
816.4851684570313
 20
-625
 11
807.9998779296875
 21
-633.4852905273437
  0
LINE
  8
0
  6
CONTINUOUS
 62
     3
 10
847
 20
-376.6383361816406
 11
847
 21
-452
  0
LINE
  8
0
  6
CONTINUOUS
 62
     3
 10
829.6383056640625
 20
-394
 11
902.469970703125
 21
-394
  0
LINE
  8
0
  6
CONTINUOUS
 62
     7
 10
879
 20
-378
 11
879
 21
-410
  0
LINE
  8
0
  6
CONTINUOUS
 62
     7
 10
831
 20
-426
 11
863
 21
-426
  0
LINE
  8
0
  6
CONTINUOUS
 62
     7
 10
868
 20
-410
 11
879
 21
-410
  0
LINE
  8
0
  6
CONTINUOUS
 62
     7
 10
863
 20
-378
 11
879
 21
-378
  0
LINE
  8
0
  6
CONTINUOUS
 62
     7
 10
831
 20
-410
 11
831
 21
-426
  0
LINE
  8
0
  6
CONTINUOUS
 62
     7
 10
863
 20
-415
 11
863
 21
-426
  0
LINE
  8
0
  6
CONTINUOUS
 62
     7
 10
897.469970703125
 20
-405.1923828125
 11
897.469970703125
 21
-382.8076171875
  0
LINE
  8
0
  6
CONTINUOUS
 62
     7
 10
886.469970703125
 20
-407.4534301757813
 11
886.469970703125
 21
-380.5465698242188
  0
LINE
  8
0
  6
CONTINUOUS
 62
     7
 10
886.469970703125
 20
-407.4534301757813
 11
879
 21
-407.2200012207031
  0
LINE
  8
0
  6
CONTINUOUS
 62
     7
 10
886.469970703125
 20
-380.5465393066406
 11
879
 21
-380.7799987792969
  0
LINE
  8
0
  6
CONTINUOUS
 62
     7
 10
897.469970703125
 20
-405.1923828125
 11
886.469970703125
 21
-405.1923828125
  0
LINE
  8
0
  6
CONTINUOUS
 62
     7
 10
897.469970703125
 20
-382.8076171875
 11
886.469970703125
 21
-382.8076171875
  0
LINE
  8
0
  6
CONTINUOUS
 62
     3
 10
886.4700317382813
 20
-405.1924438476562
 11
897.4700317382812
 21
-394.0000305175781
  0
LINE
  8
0
  6
CONTINUOUS
 62
     3
 10
897.4700317382812
 20
-405.1923828125
 11
886.4700317382813
 21
-393.9999694824219
  0
LINE
  8
0
  6
CONTINUOUS
 62
     3
 10
886.469970703125
 20
-394.0000305175781
 11
897.469970703125
 21
-382.8076171875
  0
LINE
  8
0
  6
CONTINUOUS
 62
     3
 10
897.469970703125
 20
-394
 11
886.469970703125
 21
-382.8075866699219
  0
LINE
  8
0
  6
CONTINUOUS
 62
     7
 10
833.5
 20
-426
 11
833.5
 21
-447
  0
LINE
  8
0
  6
CONTINUOUS
 62
     7
 10
860.5
 20
-426
 11
860.5
 21
-447
  0
LINE
  8
0
  6
CONTINUOUS
 62
     3
 10
0
 20
-355.53759765625
 11
0
 21
-870
  0
LINE
  8
0
  6
CONTINUOUS
 62
     3
 10
-245
 20
-625
 11
245
 21
-625
  0
LINE
  8
0
  6
CONTINUOUS
 62
     7
 10
-12.5
 20
-572.5
 11
-12.5
 21
-586.5
  0
LINE
  8
0
  6
CONTINUOUS
 62
     7
 10
12.5
 20
-572.5
 11
12.5
 21
-586.5
  0
LINE
  8
0
  6
CONTINUOUS
 62
     3
 10
172.4159393310547
 20
-696.4176025390625
 11
195.4671478271484
 21
-705.9656982421875
  0
LINE
  8
0
  6
CONTINUOUS
 62
     3
 10
172.4161376953125
 20
-553.5828857421875
 11
195.4673309326172
 21
-544.0347290039062
  0
LINE
  8
0
  6
CONTINUOUS
 62
     3
 10
71.41724395751953
 20
-452.5839233398438
 11
80.96536254882813
 21
-429.53271484375
  0
LINE
  8
0
  6
CONTINUOUS
 62
     3
 10
-71.41686248779297
 20
-452.5837707519531
 11
-80.96498107910156
 21
-429.5325622558594
  0
LINE
  8
0
  6
CONTINUOUS
 62
     3
 10
-172.4159698486328
 20
-553.5826416015625
 11
-195.4671783447266
 21
-544.0345458984375
  0
LINE
  8
0
  6
CONTINUOUS
 62
     3
 10
-172.4161834716797
 20
-696.4168701171875
 11
-195.4673919677734
 21
-705.9649658203125
  0
LINE
  8
0
  6
CONTINUOUS
 62
     3
 10
-71.41748046875
 20
-797.4158935546875
 11
-80.96560668945312
 21
-820.4671020507812
  0
LINE
  8
0
  6
CONTINUOUS
 62
     3
 10
71.4166259765625
 20
-797.4163208007812
 11
80.96473693847656
 21
-820.467529296875
  0
LINE
  8
0
  6
CONTINUOUS
 62
     7
 10
-12.5
 20
-586.5
 11
12.5
 21
-586.5
  0
LINE
  8
0
  6
CONTINUOUS
 62
     7
 10
-12.5
 20
-572.5
 11
12.5
 21
-572.5
  0
LINE
  8
0
  6
CONTINUOUS
 62
     3
 10
63.84315872192383
 20
-514.4204711914062
 11
52.58005905151367
 21
-533.9287109375
  0
LINE
  8
0
  6
CONTINUOUS
 62
     3
 10
-63.84307861328125
 20
-514.4204711914062
 11
-52.57998657226562
 21
-533.9287109375
  0
LINE
  8
0
  6
CONTINUOUS
 62
     3
 10
-63.84309387207031
 20
-735.5795288085938
 11
-52.58000183105469
 21
-716.0712890625
  0
LINE
  8
0
  6
CONTINUOUS
 62
     3
 10
63.84317398071289
 20
-735.5795288085938
 11
52.58005142211914
 21
-716.0712280273437
  0
LINE
  8
0
  6
CONTINUOUS
 62
     7
 10
-13.5
 20
-378.2000122070312
 11
13.5
 21
-378.2000122070312
  0
LINE
  8
0
  6
CONTINUOUS
 62
     7
 10
8.071044921875
 20
-363.550048828125
 11
-8.071044921875
 21
-363.550048828125
  0
LINE
  8
0
  6
CONTINUOUS
 62
     7
 10
8.507568359375
 20
-372.550048828125
 11
-8.507568359375
 21
-372.550048828125
  0
LINE
  8
0
  6
CONTINUOUS
 62
     7
 10
8.507541656494141
 20
-372.5499877929687
 11
8.33098030090332
 21
-378.1999816894531
  0
LINE
  8
0
  6
CONTINUOUS
 62
     7
 10
-8.507637977600098
 20
-372.550048828125
 11
-8.331076622009277
 21
-378.2000122070312
  0
LINE
  8
0
  6
CONTINUOUS
 62
     7
 10
8.071044921875
 20
-363.550048828125
 11
8.071044921875
 21
-372.550048828125
  0
LINE
  8
0
  6
CONTINUOUS
 62
     7
 10
-8.071044921875
 20
-363.550048828125
 11
-8.071044921875
 21
-372.550048828125
  0
LINE
  8
0
  6
CONTINUOUS
 62
     7
 10
13.5
 20
-378.2000122070312
 11
13.5
 21
-400.4053649902344
  0
LINE
  8
0
  6
CONTINUOUS
 62
     7
 10
-13.5
 20
-378.2000122070312
 11
-13.5
 21
-400.4053649902344
  0
LINE
  8
0
  6
CONTINUOUS
 62
     3
 10
-8.071027755737305
 20
-363.5500793457031
 11
6.960085011087358E-05
 21
-372.5501403808594
  0
LINE
  8
0
  6
CONTINUOUS
 62
     3
 10
-8.071048736572266
 20
-372.5500183105469
 11
-1.223221806867514E-05
 21
-363.5500183105469
  0
LINE
  8
0
  6
CONTINUOUS
 62
     3
 10
1.189822069136426E-05
 20
-372.550048828125
 11
8.071047782897949
 21
-363.550048828125
  0
LINE
  8
0
  6
CONTINUOUS
 62
     3
 10
8.071073532104492
 20
-372.5501708984375
 11
-2.419263182673603E-05
 21
-363.5501098632813
  0
LINE
  8
0
  6
CONTINUOUS
 62
     7
 10
0
 20
-363.550048828125
 11
0
 21
-372.550048828125
  0
LINE
  8
0
  6
CONTINUOUS
 62
     3
 10
455
 20
0
 11
1090.38427734375
 21
0
  0
LINE
  8
0
  6
CONTINUOUS
 62
     7
 10
983.0000610351563
 20
-92.49998474121094
 11
983.0000610351563
 21
92.50003051757812
  0
LINE
  8
0
  6
CONTINUOUS
 62
     7
 10
983
 20
-92.49998474121094
 11
973
 21
-92.49998474121094
  0
LINE
  8
0
  6
CONTINUOUS
 62
     7
 10
983
 20
92.50003051757812
 11
973
 21
92.50003051757812
  0
LINE
  8
0
  6
CONTINUOUS
 62
     7
 10
1030
 20
-39.99998474121094
 11
1000
 21
-39.99998474121094
  0
LINE
  8
0
  6
CONTINUOUS
 62
     7
 10
1030
 20
40.00001525878906
 11
1000
 21
40.00001525878906
  0
LINE
  8
0
  6
CONTINUOUS
 62
     7
 10
1030
 20
-39.99998474121094
 11
1030
 21
40.00001525878906
  0
LINE
  8
0
  6
CONTINUOUS
 62
     7
 10
1000
 20
39.99997711181641
 11
986.2898559570313
 21
44.99006271362305
  0
LINE
  8
0
  6
CONTINUOUS
 62
     7
 10
1000
 20
-39.9999885559082
 11
986.2899169921875
 21
-44.99004745483398
  0
LINE
  8
0
  6
CONTINUOUS
 62
     7
 10
1074
 20
-11.9999828338623
 11
1074
 21
12.0000171661377
  0
LINE
  8
0
  6
CONTINUOUS
 62
     7
 10
1034
 20
-14.99998474121094
 11
1034
 21
15.00001525878906
  0
LINE
  8
0
  6
CONTINUOUS
 62
     7
 10
1074
 20
-11.99998474121094
 11
1034
 21
-11.99998474121094
  0
LINE
  8
0
  6
CONTINUOUS
 62
     7
 10
1074
 20
12.00001525878906
 11
1034
 21
12.00001525878906
  0
LINE
  8
0
  6
CONTINUOUS
 62
     7
 10
1034
 20
-14.99998474121094
 11
1030
 21
-14.99998474121094
  0
LINE
  8
0
  6
CONTINUOUS
 62
     7
 10
1034
 20
15.00001525878906
 11
1030
 21
15.00001525878906
  0
LINE
  8
0
  6
CONTINUOUS
 62
     7
 10
1074
 20
4.000015258789063
 11
1040
 21
4.000015258789063
  0
LINE
  8
0
  6
CONTINUOUS
 62
     7
 10
1074
 20
-3.999984979629517
 11
1040
 21
-3.999984979629517
  0
LINE
  8
0
  6
CONTINUOUS
 62
     7
 10
1042
 20
-3.9999840259552
 11
1042
 21
4.000015735626221
  0
LINE
  8
0
  6
CONTINUOUS
 62
     7
 10
973
 20
91.00001525878906
 11
973
 21
-90.99998474121094
  0
LINE
  8
0
  6
CONTINUOUS
 62
     7
 10
927
 20
-87.21929931640625
 11
969.0001220703125
 21
-87.21929931640625
  0
LINE
  8
0
  6
CONTINUOUS
 62
     7
 10
927
 20
-95
 11
969
 21
-95
  0
LINE
  8
0
  6
CONTINUOUS
 62
     7
 10
927
 20
95
 11
969
 21
95
  0
LINE
  8
0
  6
CONTINUOUS
 62
     7
 10
927.0001831054688
 20
94.99980163574219
 11
923.0001831054687
 21
90.99980163574219
  0
LINE
  8
0
  6
CONTINUOUS
 62
     7
 10
923
 20
-90.99997711181641
 11
927
 21
-94.99997711181641
  0
LINE
  8
0
  6
CONTINUOUS
 62
     7
 10
969.0000610351562
 20
-95.00000762939453
 11
973.0000610351562
 21
-91
  0
LINE
  8
0
  6
CONTINUOUS
 62
     7
 10
972.9998779296875
 20
91.00002288818359
 11
968.9998779296875
 21
95.00002288818359
  0
LINE
  8
0
  6
CONTINUOUS
 62
     7
 10
926.9999389648438
 20
87.218994140625
 11
969.0000610351562
 21
87.218994140625
  0
LINE
  8
0
  6
CONTINUOUS
 62
     7
 10
926.9999389648438
 20
76.21875
 11
969.0000610351562
 21
76.21875
  0
LINE
  8
0
  6
CONTINUOUS
 62
     7
 10
926.9999389648438
 20
68.35662841796875
 11
969.0000610351562
 21
68.35662841796875
  0
LINE
  8
0
  6
CONTINUOUS
 62
     7
 10
926.9999389648438
 20
61.04364013671875
 11
969.0000610351562
 21
61.04364013671875
  0
LINE
  8
0
  6
CONTINUOUS
 62
     7
 10
926.9999389648438
 20
51.7645263671875
 11
969.0000610351562
 21
51.7645263671875
  0
LINE
  8
0
  6
CONTINUOUS
 62
     7
 10
926.9999389648438
 20
43.10443115234375
 11
969.0000610351562
 21
43.10443115234375
  0
LINE
  8
0
  6
CONTINUOUS
 62
     7
 10
926.9999389648438
 20
32.5186767578125
 11
969.0000610351562
 21
32.5186767578125
  0
LINE
  8
0
  6
CONTINUOUS
 62
     7
 10
926.9999389648438
 20
22.95574951171875
 11
969.0000610351562
 21
22.95574951171875
  0
LINE
  8
0
  6
CONTINUOUS
 62
     7
 10
926.9999389648438
 20
11.00006103515625
 11
969.0000610351562
 21
11.00006103515625
  0
LINE
  8
0
  6
CONTINUOUS
 62
     7
 10
923
 20
92.50001525878906
 11
923
 21
-92.49998474121094
  0
LINE
  8
0
  6
CONTINUOUS
 62
     7
 10
830
 20
177.5
 11
852
 21
177.5
  0
LINE
  8
0
  6
CONTINUOUS
 62
     7
 10
830
 20
-177.5
 11
852
 21
-177.5
  0
LINE
  8
0
  6
CONTINUOUS
 62
     7
 10
830
 20
177.5000152587891
 11
830
 21
-177.4999847412109
  0
LINE
  8
0
  6
CONTINUOUS
 62
     7
 10
852
 20
177.5000152587891
 11
852
 21
24.71845626831055
  0
LINE
  8
0
  6
CONTINUOUS
 62
     7
 10
908
 20
92.50001525878906
 11
908
 21
-92.49998474121094
  0
LINE
  8
0
  6
CONTINUOUS
 62
     7
 10
908
 20
92.5
 11
923
 21
92.5
  0
LINE
  8
0
  6
CONTINUOUS
 62
     7
 10
908
 20
-92.5
 11
923
 21
-92.5
  0
LINE
  8
0
  6
CONTINUOUS
 62
     7
 10
880
 20
130.8045196533203
 11
880
 21
13.25124931335449
  0
LINE
  8
0
  6
CONTINUOUS
 62
     7
 10
856.1317138671875
 20
-139.2086334228516
 11
875.8682250976563
 21
-135.7285614013672
  0
LINE
  8
0
  6
CONTINUOUS
 62
     7
 10
856.1317749023438
 20
139.2085113525391
 11
875.8681640625
 21
135.7284393310547
  0
LINE
  8
0
  6
CONTINUOUS
 62
     7
 10
852
 20
-24.71843338012695
 11
852
 21
-177.4999847412109
  0
LINE
  8
0
  6
CONTINUOUS
 62
     7
 10
880
 20
-40.2625732421875
 11
908
 21
-40.2625732421875
  0
LINE
  8
0
  6
CONTINUOUS
 62
     7
 10
908
 20
-62.53787231445312
 11
880
 21
-73.57266998291016
  0
LINE
  8
0
  6
CONTINUOUS
 62
     7
 10
907.9999389648438
 20
62.53788757324219
 11
879.9999389648437
 21
73.57266998291016
  0
LINE
  8
0
  6
CONTINUOUS
 62
     7
 10
880
 20
40.2625732421875
 11
908
 21
40.2625732421875
  0
LINE
  8
0
  6
CONTINUOUS
 62
     7
 10
755
 20
-180
 11
825
 21
-180
  0
LINE
  8
0
  6
CONTINUOUS
 62
     7
 10
755
 20
180
 11
825
 21
180
  0
LINE
  8
0
  6
CONTINUOUS
 62
     7
 10
750.0000610351563
 20
174.9999694824219
 11
755.0000610351563
 21
179.9999542236328
  0
LINE
  8
0
  6
CONTINUOUS
 62
     7
 10
824.9999389648438
 20
180.0000152587891
 11
829.9999389648437
 21
175.0000305175781
  0
LINE
  8
0
  6
CONTINUOUS
 62
     7
 10
749.9999389648437
 20
-174.9999389648438
 11
754.9999389648437
 21
-179.9999694824219
  0
LINE
  8
0
  6
CONTINUOUS
 62
     7
 10
824.9999389648438
 20
-179.9999542236328
 11
829.9999389648437
 21
-174.9999389648438
  0
LINE
  8
0
  6
CONTINUOUS
 62
     7
 10
755
 20
172.9221801757813
 11
825
 21
172.9221801757813
  0
LINE
  8
0
  6
CONTINUOUS
 62
     7
 10
755
 20
157.6149291992188
 11
825
 21
157.6149291992188
  0
LINE
  8
0
  6
CONTINUOUS
 62
     7
 10
755
 20
146.8772583007812
 11
825
 21
146.8772583007812
  0
LINE
  8
0
  6
CONTINUOUS
 62
     7
 10
755
 20
134.4267578125
 11
825
 21
134.4267578125
  0
LINE
  8
0
  6
CONTINUOUS
 62
     7
 10
755
 20
119.7057495117187
 11
825
 21
119.7057495117187
  0
LINE
  8
0
  6
CONTINUOUS
 62
     7
 10
755
 20
49.97906494140625
 11
825
 21
49.97906494140625
  0
LINE
  8
0
  6
CONTINUOUS
 62
     7
 10
755
 20
29.99993896484375
 11
825
 21
29.99993896484375
  0
LINE
  8
0
  6
CONTINUOUS
 62
     7
 10
755
 20
-29.99993896484375
 11
825
 21
-29.99993896484375
  0
LINE
  8
0
  6
CONTINUOUS
 62
     7
 10
755
 20
-49.97900390625
 11
825
 21
-49.97900390625
  0
LINE
  8
0
  6
CONTINUOUS
 62
     7
 10
755
 20
-119.7056274414063
 11
825
 21
-119.7056274414063
  0
LINE
  8
0
  6
CONTINUOUS
 62
     7
 10
755
 20
-134.4266357421875
 11
825
 21
-134.4266357421875
  0
LINE
  8
0
  6
CONTINUOUS
 62
     7
 10
755
 20
-146.8770446777344
 11
825
 21
-146.8770446777344
  0
LINE
  8
0
  6
CONTINUOUS
 62
     7
 10
755
 20
-157.6150207519531
 11
825
 21
-157.6150207519531
  0
LINE
  8
0
  6
CONTINUOUS
 62
     7
 10
755
 20
-172.9222412109375
 11
825
 21
-172.9222412109375
  0
LINE
  8
0
  6
CONTINUOUS
 62
     7
 10
760
 20
5
 11
800
 21
5
  0
LINE
  8
0
  6
CONTINUOUS
 62
     7
 10
760
 20
-5
 11
800
 21
-5
  0
LINE
  8
0
  6
CONTINUOUS
 62
     7
 10
615
 20
225
 11
640
 21
225
  0
LINE
  8
0
  6
CONTINUOUS
 62
     7
 10
615
 20
-225
 11
640
 21
-225
  0
LINE
  8
0
  6
CONTINUOUS
 62
     7
 10
750
 20
177.5000152587891
 11
750
 21
-177.4999847412109
  0
LINE
  8
0
  6
CONTINUOUS
 62
     7
 10
615
 20
225
 11
615
 21
97.62189483642578
  0
LINE
  8
0
  6
CONTINUOUS
 62
     7
 10
640
 20
225
 11
640
 21
-225
  0
LINE
  8
0
  6
CONTINUOUS
 62
     7
 10
725
 20
177.5
 11
725
 21
30.00000762939453
  0
LINE
  8
0
  6
CONTINUOUS
 62
     7
 10
725
 20
177.5
 11
750
 21
177.5
  0
LINE
  8
0
  6
CONTINUOUS
 62
     7
 10
725
 20
-177.5
 11
750
 21
-177.5
  0
LINE
  8
0
  6
CONTINUOUS
 62
     7
 10
640
 20
30
 11
725
 21
30
  0
LINE
  8
0
  6
CONTINUOUS
 62
     7
 10
640
 20
-30
 11
725
 21
-30
  0
LINE
  8
0
  6
CONTINUOUS
 62
     7
 10
680.7060546875
 20
-80.00677490234375
 11
725
 21
-80.00677490234375
  0
LINE
  8
0
  6
CONTINUOUS
 62
     7
 10
680.7060546875
 20
80.0068359375
 11
725
 21
80.0068359375
  0
LINE
  8
0
  6
CONTINUOUS
 62
     7
 10
640
 20
106.8068771362305
 11
674.8916625976563
 21
81.87100219726563
  0
LINE
  8
0
  6
CONTINUOUS
 62
     7
 10
640
 20
-106.8068161010742
 11
674.8916015625
 21
-81.87091827392578
  0
LINE
  8
0
  6
CONTINUOUS
 62
     7
 10
643.1578369140625
 20
164.5565795898437
 11
718.1578369140625
 21
134.8322296142578
  0
LINE
  8
0
  6
CONTINUOUS
 62
     7
 10
643.1577758789062
 20
143.3433837890625
 11
718.1577758789062
 21
113.619026184082
  0
LINE
  8
0
  6
CONTINUOUS
 62
     7
 10
643.1578369140625
 20
-143.3433532714844
 11
718.1578369140625
 21
-113.6189956665039
  0
LINE
  8
0
  6
CONTINUOUS
 62
     7
 10
643.1578369140625
 20
-164.5566101074219
 11
718.1578369140625
 21
-134.8322601318359
  0
LINE
  8
0
  6
CONTINUOUS
 62
     7
 10
607
 20
175
 11
607
 21
110.2680053710938
  0
LINE
  8
0
  6
CONTINUOUS
 62
     7
 10
607
 20
175
 11
615
 21
175
  0
LINE
  8
0
  6
CONTINUOUS
 62
     7
 10
607
 20
-175
 11
615
 21
-175
  0
LINE
  8
0
  6
CONTINUOUS
 62
     7
 10
475
 20
47.5
 11
615
 21
47.5
  0
LINE
  8
0
  6
CONTINUOUS
 62
     7
 10
475
 20
-47.5
 11
615
 21
-47.5
  0
LINE
  8
0
  6
CONTINUOUS
 62
     7
 10
475
 20
12.5
 11
592.5
 21
12.5
  0
LINE
  8
0
  6
CONTINUOUS
 62
     7
 10
475
 20
-12.5
 11
592.5
 21
-12.5
  0
LINE
  8
0
  6
CONTINUOUS
 62
     7
 10
475
 20
47.5
 11
475
 21
-47.5
  0
LINE
  8
0
  6
CONTINUOUS
 62
     7
 10
615
 20
55.00000381469727
 11
615
 21
-54.99999618530273
  0
LINE
  8
0
  6
CONTINUOUS
 62
     7
 10
615
 20
55
 11
623.6505126953125
 21
55
  0
LINE
  8
0
  6
CONTINUOUS
 62
     7
 10
615
 20
-55
 11
622.2322387695312
 21
-55
  0
LINE
  8
0
  6
CONTINUOUS
 62
     7
 10
607
 20
-126.021484375
 11
607
 21
-175
  0
LINE
  8
0
  6
CONTINUOUS
 62
     7
 10
615
 20
-105.9050216674805
 11
615
 21
-225
  0
LINE
  8
0
  6
CONTINUOUS
 62
     7
 10
707.0001220703125
 20
8.485221862792969
 11
698.5148315429687
 21
-8.043386333156377E-05
  0
LINE
  8
0
  6
CONTINUOUS
 62
     7
 10
715.4853515625
 20
-4.042892760480754E-05
 11
707.0001220703125
 21
8.485154151916504
  0
LINE
  8
0
  6
CONTINUOUS
 62
     7
 10
707
 20
-8.485254287719727
 11
698.5147705078125
 21
-5.885467908228748E-05
  0
LINE
  8
0
  6
CONTINUOUS
 62
     7
 10
715.4853515625
 20
-4.790680577571038E-06
 11
707.0000610351563
 21
-8.485306739807129
  0
LINE
  8
0
  6
CONTINUOUS
 62
     3
 10
707
 20
15.72766780853271
 11
707
 21
-15.83092594146729
  0
LINE
  8
0
  6
CONTINUOUS
 62
     7
 10
725
 20
-29.99999237060547
 11
725
 21
-177.5
  0
LINE
  8
0
  6
CONTINUOUS
 62
     7
 10
585
 20
12.50000286102295
 11
585
 21
-12.49999713897705
  0
LINE
  8
0
  6
CONTINUOUS
 62
     3
 10
808
 20
-169.9925994873047
 11
808
 21
-201.6517181396484
  0
LINE
  8
0
  6
CONTINUOUS
 62
     7
 10
799.928955078125
 20
-194.6499938964844
 11
816.071044921875
 21
-194.6499938964844
  0
LINE
  8
0
  6
CONTINUOUS
 62
     7
 10
799.492431640625
 20
-185.6499938964844
 11
816.507568359375
 21
-185.6499938964844
  0
LINE
  8
0
  6
CONTINUOUS
 62
     7
 10
799.492431640625
 20
-185.6500091552734
 11
799.6690063476563
 21
-180.0000152587891
  0
LINE
  8
0
  6
CONTINUOUS
 62
     7
 10
816.507568359375
 20
-185.6499786376953
 11
816.3309936523438
 21
-179.9999694824219
  0
LINE
  8
0
  6
CONTINUOUS
 62
     7
 10
799.928955078125
 20
-194.6499786376953
 11
799.928955078125
 21
-185.6499786376953
  0
LINE
  8
0
  6
CONTINUOUS
 62
     7
 10
816.071044921875
 20
-194.6499786376953
 11
816.071044921875
 21
-185.6499786376953
  0
LINE
  8
0
  6
CONTINUOUS
 62
     7
 10
808
 20
-194.6499786376953
 11
808
 21
-185.6499786376953
  0
LINE
  8
0
  6
CONTINUOUS
 62
     3
 10
799.9288940429688
 20
-185.6500244140625
 11
807.9999389648437
 21
-194.6499786376953
  0
LINE
  8
0
  6
CONTINUOUS
 62
     3
 10
799.9288330078125
 20
-194.64990234375
 11
807.9998779296875
 21
-185.64990234375
  0
LINE
  8
0
  6
CONTINUOUS
 62
     3
 10
807.9999389648437
 20
-185.6500244140625
 11
816.0709838867187
 21
-194.6500244140625
  0
LINE
  8
0
  6
CONTINUOUS
 62
     3
 10
807.9998779296875
 20
-194.6499328613281
 11
816.0709838867187
 21
-185.6499328613281
  0
LINE
  8
0
  6
CONTINUOUS
 62
     3
 10
847
 20
21.00000953674316
 11
847
 21
-20.99999046325684
  0
LINE
  8
0
  6
CONTINUOUS
 62
     7
 10
847
 20
-16
 11
879
 21
-16
  0
LINE
  8
0
  6
CONTINUOUS
 62
     7
 10
847
 20
16
 11
879
 21
16
  0
LINE
  8
0
  6
CONTINUOUS
 62
     7
 10
897.469970703125
 20
-11.1923713684082
 11
897.469970703125
 21
11.1923942565918
  0
LINE
  8
0
  6
CONTINUOUS
 62
     7
 10
886.469970703125
 20
-13.45341873168945
 11
886.469970703125
 21
13.45344161987305
  0
LINE
  8
0
  6
CONTINUOUS
 62
     7
 10
886.4700317382813
 20
-13.45345497131348
 11
879.0000610351563
 21
-13.2200174331665
  0
LINE
  8
0
  6
CONTINUOUS
 62
     7
 10
886.4700317382813
 20
13.45342540740967
 11
879
 21
13.21998882293701
  0
LINE
  8
0
  6
CONTINUOUS
 62
     7
 10
897.4700317382812
 20
-11.1923828125
 11
886.4700317382813
 21
-11.1923828125
  0
LINE
  8
0
  6
CONTINUOUS
 62
     7
 10
897.469970703125
 20
11.1923828125
 11
886.469970703125
 21
11.1923828125
  0
LINE
  8
0
  6
CONTINUOUS
 62
     7
 10
897.469970703125
 20
0
 11
886.469970703125
 21
0
  0
LINE
  8
0
  6
CONTINUOUS
 62
     3
 10
886.469970703125
 20
-11.19237804412842
 11
897.4700317382812
 21
4.161216202192008E-05
  0
LINE
  8
0
  6
CONTINUOUS
 62
     3
 10
897.469970703125
 20
-11.19233512878418
 11
886.469970703125
 21
6.604535155929625E-05
  0
LINE
  8
0
  6
CONTINUOUS
 62
     3
 10
886.469970703125
 20
-2.037192643911112E-05
 11
897.469970703125
 21
11.19239902496338
  0
LINE
  8
0
  6
CONTINUOUS
 62
     3
 10
897.469970703125
 20
1.041478071783786E-06
 11
886.469970703125
 21
11.19238090515137
  0
LINE
  8
0
  6
CONTINUOUS
 62
     7
 10
879
 20
16.0000114440918
 11
879
 21
-15.9999885559082
  0
LINE
  8
0
  6
CONTINUOUS
 62
     7
 10
880
 20
-13.25125408172607
 11
880
 21
-130.8044891357422
  0
LINE
  8
0
  6
CONTINUOUS
 62
     7
 10
780
 20
-374.9794921875
 11
780
 21
-450.8342895507812
  0
LINE
  8
0
  6
CONTINUOUS
 62
     7
 10
746.803466796875
 20
-406
 11
812.690185546875
 21
-406
  0
ARC
  8
0
  6
CONTINUOUS
 62
     7
 10
988
 20
-674.6885375976563
 40
4.999999999999972
 50
109.9999370358672
 51
179.9999640278219
  0
ARC
  8
0
  6
CONTINUOUS
 62
     7
 10
988
 20
-575.3114624023437
 40
4.999999999999963
 50
180.0000359721781
 51
250.0000766245115
  0
ARC
  8
0
  6
CONTINUOUS
 62
     7
 10
875
 20
-755.8045043945312
 40
5.000000000000016
 50
279.9998315725273
 51
0
  0
ARC
  8
0
  6
CONTINUOUS
 62
     7
 10
875
 20
-494.1955261230469
 40
5
 50
0
 51
79.99984057839285
  0
ARC
  8
0
  6
CONTINUOUS
 62
     7
 10
857
 20
-769.1326904296875
 40
5.000000000000065
 50
100.000191751321
 51
179.9999640278219
  0
ARC
  8
0
  6
CONTINUOUS
 62
     7
 10
857
 20
-480.8673706054688
 40
5.000000000000038
 50
179.9999776881996
 51
260.0001666062392
  0
ARC
  8
0
  6
CONTINUOUS
 62
     7
 10
870
 20
-483.1596069335937
 40
5.000000000000038
 50
179.9999776881996
 51
259.9998114364029
  0
ARC
  8
0
  6
CONTINUOUS
 62
     7
 10
780
 20
-406
 40
25
 50
306.4238458862582
 51
233.5761318019415
  0
CIRCLE
  8
0
  6
CONTINUOUS
 62
     7
 10
780
 20
-406
 40
15
  0
ARC
  8
0
  6
CONTINUOUS
 62
     7
 10
770.76513671875
 20
-425
 40
1.999999999999985
 50
89.99998201391097
 51
170.0000206677889
  0
ARC
  8
0
  6
CONTINUOUS
 62
     7
 10
789.23486328125
 20
-425
 40
1.999999999999964
 50
9.999994586450628
 51
89.99998201391097
  0
ARC
  8
0
  6
CONTINUOUS
 62
     7
 10
761.5936279296875
 20
-430.9440612792969
 40
6.000000000000009
 50
349.8636347103541
 51
53.57615411374161
  0
ARC
  8
0
  6
CONTINUOUS
 62
     7
 10
798.4063720703125
 20
-430.9440612792969
 40
6.000000000000024
 50
126.4238645555929
 51
189.9999620293671
  0
ARC
  8
0
  6
CONTINUOUS
 62
     7
 10
650
 20
-437.5
 40
9.999999999999963
 50
179.9999776881996
 51
270.0000280040023
  0
ARC
  8
0
  6
CONTINUOUS
 62
     7
 10
680.7060546875
 20
-534.9932861328125
 40
9.99999999999998
 50
234.4477495447707
 51
270.0000179860891
  0
ARC
  8
0
  6
CONTINUOUS
 62
     7
 10
680.7060546875
 20
-715.0067138671875
 40
10.00000000000004
 50
89.99998201391097
 51
125.5520592099326
  0
ARC
  8
0
  6
CONTINUOUS
 62
     7
 10
720
 20
-743.2672729492187
 40
5
 50
0
 51
111.6196412654544
  0
ARC
  8
0
  6
CONTINUOUS
 62
     7
 10
720
 20
-764.48046875
 40
5
 50
0
 51
111.6196412654544
  0
ARC
  8
0
  6
CONTINUOUS
 62
     7
 10
645
 20
-794.204833984375
 40
4.999999999999943
 50
111.6196412654544
 51
180.0000050089569
  0
ARC
  8
0
  6
CONTINUOUS
 62
     7
 10
645
 20
-772.9916381835938
 40
4.999999999999943
 50
111.6196412654544
 51
180.0000050089569
  0
ARC
  8
0
  6
CONTINUOUS
 62
     7
 10
645
 20
-455.795166015625
 40
4.999999999999943
 50
179.999991348578
 51
248.3803482618904
  0
ARC
  8
0
  6
CONTINUOUS
 62
     7
 10
645
 20
-477.0083618164062
 40
4.999999999999943
 50
179.999991348578
 51
248.3803482618904
  0
ARC
  8
0
  6
CONTINUOUS
 62
     7
 10
720
 20
-485.51953125
 40
4.999999999999996
 50
248.3803587345459
 51
0
  0
ARC
  8
0
  6
CONTINUOUS
 62
     7
 10
720
 20
-506.7327270507813
 40
4.999999999999996
 50
248.3803587345459
 51
0
  0
CIRCLE
  8
0
  6
CONTINUOUS
 62
     3
 10
808
 20
-625
 40
8.507550239562988
  0
ARC
  8
0
  6
CONTINUOUS
 62
     7
 10
863
 20
-410
 40
31.99999999999999
 50
89.99998201391055
 51
179.9999640278213
  0
ARC
  8
0
  6
CONTINUOUS
 62
     7
 10
868
 20
-415
 40
5.000000000000019
 50
89.99998201391031
 51
179.9999640278213
  0
CIRCLE
  8
0
  6
CONTINUOUS
 62
     7
 10
0
 20
-625
 40
225
  0
ARC
  8
0
  6
CONTINUOUS
 62
     7
 10
0
 20
-625
 40
47.49999999999995
 50
105.2575454498303
 51
74.74246957703872
  0
ARC
  8
0
  6
CONTINUOUS
 62
     3
 10
0
 20
-625
 40
200
 50
333.5707059500407
 51
341.4592534225145
  0
CIRCLE
  8
0
  6
CONTINUOUS
 62
     7
 10
184.7759399414062
 20
-701.536865234375
 40
9.5
  0
CIRCLE
  8
0
  6
CONTINUOUS
 62
     7
 10
184.7759399414062
 20
-548.46337890625
 40
9.5
  0
ARC
  8
0
  6
CONTINUOUS
 62
     3
 10
0
 20
-625
 40
200
 50
18.57071915511085
 51
26.45925979739542
  0
CIRCLE
  8
0
  6
CONTINUOUS
 62
     7
 10
76.5367431640625
 20
-440.2240905761719
 40
9.5
  0
ARC
  8
0
  6
CONTINUOUS
 62
     3
 10
0
 20
-625
 40
200
 50
63.57071528470806
 51
71.45925592699263
  0
CIRCLE
  8
0
  6
CONTINUOUS
 62
     7
 10
-76.53662109375
 20
-440.2240600585938
 40
9.5
  0
ARC
  8
0
  6
CONTINUOUS
 62
     3
 10
0
 20
-625
 40
200
 50
108.5707131218526
 51
116.4592605943263
  0
CIRCLE
  8
0
  6
CONTINUOUS
 62
     7
 10
-184.77587890625
 20
-548.4632568359375
 40
9.5
  0
ARC
  8
0
  6
CONTINUOUS
 62
     3
 10
0
 20
-625
 40
200
 50
153.5707109589971
 51
161.4592516012816
  0
CIRCLE
  8
0
  6
CONTINUOUS
 62
     7
 10
-184.7760009765625
 20
-701.53662109375
 40
9.5
  0
ARC
  8
0
  6
CONTINUOUS
 62
     3
 10
0
 20
-625
 40
200
 50
198.5707192687964
 51
206.4592599110809
  0
CIRCLE
  8
0
  6
CONTINUOUS
 62
     7
 10
-76.536865234375
 20
-809.77587890625
 40
9.5
  0
ARC
  8
0
  6
CONTINUOUS
 62
     3
 10
0
 20
-625
 40
200
 50
243.5707102757517
 51
251.4592577482255
  0
CIRCLE
  8
0
  6
CONTINUOUS
 62
     7
 10
76.53656005859375
 20
-809.7760620117188
 40
9.5
  0
ARC
  8
0
  6
CONTINUOUS
 62
     3
 10
0
 20
-625
 40
200
 50
288.5707081128962
 51
296.4592555853699
  0
CIRCLE
  8
0
  6
CONTINUOUS
 62
     7
 10
0
 20
-625
 40
90
  0
CIRCLE
  8
0
  6
CONTINUOUS
 62
     7
 10
0
 20
-625
 40
132.5
  0
ARC
  8
0
  6
CONTINUOUS
 62
     3
 10
0
 20
-625
 40
117.5
 50
55.11785758300787
 51
64.88213892610717
  0
ARC
  8
0
  6
CONTINUOUS
 62
     3
 10
0
 20
-625
 40
117.5
 50
115.1178524224708
 51
124.8821405957593
  0
ARC
  8
0
  6
CONTINUOUS
 62
     3
 10
0
 20
-625
 40
117.5
 50
175.1178540921229
 51
184.8821422654114
  0
ARC
  8
0
  6
CONTINUOUS
 62
     3
 10
0
 20
-625
 40
117.5
 50
235.1178594042407
 51
244.8821475775292
  0
ARC
  8
0
  6
CONTINUOUS
 62
     3
 10
0
 20
-625
 40
117.5
 50
295.1178610738928
 51
304.8821424169921
  0
ARC
  8
0
  6
CONTINUOUS
 62
     3
 10
0
 20
-625
 40
117.5
 50
355.1178576209031
 51
4.882142379096913
  0
ARC
  8
0
  6
CONTINUOUS
 62
     7
 10
0
 20
-625
 40
175
 50
14.86316782267558
 51
185.1368263591828
  0
CIRCLE
  8
0
  6
CONTINUOUS
 62
     3
 10
0
 20
-625
 40
8
  0
CIRCLE
  8
0
  6
CONTINUOUS
 62
     7
 10
0
 20
-625
 40
7
  0
ARC
  8
0
  6
CONTINUOUS
 62
     7
 10
0
 20
-625
 40
165
 50
16.59408973006584
 51
183.4059061593399
  0
CIRCLE
  8
0
  6
CONTINUOUS
 62
     7
 10
-160.03125
 20
-653.2178344726562
 40
19
  0
CIRCLE
  8
0
  6
CONTINUOUS
 62
     7
 10
160.03125
 20
-596.7821655273438
 40
19
  0
ARC
  8
0
  6
CONTINUOUS
 62
     7
 10
0
 20
-625
 40
175
 50
194.8631696439084
 51
5.136832022397078
  0
ARC
  8
0
  6
CONTINUOUS
 62
     7
 10
0
 20
-625
 40
165
 50
196.5940898437514
 51
3.405909688119992
  0
ARC
  8
0
  6
CONTINUOUS
 62
     7
 10
1040
 20
5.781022537121316E-06
 40
4
 50
90.00002299504598
 51
270.0000006832462
  0
ARC
  8
0
  6
CONTINUOUS
 62
     7
 10
988
 20
49.68854904174805
 40
4.999999999999943
 50
180.000008651422
 51
250.0000288131876
  0
ARC
  8
0
  6
CONTINUOUS
 62
     7
 10
988
 20
-49.68849563598633
 40
4.999999999999991
 50
109.9999233754883
 51
179.9999503674429
  0
ARC
  8
0
  6
CONTINUOUS
 62
     7
 10
780
 20
8.581966540077701E-06
 40
12.50000000000001
 50
203.5781631757645
 51
336.4218215699954
  0
ARC
  8
0
  6
CONTINUOUS
 62
     7
 10
875
 20
-130.8044891357422
 40
4.999999999999988
 50
279.9998315725274
 51
0
  0
ARC
  8
0
  6
CONTINUOUS
 62
     7
 10
875
 20
130.8045196533203
 40
5
 50
0
 51
79.99984057839285
  0
ARC
  8
0
  6
CONTINUOUS
 62
     7
 10
857
 20
-144.1326446533203
 40
5.000000000000009
 50
100.0001917513211
 51
179.9999640278213
  0
ARC
  8
0
  6
CONTINUOUS
 62
     7
 10
857
 20
144.1326446533203
 40
5.000000000000038
 50
179.9999776881996
 51
260.0001666062394
  0
ARC
  8
0
  6
CONTINUOUS
 62
     7
 10
835
 20
1.012953453027876E-05
 40
29.99999999999999
 50
304.5180762587575
 51
327.7690578916672
  0
ARC
  8
0
  6
CONTINUOUS
 62
     7
 10
780
 20
8.581966540077701E-06
 40
20.04728698730464
 50
14.44262624528875
 51
165.557392424046
  0
ARC
  8
0
  6
CONTINUOUS
 62
     7
 10
780
 20
8.581966540077701E-06
 40
20.04728698730467
 50
194.4426348967107
 51
345.557401075468
  0
ARC
  8
0
  6
CONTINUOUS
 62
     7
 10
780
 20
8.581966540077701E-06
 40
12.5
 50
23.57817843000461
 51
156.4218368242355
  0
ARC
  8
0
  6
CONTINUOUS
 62
     7
 10
760
 20
8.019214874366298E-06
 40
5
 50
89.99998201391031
 51
270.0000006832456
  0
ARC
  8
0
  6
CONTINUOUS
 62
     7
 10
800
 20
9.144718205789104E-06
 40
5
 50
270.0000179860897
 51
89.99998201391031
  0
ARC
  8
0
  6
CONTINUOUS
 62
     7
 10
680.7060546875
 20
90.00684356689453
 40
9.99999999999998
 50
234.4478861485543
 51
270.0000179860891
  0
ARC
  8
0
  6
CONTINUOUS
 62
     7
 10
680.7060546875
 20
-90.00676727294922
 40
9.999999999999995
 50
89.99998201391097
 51
125.5522504552292
  0
ARC
  8
0
  6
CONTINUOUS
 62
     7
 10
720
 20
139.48046875
 40
4.999999999999996
 50
248.3803587345459
 51
0
  0
ARC
  8
0
  6
CONTINUOUS
 62
     7
 10
720
 20
118.2672805786133
 40
4.999999999999982
 50
248.3803587345459
 51
0
  0
ARC
  8
0
  6
CONTINUOUS
 62
     7
 10
645
 20
169.204833984375
 40
4.999999999999943
 50
179.999991348578
 51
248.3803482618903
  0
ARC
  8
0
  6
CONTINUOUS
 62
     7
 10
645
 20
147.9916381835937
 40
4.999999999999943
 50
179.999991348578
 51
248.3803482618903
  0
ARC
  8
0
  6
CONTINUOUS
 62
     7
 10
720
 20
-139.48046875
 40
5
 50
0
 51
111.6196412654541
  0
ARC
  8
0
  6
CONTINUOUS
 62
     7
 10
720
 20
-118.2672653198242
 40
5
 50
0
 51
111.6196412654542
  0
ARC
  8
0
  6
CONTINUOUS
 62
     7
 10
645
 20
-147.9916381835937
 40
4.999999999999996
 50
111.6196412654541
 51
180.0000050089563
  0
ARC
  8
0
  6
CONTINUOUS
 62
     7
 10
645
 20
-169.204833984375
 40
4.999999999999996
 50
111.6196412654541
 51
180.0000050089563
  0
ARC
  8
0
  6
CONTINUOUS
 62
     7
 10
592.5
 20
3.306167400296545E-06
 40
12.5
 50
270.0000179860895
 51
89.99998201391058
  0
CIRCLE
  8
0
  6
CONTINUOUS
 62
     7
 10
707
 20
6.527922323584789E-06
 40
13.5
  0
ARC
  8
0
  6
CONTINUOUS
 62
     7
 10
847
 20
1.046718534780666E-05
 40
16
 50
89.99998201391055
 51
270.0000006832454
  0
ARC
  8
0
  6
CONTINUOUS
 62
     7
 10
835
 20
1.012953453027876E-05
 40
29.99999999999996
 50
32.23094210833278
 51
55.48192374124251
  0
POLYLINE
  8
0
  6
CONTINUOUS
 62
     7
 66
     1
 10
0
 20
0
  0
VERTEX
  8
0
  6
CONTINUOUS
 62
     7
 10
606.9994700688353
 20
-480.5069501295669
 42
-0.2644330309540116
  0
VERTEX
  8
0
  6
CONTINUOUS
 62
     7
 10
623.1872743834618
 20
-498.8381225081248
 42
-0.06854676145332242
  0
VERTEX
  8
0
  6
CONTINUOUS
 62
     7
 10
622.2545952388743
 20
-524.2896092524978
 42
0.01629674886606506
  0
VERTEX
  8
0
  6
CONTINUOUS
 62
     7
 10
620.3135980027918
 20
-549.7761165157133
 42
0.01055548226566109
  0
VERTEX
  8
0
  6
CONTINUOUS
 62
     7
 10
619.7662491923285
 20
-575.3335437838059
 42
0.001925957091879136
  0
VERTEX
  8
0
  6
CONTINUOUS
 62
     7
 10
619.8694776215704
 20
-600.8972339592474
 42
-0.00710829730132062
  0
VERTEX
  8
0
  6
CONTINUOUS
 62
     7
 10
619.6979839953169
 20
-626.4599789236041
 42
0.004663506566641366
  0
VERTEX
  8
0
  6
CONTINUOUS
 62
     7
 10
619.2104778567885
 20
-652.0193793345734
 42
0.02512105392756182
  0
VERTEX
  8
0
  6
CONTINUOUS
 62
     7
 10
620.2366851042306
 20
-677.5526949024206
 42
-0.001802003515110765
  0
VERTEX
  8
0
  6
CONTINUOUS
 62
     7
 10
622.9367765537999
 20
-702.9734405753063
 42
-0.08354711289171349
  0
VERTEX
  8
0
  6
CONTINUOUS
 62
     7
 10
621.7529708773936
 20
-728.386892569333
 42
-0.19094060381432
  0
VERTEX
  8
0
  6
CONTINUOUS
 62
     7
 10
606.9993381455233
 20
-748.543059482353
 42
0
  0
SEQEND
  8
0
  0
POLYLINE
  8
0
  6
CONTINUOUS
 62
     7
 66
     1
 10
0
 20
0
  0
VERTEX
  8
0
  6
CONTINUOUS
 62
     7
 10
607.0011634110998
 20
110.2676002188339
 42
-0.09976643888255435
  0
VERTEX
  8
0
  6
CONTINUOUS
 62
     7
 10
619.2703966691381
 20
86.50646926811667
 42
-0.06191152874986533
  0
VERTEX
  8
0
  6
CONTINUOUS
 62
     7
 10
623.5088263046484
 20
59.99301160958441
 42
-0.02907612477647019
  0
VERTEX
  8
0
  6
CONTINUOUS
 62
     7
 10
622.8376707853604
 20
33.09813611372343
 42
0.005408465811211518
  0
VERTEX
  8
0
  6
CONTINUOUS
 62
     7
 10
620.9008546384584
 20
6.249872728838334
 42
0.02393001140891451
  0
VERTEX
  8
0
  6
CONTINUOUS
 62
     7
 10
620.9334025032446
 20
-20.65877628752483
 42
-0.003105124881442085
  0
VERTEX
  8
0
  6
CONTINUOUS
 62
     7
 10
622.1044659802284
 20
-47.55183517820919
 42
-0.03121805979910542
  0
VERTEX
  8
0
  6
CONTINUOUS
 62
     7
 10
621.4334139956313
 20
-74.44465593020998
 42
-0.04386639932517004
  0
VERTEX
  8
0
  6
CONTINUOUS
 62
     7
 10
616.4992575522804
 20
-100.8723695406179
 42
-0.04471143738235623
  0
VERTEX
  8
0
  6
CONTINUOUS
 62
     7
 10
607.0000700345156
 20
-126.0213243936727
 42
0
  0
SEQEND
  8
0
  0
TEXT
  8
0
  6
CONTINUOUS
 62
     7
 10
-135.0000243186951
 20
-17.5
 40
35
 41
0.8455557449606034
  1
ＥＲＶ－＿ＮＣＦ
  0
ENDSEC
  0
EOF
