  0
SECTION
  2
HEADER
  0
ENDSEC
  0
SECTION
  2
TABLES
  0
TABLE
  2
LTYPE
 70
    22
  0
LTYPE
  2
CONTINUOUS
 70
    64
  3
Solid line
 72
    65
 73
     0
 40
0.000000
  0
LTYPE
  2
DASHED
 70
    64
  3
__ __ __ __ __ __ __ __ __ __ __ __ __ __ __
 72
    65
 73
     2
 40
3.500000
 49
2.000000
 49
-1.500000
  0
LTYPE
  2
CENTER
 70
    64
  3
____ _ ____ _ ____ _ ____ _ ____ _ ____ _ ____
 72
    65
 73
     4
 40
17.500000
 49
13.000000
 49
-1.500000
 49
1.500000
 49
-1.500000
  0
LTYPE
  2
PHANTOM
 70
    64
  3
_____ _ _ _____ _ _ _____ _ _ _____ _ _ ____  
 72
    65
 73
     6
 40
15.500000
 49
8.000000
 49
-1.500000
 49
1.500000
 49
-1.500000
 49
1.500000
 49
-1.500000
  0
LTYPE
  2
DOT
 70
    64
  3
. . . . . . . . . . . . . . . . . . . . . . . .
 72
    65
 73
     2
 40
0.25
 49
0.0
 49
-0.25
  0
ENDTAB
  0
TABLE
  2
LAYER
 70
     1
  0
LAYER
  2
0
 70
     0
 62
     7
  6
CONTINUOUS
  0
ENDTAB
  0
TABLE
  2
STYLE
 70
     1
  0
STYLE
  2
STANDARD
 70
     0
 40
0.000000
 41
1.000000
 50
0.000000
 71
     0
 42
0.200000
  3
txt
  4
BIGFONT
  0
ENDTAB
  0
TABLE
  2
VIEW
 70
     0
  0
ENDTAB
  0
ENDSEC
  0
SECTION
  2
BLOCKS
  0
ENDSEC
  0
SECTION
  2
ENTITIES
  0
LINE
  8
0
  6
CONTINUOUS
 62
     3
 10
380
 20
-520
 11
958.3843383789062
 21
-520
  0
LINE
  8
0
  6
CONTINUOUS
 62
     7
 10
851
 20
-427.5
 11
851
 21
-612.5
  0
LINE
  8
0
  6
CONTINUOUS
 62
     7
 10
851
 20
-427.5
 11
841
 21
-427.5
  0
LINE
  8
0
  6
CONTINUOUS
 62
     7
 10
851
 20
-612.5
 11
841
 21
-612.5
  0
LINE
  8
0
  6
CONTINUOUS
 62
     7
 10
898
 20
-480
 11
868
 21
-480
  0
LINE
  8
0
  6
CONTINUOUS
 62
     7
 10
898
 20
-560
 11
868
 21
-560
  0
LINE
  8
0
  6
CONTINUOUS
 62
     7
 10
898
 20
-480
 11
898
 21
-560
  0
LINE
  8
0
  6
CONTINUOUS
 62
     7
 10
868
 20
-560
 11
854.2899169921875
 21
-564.9900512695312
  0
LINE
  8
0
  6
CONTINUOUS
 62
     7
 10
868
 20
-480
 11
854.2898559570312
 21
-475.0099487304688
  0
LINE
  8
0
  6
CONTINUOUS
 62
     7
 10
942
 20
-505
 11
942
 21
-532
  0
LINE
  8
0
  6
CONTINUOUS
 62
     7
 10
902
 20
-505
 11
902
 21
-535
  0
LINE
  8
0
  6
CONTINUOUS
 62
     7
 10
942
 20
-508
 11
902
 21
-508
  0
LINE
  8
0
  6
CONTINUOUS
 62
     7
 10
942
 20
-532
 11
902
 21
-532
  0
LINE
  8
0
  6
CONTINUOUS
 62
     7
 10
902
 20
-505
 11
898
 21
-505
  0
LINE
  8
0
  6
CONTINUOUS
 62
     7
 10
902
 20
-535
 11
898
 21
-535
  0
LINE
  8
0
  6
CONTINUOUS
 62
     7
 10
910
 20
-505
 11
910
 21
-508
  0
LINE
  8
0
  6
CONTINUOUS
 62
     7
 10
942
 20
-505
 11
910
 21
-505
  0
LINE
  8
0
  6
CONTINUOUS
 62
     7
 10
703
 20
-372
 11
703
 21
-668
  0
LINE
  8
0
  6
CONTINUOUS
 62
     7
 10
791
 20
-427.5
 11
791
 21
-612.5
  0
LINE
  8
0
  6
CONTINUOUS
 62
     7
 10
703
 20
-668
 11
723
 21
-668
  0
LINE
  8
0
  6
CONTINUOUS
 62
     7
 10
703
 20
-372
 11
738
 21
-372
  0
LINE
  8
0
  6
CONTINUOUS
 62
     7
 10
723
 20
-372
 11
723
 21
-668
  0
LINE
  8
0
  6
CONTINUOUS
 62
     7
 10
746
 20
-417.0816650390625
 11
746
 21
-622.9183349609375
  0
LINE
  8
0
  6
CONTINUOUS
 62
     7
 10
776
 20
-427.5
 11
776
 21
-612.5
  0
LINE
  8
0
  6
CONTINUOUS
 62
     7
 10
727.5641479492187
 20
-629.1128540039062
 11
741.4357299804687
 21
-627.8992919921875
  0
LINE
  8
0
  6
CONTINUOUS
 62
     7
 10
727.564208984375
 20
-410.886962890625
 11
742.5642700195313
 21
-412.1993103027344
  0
LINE
  8
0
  6
CONTINUOUS
 62
     7
 10
776
 20
-612.5
 11
791
 21
-612.5
  0
LINE
  8
0
  6
CONTINUOUS
 62
     7
 10
776
 20
-427.5
 11
791
 21
-427.5
  0
LINE
  8
0
  6
CONTINUOUS
 62
     7
 10
738
 20
-372
 11
738
 21
-407.2184448242188
  0
LINE
  8
0
  6
CONTINUOUS
 62
     7
 10
746
 20
-476.3757934570312
 11
776
 21
-476.3757934570312
  0
LINE
  8
0
  6
CONTINUOUS
 62
     7
 10
746.0000610351562
 20
-438.7059326171875
 11
776.0000610351563
 21
-453.345458984375
  0
LINE
  8
0
  6
CONTINUOUS
 62
     7
 10
746
 20
-563.6242065429687
 11
776
 21
-563.6242065429687
  0
LINE
  8
0
  6
CONTINUOUS
 62
     7
 10
746
 20
-601.2940673828125
 11
775.9999389648437
 21
-586.654541015625
  0
LINE
  8
0
  6
CONTINUOUS
 62
     7
 10
841
 20
-429
 11
841
 21
-611
  0
LINE
  8
0
  6
CONTINUOUS
 62
     7
 10
795
 20
-615
 11
837
 21
-615
  0
LINE
  8
0
  6
CONTINUOUS
 62
     7
 10
795
 20
-425
 11
837
 21
-425
  0
LINE
  8
0
  6
CONTINUOUS
 62
     7
 10
795.0000610351562
 20
-425.0000915527344
 11
791.0000610351563
 21
-429.0000915527344
  0
LINE
  8
0
  6
CONTINUOUS
 62
     7
 10
791
 20
-610.9999389648438
 11
795
 21
-614.9999389648437
  0
LINE
  8
0
  6
CONTINUOUS
 62
     7
 10
837.0000610351563
 20
-615.0000610351562
 11
841.0000610351563
 21
-611.0000610351563
  0
LINE
  8
0
  6
CONTINUOUS
 62
     7
 10
840.9999389648437
 20
-429
 11
836.9999389648437
 21
-424.9999694824219
  0
LINE
  8
0
  6
CONTINUOUS
 62
     7
 10
795
 20
-482.3461303710938
 11
837
 21
-482.3461303710938
  0
LINE
  8
0
  6
CONTINUOUS
 62
     7
 10
795
 20
-493.7876892089844
 11
837
 21
-493.7876892089844
  0
LINE
  8
0
  6
CONTINUOUS
 62
     7
 10
795
 20
-503.5312194824219
 11
837
 21
-503.5312194824219
  0
LINE
  8
0
  6
CONTINUOUS
 62
     7
 10
795
 20
-515.00048828125
 11
837
 21
-515.00048828125
  0
LINE
  8
0
  6
CONTINUOUS
 62
     7
 10
795
 20
-525.0001220703125
 11
837
 21
-525.0001220703125
  0
LINE
  8
0
  6
CONTINUOUS
 62
     7
 10
795
 20
-536.469482421875
 11
837
 21
-536.469482421875
  0
LINE
  8
0
  6
CONTINUOUS
 62
     7
 10
795
 20
-546.2124633789062
 11
837
 21
-546.2124633789062
  0
LINE
  8
0
  6
CONTINUOUS
 62
     7
 10
795
 20
-557.6536865234375
 11
837
 21
-557.6536865234375
  0
LINE
  8
0
  6
CONTINUOUS
 62
     7
 10
795
 20
-576.7067260742187
 11
837
 21
-576.7067260742187
  0
LINE
  8
0
  6
CONTINUOUS
 62
     7
 10
795
 20
-585.9718017578125
 11
837
 21
-585.9718017578125
  0
LINE
  8
0
  6
CONTINUOUS
 62
     7
 10
795
 20
-592.793212890625
 11
837
 21
-592.793212890625
  0
LINE
  8
0
  6
CONTINUOUS
 62
     7
 10
795
 20
-599.658447265625
 11
837
 21
-599.658447265625
  0
LINE
  8
0
  6
CONTINUOUS
 62
     7
 10
795
 20
-604.65869140625
 11
837
 21
-604.65869140625
  0
LINE
  8
0
  6
CONTINUOUS
 62
     7
 10
795
 20
-609.26123046875
 11
837
 21
-609.26123046875
  0
LINE
  8
0
  6
CONTINUOUS
 62
     7
 10
630
 20
-370
 11
698
 21
-370
  0
LINE
  8
0
  6
CONTINUOUS
 62
     7
 10
630
 20
-670
 11
698
 21
-670
  0
LINE
  8
0
  6
CONTINUOUS
 62
     7
 10
625.0000610351563
 20
-375.0000305175781
 11
630
 21
-370.0000305175781
  0
LINE
  8
0
  6
CONTINUOUS
 62
     7
 10
698
 20
-370
 11
703
 21
-375.0000305175781
  0
LINE
  8
0
  6
CONTINUOUS
 62
     7
 10
625
 20
-665
 11
630
 21
-670
  0
LINE
  8
0
  6
CONTINUOUS
 62
     7
 10
698
 20
-670
 11
703
 21
-665
  0
LINE
  8
0
  6
CONTINUOUS
 62
     7
 10
669
 20
-360.0000305175781
 11
637
 21
-360.0000305175781
  0
LINE
  8
0
  6
CONTINUOUS
 62
     7
 10
668.9999389648437
 20
-360.0000305175781
 11
672.6396484375
 21
-370.0000305175781
  0
LINE
  8
0
  6
CONTINUOUS
 62
     7
 10
637
 20
-360.0001220703125
 11
633.3603515625
 21
-370
  0
LINE
  8
0
  6
CONTINUOUS
 62
     7
 10
630
 20
-376.3724670410156
 11
698
 21
-376.3724670410156
  0
LINE
  8
0
  6
CONTINUOUS
 62
     7
 10
630
 20
-407.4244689941406
 11
698
 21
-407.4244689941406
  0
LINE
  8
0
  6
CONTINUOUS
 62
     7
 10
630
 20
-420.8700866699219
 11
698
 21
-420.8700866699219
  0
LINE
  8
0
  6
CONTINUOUS
 62
     7
 10
630
 20
-432.6091613769531
 11
698
 21
-432.6091613769531
  0
LINE
  8
0
  6
CONTINUOUS
 62
     7
 10
630
 20
-449.0270385742188
 11
698
 21
-449.0270385742188
  0
LINE
  8
0
  6
CONTINUOUS
 62
     7
 10
630
 20
-476.7433471679688
 11
698
 21
-476.7433471679688
  0
LINE
  8
0
  6
CONTINUOUS
 62
     7
 10
630
 20
-495.5888977050781
 11
698
 21
-495.5888977050781
  0
LINE
  8
0
  6
CONTINUOUS
 62
     7
 10
630
 20
-510.4924926757813
 11
698
 21
-510.4924926757813
  0
LINE
  8
0
  6
CONTINUOUS
 62
     7
 10
630
 20
-529.5074462890625
 11
698
 21
-529.5074462890625
  0
LINE
  8
0
  6
CONTINUOUS
 62
     7
 10
630
 20
-544.4110107421875
 11
698
 21
-544.4110107421875
  0
LINE
  8
0
  6
CONTINUOUS
 62
     7
 10
630
 20
-563.256591796875
 11
698
 21
-563.256591796875
  0
LINE
  8
0
  6
CONTINUOUS
 62
     7
 10
630
 20
-590.9730224609375
 11
698
 21
-590.9730224609375
  0
LINE
  8
0
  6
CONTINUOUS
 62
     7
 10
630
 20
-607.390869140625
 11
698
 21
-607.390869140625
  0
LINE
  8
0
  6
CONTINUOUS
 62
     7
 10
630
 20
-619.1300048828125
 11
698
 21
-619.1300048828125
  0
LINE
  8
0
  6
CONTINUOUS
 62
     7
 10
630
 20
-632.5756225585937
 11
698
 21
-632.5756225585937
  0
LINE
  8
0
  6
CONTINUOUS
 62
     7
 10
630
 20
-641.9133911132813
 11
698
 21
-641.9133911132813
  0
LINE
  8
0
  6
CONTINUOUS
 62
     7
 10
630
 20
-652.14697265625
 11
698
 21
-652.14697265625
  0
LINE
  8
0
  6
CONTINUOUS
 62
     7
 10
630
 20
-663.6275634765625
 11
698
 21
-663.6275634765625
  0
LINE
  8
0
  6
CONTINUOUS
 62
     7
 10
640.5
 20
-357.0000305175781
 11
641.7955322265625
 21
-349.6527404785156
  0
LINE
  8
0
  6
CONTINUOUS
 62
     7
 10
664.2044677734375
 20
-349.6527099609375
 11
665.5
 21
-357
  0
LINE
  8
0
  6
CONTINUOUS
 62
     7
 10
643.76513671875
 20
-348.0000305175781
 11
662.23486328125
 21
-348.0000305175781
  0
LINE
  8
0
  6
CONTINUOUS
 62
     7
 10
643.341796875
 20
-348.0453186035156
 11
652.57666015625
 21
-346.0453186035156
  0
LINE
  8
0
  6
CONTINUOUS
 62
     7
 10
653.42333984375
 20
-346.0453491210938
 11
662.658203125
 21
-348.0453186035156
  0
LINE
  8
0
  6
CONTINUOUS
 62
     7
 10
640.5
 20
-357.0000305175781
 11
640.5
 21
-360.0000305175781
  0
LINE
  8
0
  6
CONTINUOUS
 62
     7
 10
665.5
 20
-357.0000305175781
 11
665.5
 21
-360.0000305175781
  0
LINE
  8
0
  6
CONTINUOUS
 62
     7
 10
535
 20
-320
 11
535
 21
-720
  0
LINE
  8
0
  6
CONTINUOUS
 62
     7
 10
625
 20
-372
 11
625
 21
-668
  0
LINE
  8
0
  6
CONTINUOUS
 62
     7
 10
510
 20
-320
 11
510
 21
-407.8723754882813
  0
LINE
  8
0
  6
CONTINUOUS
 62
     7
 10
510
 20
-720
 11
535
 21
-720
  0
LINE
  8
0
  6
CONTINUOUS
 62
     7
 10
510
 20
-320
 11
535
 21
-320
  0
LINE
  8
0
  6
CONTINUOUS
 62
     7
 10
545
 20
-372
 11
625
 21
-372
  0
LINE
  8
0
  6
CONTINUOUS
 62
     7
 10
603
 20
-668
 11
625
 21
-668
  0
LINE
  8
0
  6
CONTINUOUS
 62
     7
 10
603
 20
-372
 11
603
 21
-668
  0
LINE
  8
0
  6
CONTINUOUS
 62
     7
 10
576.3798828125
 20
-457.6568298339844
 11
598
 21
-457.6568298339844
  0
LINE
  8
0
  6
CONTINUOUS
 62
     7
 10
535.0000610351562
 20
-371.9161376953125
 11
603.0000610351563
 21
-408.8349609375
  0
LINE
  8
0
  6
CONTINUOUS
 62
     7
 10
535
 20
-393.1293334960937
 11
603
 21
-430.0481567382813
  0
LINE
  8
0
  6
CONTINUOUS
 62
     7
 10
538.9332885742187
 20
-431.6587219238281
 11
570.313232421875
 21
-455.6063842773437
  0
LINE
  8
0
  6
CONTINUOUS
 62
     7
 10
538.9332885742187
 20
-608.3412475585937
 11
570.3131713867187
 21
-584.3936157226562
  0
LINE
  8
0
  6
CONTINUOUS
 62
     7
 10
576.3798828125
 20
-582.3431396484375
 11
598
 21
-582.3431396484375
  0
LINE
  8
0
  6
CONTINUOUS
 62
     7
 10
535
 20
-646.8706665039062
 11
603
 21
-609.9518432617187
  0
LINE
  8
0
  6
CONTINUOUS
 62
     7
 10
535
 20
-668.0838623046875
 11
603
 21
-631.1650390625
  0
LINE
  8
0
  6
CONTINUOUS
 62
     7
 10
502
 20
-370
 11
502
 21
-399.2485961914063
  0
LINE
  8
0
  6
CONTINUOUS
 62
     7
 10
502
 20
-370
 11
510
 21
-370
  0
LINE
  8
0
  6
CONTINUOUS
 62
     7
 10
502
 20
-670
 11
510
 21
-670
  0
LINE
  8
0
  6
CONTINUOUS
 62
     7
 10
400
 20
-478
 11
400
 21
-557.5
  0
LINE
  8
0
  6
CONTINUOUS
 62
     7
 10
400
 20
-482.5
 11
510
 21
-482.5
  0
LINE
  8
0
  6
CONTINUOUS
 62
     7
 10
400
 20
-557.5
 11
510
 21
-557.5
  0
LINE
  8
0
  6
CONTINUOUS
 62
     7
 10
502
 20
-621.3932495117188
 11
502
 21
-670
  0
LINE
  8
0
  6
CONTINUOUS
 62
     7
 10
510
 20
-611.0530395507813
 11
510
 21
-720
  0
LINE
  8
0
  6
CONTINUOUS
 62
     7
 10
400
 20
-478
 11
490
 21
-478
  0
LINE
  8
0
  6
CONTINUOUS
 62
     7
 10
510
 20
-562.5
 11
517.0518188476562
 21
-562.5
  0
LINE
  8
0
  6
CONTINUOUS
 62
     7
 10
510
 20
-477.5
 11
513.872314453125
 21
-477.5
  0
LINE
  8
0
  6
CONTINUOUS
 62
     7
 10
510
 20
-477.6000061035156
 11
510
 21
-562.5
  0
LINE
  8
0
  6
CONTINUOUS
 62
     7
 10
561.5
 20
-334.7000122070313
 11
588.5
 21
-334.7000122070313
  0
LINE
  8
0
  6
CONTINUOUS
 62
     7
 10
566.3499755859375
 20
-334.7000122070313
 11
566.3499755859375
 21
-372
  0
LINE
  8
0
  6
CONTINUOUS
 62
     7
 10
583.6500244140625
 20
-334.7000122070313
 11
583.6500244140625
 21
-372
  0
LINE
  8
0
  6
CONTINUOUS
 62
     3
 10
575
 20
-280.0375671386719
 11
575
 21
-387
  0
LINE
  8
0
  6
CONTINUOUS
 62
     7
 10
561.5
 20
-302.7000122070313
 11
588.5
 21
-302.7000122070313
  0
LINE
  8
0
  6
CONTINUOUS
 62
     7
 10
583.071044921875
 20
-288.0500183105469
 11
566.928955078125
 21
-288.0500183105469
  0
LINE
  8
0
  6
CONTINUOUS
 62
     7
 10
583.507568359375
 20
-297.0500183105469
 11
566.492431640625
 21
-297.0500183105469
  0
LINE
  8
0
  6
CONTINUOUS
 62
     7
 10
583.507568359375
 20
-297.0500183105469
 11
583.3309936523438
 21
-302.7000122070313
  0
LINE
  8
0
  6
CONTINUOUS
 62
     7
 10
566.4923706054687
 20
-297.0499877929688
 11
566.6689453125
 21
-302.6999816894531
  0
LINE
  8
0
  6
CONTINUOUS
 62
     7
 10
583.071044921875
 20
-288.0500183105469
 11
583.071044921875
 21
-297.0500183105469
  0
LINE
  8
0
  6
CONTINUOUS
 62
     7
 10
566.928955078125
 20
-288.0500183105469
 11
566.928955078125
 21
-297.0500183105469
  0
LINE
  8
0
  6
CONTINUOUS
 62
     7
 10
588.5
 20
-302.7000122070313
 11
588.5
 21
-334.7000122070313
  0
LINE
  8
0
  6
CONTINUOUS
 62
     7
 10
561.5
 20
-302.7000122070313
 11
561.5
 21
-334.7000122070313
  0
LINE
  8
0
  6
CONTINUOUS
 62
     3
 10
566.928955078125
 20
-297.0499877929688
 11
575
 21
-288.0499877929687
  0
LINE
  8
0
  6
CONTINUOUS
 62
     7
 10
575
 20
-288.0500183105469
 11
575
 21
-297.0500183105469
  0
LINE
  8
0
  6
CONTINUOUS
 62
     3
 10
575
 20
-297.0500183105469
 11
583.071044921875
 21
-288.0500183105469
  0
LINE
  8
0
  6
CONTINUOUS
 62
     3
 10
583.071044921875
 20
-297.0500183105469
 11
575
 21
-288.050048828125
  0
LINE
  8
0
  6
CONTINUOUS
 62
     3
 10
566.928955078125
 20
-288.050048828125
 11
574.9999389648438
 21
-297.0499877929688
  0
LINE
  8
0
  6
CONTINUOUS
 62
     7
 10
490
 20
-478
 11
490
 21
-482.5
  0
LINE
  8
0
  6
CONTINUOUS
 62
     7
 10
680.9999389648438
 20
-511.5145874023437
 11
672.5146484375
 21
-519.9998779296875
  0
LINE
  8
0
  6
CONTINUOUS
 62
     7
 10
689.4853515625
 20
-519.9999389648438
 11
681.0001220703125
 21
-511.5146179199219
  0
LINE
  8
0
  6
CONTINUOUS
 62
     3
 10
681
 20
-509.492431640625
 11
681
 21
-530.507568359375
  0
LINE
  8
0
  6
CONTINUOUS
 62
     7
 10
681.0000610351562
 20
-528.4853515625
 11
672.5147705078125
 21
-520.0000610351563
  0
LINE
  8
0
  6
CONTINUOUS
 62
     7
 10
689.4851684570313
 20
-519.9999389648438
 11
680.9998779296875
 21
-528.4852294921875
  0
LINE
  8
0
  6
CONTINUOUS
 62
     3
 10
720
 20
-301.6383361816406
 11
720
 21
-375.4801025390625
  0
LINE
  8
0
  6
CONTINUOUS
 62
     3
 10
702.6383056640625
 20
-319
 11
775.469970703125
 21
-319
  0
LINE
  8
0
  6
CONTINUOUS
 62
     7
 10
752
 20
-303
 11
752
 21
-335
  0
LINE
  8
0
  6
CONTINUOUS
 62
     7
 10
704
 20
-351
 11
736
 21
-351
  0
LINE
  8
0
  6
CONTINUOUS
 62
     7
 10
741
 20
-335
 11
752
 21
-335
  0
LINE
  8
0
  6
CONTINUOUS
 62
     7
 10
736
 20
-303
 11
752
 21
-303
  0
LINE
  8
0
  6
CONTINUOUS
 62
     7
 10
704
 20
-335
 11
704
 21
-351
  0
LINE
  8
0
  6
CONTINUOUS
 62
     7
 10
736
 20
-340
 11
736
 21
-351
  0
LINE
  8
0
  6
CONTINUOUS
 62
     7
 10
770.469970703125
 20
-330.1923828125
 11
770.469970703125
 21
-307.8076171875
  0
LINE
  8
0
  6
CONTINUOUS
 62
     7
 10
759.469970703125
 20
-332.4534301757813
 11
759.469970703125
 21
-305.5465698242188
  0
LINE
  8
0
  6
CONTINUOUS
 62
     7
 10
759.4700317382813
 20
-332.4534301757813
 11
752
 21
-332.2200012207031
  0
LINE
  8
0
  6
CONTINUOUS
 62
     7
 10
759.469970703125
 20
-305.5465393066406
 11
752
 21
-305.7799987792969
  0
LINE
  8
0
  6
CONTINUOUS
 62
     7
 10
770.469970703125
 20
-330.1923828125
 11
759.469970703125
 21
-330.1923828125
  0
LINE
  8
0
  6
CONTINUOUS
 62
     7
 10
770.469970703125
 20
-307.8076171875
 11
759.469970703125
 21
-307.8076171875
  0
LINE
  8
0
  6
CONTINUOUS
 62
     3
 10
759.4700317382813
 20
-330.1924133300781
 11
770.4700317382813
 21
-319
  0
LINE
  8
0
  6
CONTINUOUS
 62
     3
 10
770.4700317382813
 20
-330.1923828125
 11
759.4700317382813
 21
-319
  0
LINE
  8
0
  6
CONTINUOUS
 62
     3
 10
759.469970703125
 20
-319
 11
770.469970703125
 21
-307.8076171875
  0
LINE
  8
0
  6
CONTINUOUS
 62
     3
 10
770.469970703125
 20
-319
 11
759.469970703125
 21
-307.8076171875
  0
LINE
  8
0
  6
CONTINUOUS
 62
     7
 10
706.5
 20
-351
 11
706.5
 21
-372
  0
LINE
  8
0
  6
CONTINUOUS
 62
     7
 10
733.5
 20
-351
 11
733.5
 21
-372
  0
LINE
  8
0
  6
CONTINUOUS
 62
     7
 10
770.469970703125
 20
-319.0003662109375
 11
759.469970703125
 21
-319.0003662109375
  0
LINE
  8
0
  6
CONTINUOUS
 62
     3
 10
0
 20
-275.25
 11
0
 21
-740
  0
LINE
  8
0
  6
CONTINUOUS
 62
     3
 10
-220
 20
-520
 11
220
 21
-520
  0
LINE
  8
0
  6
CONTINUOUS
 62
     7
 10
-10
 20
-478
 11
-10
 21
-490
  0
LINE
  8
0
  6
CONTINUOUS
 62
     7
 10
10
 20
-478
 11
10
 21
-490
  0
LINE
  8
0
  6
CONTINUOUS
 62
     7
 10
-10
 20
-490
 11
10
 21
-490
  0
LINE
  8
0
  6
CONTINUOUS
 62
     7
 10
-10
 20
-478
 11
10
 21
-478
  0
LINE
  8
0
  6
CONTINUOUS
 62
     3
 10
149.4212036132813
 20
-581.8924560546875
 11
173.5414276123047
 21
-591.8834228515625
  0
LINE
  8
0
  6
CONTINUOUS
 62
     3
 10
149.4212646484375
 20
-458.1076354980469
 11
173.5415344238281
 21
-448.11669921875
  0
LINE
  8
0
  6
CONTINUOUS
 62
     3
 10
61.89229965209961
 20
-370.5787963867187
 11
71.88324737548828
 21
-346.45849609375
  0
LINE
  8
0
  6
CONTINUOUS
 62
     3
 10
-61.89223098754883
 20
-370.5787658691406
 11
-71.8831787109375
 21
-346.4584655761719
  0
LINE
  8
0
  6
CONTINUOUS
 62
     3
 10
-149.4211883544922
 20
-458.1076354980469
 11
-173.5414123535156
 21
-448.1167297363281
  0
LINE
  8
0
  6
CONTINUOUS
 62
     3
 10
-149.4212493896484
 20
-581.8922119140625
 11
-173.5414733886719
 21
-591.8831787109375
  0
LINE
  8
0
  6
CONTINUOUS
 62
     3
 10
-61.89248657226562
 20
-669.4210815429688
 11
-71.88341522216797
 21
-693.5413208007813
  0
LINE
  8
0
  6
CONTINUOUS
 62
     3
 10
61.89203262329102
 20
-669.4213256835938
 11
71.88294982910156
 21
-693.5415649414063
  0
LINE
  8
0
  6
CONTINUOUS
 62
     3
 10
52.31838607788086
 20
-429.3819885253906
 11
42.56133651733398
 21
-446.2817077636719
  0
LINE
  8
0
  6
CONTINUOUS
 62
     3
 10
-52.31834030151367
 20
-429.3819274902344
 11
-42.5612907409668
 21
-446.2816467285156
  0
LINE
  8
0
  6
CONTINUOUS
 62
     3
 10
-52.31829071044922
 20
-610.6180419921875
 11
-42.56123733520508
 21
-593.7183227539063
  0
LINE
  8
0
  6
CONTINUOUS
 62
     3
 10
52.3183479309082
 20
-610.6179809570313
 11
42.56129837036133
 21
-593.71826171875
  0
LINE
  8
0
  6
CONTINUOUS
 62
     7
 10
-13.5
 20
-302.7000122070313
 11
13.5
 21
-302.7000122070313
  0
LINE
  8
0
  6
CONTINUOUS
 62
     7
 10
8.507568359375
 20
-297.0500183105469
 11
-8.507568359375
 21
-297.0500183105469
  0
LINE
  8
0
  6
CONTINUOUS
 62
     7
 10
8.507533073425293
 20
-297.0499877929688
 11
8.330971717834473
 21
-302.6999816894531
  0
LINE
  8
0
  6
CONTINUOUS
 62
     7
 10
-8.507612228393555
 20
-297.050048828125
 11
-8.331049919128418
 21
-302.7000427246094
  0
LINE
  8
0
  6
CONTINUOUS
 62
     7
 10
8.071044921875
 20
-288.0500183105469
 11
8.071044921875
 21
-297.0500183105469
  0
LINE
  8
0
  6
CONTINUOUS
 62
     7
 10
-8.071044921875
 20
-288.0500183105469
 11
-8.071044921875
 21
-297.0500183105469
  0
LINE
  8
0
  6
CONTINUOUS
 62
     7
 10
13.5
 20
-302.7000122070313
 11
13.5
 21
-320.4561462402344
  0
LINE
  8
0
  6
CONTINUOUS
 62
     7
 10
-13.5
 20
-302.7000122070313
 11
-13.5
 21
-320.4561462402344
  0
LINE
  8
0
  6
CONTINUOUS
 62
     3
 10
-8.071043014526367
 20
-297.0500183105469
 11
3.621029463829473E-06
 21
-288.0500183105469
  0
LINE
  8
0
  6
CONTINUOUS
 62
     3
 10
-8.071063995361328
 20
-288.0500183105469
 11
-7.37670052330941E-06
 21
-297.050048828125
  0
LINE
  8
0
  6
CONTINUOUS
 62
     3
 10
2.775146822386887E-05
 20
-297.0500183105469
 11
8.071063995361328
 21
-288.0500183105469
  0
LINE
  8
0
  6
CONTINUOUS
 62
     3
 10
8.071042060852051
 20
-297.0500183105469
 11
2.576858241809532E-05
 21
-288.0500793457031
  0
LINE
  8
0
  6
CONTINUOUS
 62
     7
 10
0
 20
-288.0500183105469
 11
0
 21
-297.0500183105469
  0
LINE
  8
0
  6
CONTINUOUS
 62
     7
 10
-8.071044921875
 20
-288.0500183105469
 11
8.071044921875
 21
-288.0500183105469
  0
LINE
  8
0
  6
CONTINUOUS
 62
     3
 10
380
 20
0
 11
958.3843383789062
 21
0
  0
LINE
  8
0
  6
CONTINUOUS
 62
     7
 10
851.0000610351562
 20
-92.49998474121094
 11
851.0000610351562
 21
92.50003051757812
  0
LINE
  8
0
  6
CONTINUOUS
 62
     7
 10
851
 20
-92.49998474121094
 11
841
 21
-92.49998474121094
  0
LINE
  8
0
  6
CONTINUOUS
 62
     7
 10
851
 20
92.50003051757812
 11
841
 21
92.50003051757812
  0
LINE
  8
0
  6
CONTINUOUS
 62
     7
 10
898
 20
-39.99998474121094
 11
868
 21
-39.99998474121094
  0
LINE
  8
0
  6
CONTINUOUS
 62
     7
 10
898
 20
40.00001525878906
 11
868
 21
40.00001525878906
  0
LINE
  8
0
  6
CONTINUOUS
 62
     7
 10
898.0000610351562
 20
-39.99998474121094
 11
898.0000610351562
 21
40.00001525878906
  0
LINE
  8
0
  6
CONTINUOUS
 62
     7
 10
868
 20
39.99998474121094
 11
854.2898559570312
 21
44.99007034301758
  0
LINE
  8
0
  6
CONTINUOUS
 62
     7
 10
868
 20
-39.99997711181641
 11
854.2898559570312
 21
-44.99004745483398
  0
LINE
  8
0
  6
CONTINUOUS
 62
     7
 10
942.0000610351563
 20
-11.99998474121094
 11
942.0000610351563
 21
12.00001525878906
  0
LINE
  8
0
  6
CONTINUOUS
 62
     7
 10
902.0000610351562
 20
-14.99998569488525
 11
902.0000610351562
 21
15.00001430511475
  0
LINE
  8
0
  6
CONTINUOUS
 62
     7
 10
942
 20
-11.99998474121094
 11
902
 21
-11.99998474121094
  0
LINE
  8
0
  6
CONTINUOUS
 62
     7
 10
942
 20
12.00001525878906
 11
902
 21
12.00001525878906
  0
LINE
  8
0
  6
CONTINUOUS
 62
     7
 10
902
 20
-14.99998474121094
 11
898
 21
-14.99998474121094
  0
LINE
  8
0
  6
CONTINUOUS
 62
     7
 10
902
 20
15.00001525878906
 11
898
 21
15.00001525878906
  0
LINE
  8
0
  6
CONTINUOUS
 62
     7
 10
942
 20
4.000015258789063
 11
908
 21
4.000015258789063
  0
LINE
  8
0
  6
CONTINUOUS
 62
     7
 10
942
 20
-3.999984979629517
 11
908
 21
-3.999984979629517
  0
LINE
  8
0
  6
CONTINUOUS
 62
     7
 10
910.0000610351562
 20
-3.999985694885254
 11
910.0000610351562
 21
4.000014305114746
  0
LINE
  8
0
  6
CONTINUOUS
 62
     7
 10
703
 20
148.0000152587891
 11
703
 21
-147.9999847412109
  0
LINE
  8
0
  6
CONTINUOUS
 62
     7
 10
791
 20
92.50000762939453
 11
791
 21
-92.49999237060547
  0
LINE
  8
0
  6
CONTINUOUS
 62
     7
 10
703
 20
-148
 11
723
 21
-148
  0
LINE
  8
0
  6
CONTINUOUS
 62
     7
 10
703
 20
148
 11
723
 21
148
  0
LINE
  8
0
  6
CONTINUOUS
 62
     7
 10
723
 20
148.0000152587891
 11
723
 21
28.72284889221191
  0
LINE
  8
0
  6
CONTINUOUS
 62
     7
 10
746
 20
102.918342590332
 11
746
 21
16.00000953674316
  0
LINE
  8
0
  6
CONTINUOUS
 62
     7
 10
776
 20
92.50000762939453
 11
776
 21
-92.49999237060547
  0
LINE
  8
0
  6
CONTINUOUS
 62
     7
 10
727.5641479492187
 20
-109.1126937866211
 11
741.4357299804687
 21
-107.8990859985352
  0
LINE
  8
0
  6
CONTINUOUS
 62
     7
 10
727.5642700195313
 20
109.1132965087891
 11
742.5642700195313
 21
107.8009643554687
  0
LINE
  8
0
  6
CONTINUOUS
 62
     7
 10
776
 20
-92.5
 11
791
 21
-92.5
  0
LINE
  8
0
  6
CONTINUOUS
 62
     7
 10
776
 20
92.5
 11
791
 21
92.5
  0
LINE
  8
0
  6
CONTINUOUS
 62
     7
 10
723
 20
-28.72276878356934
 11
723
 21
-147.9999847412109
  0
LINE
  8
0
  6
CONTINUOUS
 62
     7
 10
746
 20
-40.1566162109375
 11
776
 21
-40.1566162109375
  0
LINE
  8
0
  6
CONTINUOUS
 62
     7
 10
776
 20
-62.53787612915039
 11
746
 21
-76.18946838378906
  0
LINE
  8
0
  6
CONTINUOUS
 62
     7
 10
746
 20
40.1566162109375
 11
776
 21
40.1566162109375
  0
LINE
  8
0
  6
CONTINUOUS
 62
     7
 10
776
 20
62.53786468505859
 11
746
 21
76.18946075439453
  0
LINE
  8
0
  6
CONTINUOUS
 62
     7
 10
841
 20
92.50004577636719
 11
841
 21
-92.49996948242188
  0
LINE
  8
0
  6
CONTINUOUS
 62
     7
 10
795
 20
-87.21929931640625
 11
837.0001220703125
 21
-87.21929931640625
  0
LINE
  8
0
  6
CONTINUOUS
 62
     7
 10
795
 20
-95
 11
837
 21
-95
  0
LINE
  8
0
  6
CONTINUOUS
 62
     7
 10
795
 20
95
 11
837
 21
95
  0
LINE
  8
0
  6
CONTINUOUS
 62
     7
 10
795.0001831054688
 20
94.99980163574219
 11
791.0001831054687
 21
90.99980163574219
  0
LINE
  8
0
  6
CONTINUOUS
 62
     7
 10
791
 20
-90.99997711181641
 11
795
 21
-94.99997711181641
  0
LINE
  8
0
  6
CONTINUOUS
 62
     7
 10
837.0000610351563
 20
-95.00003051757812
 11
841.0000610351563
 21
-91.00002288818359
  0
LINE
  8
0
  6
CONTINUOUS
 62
     7
 10
840.9999389648437
 20
91.00003814697266
 11
836.9999389648437
 21
95.00004577636719
  0
LINE
  8
0
  6
CONTINUOUS
 62
     7
 10
794.9999389648437
 20
87.218994140625
 11
837.0000610351563
 21
87.218994140625
  0
LINE
  8
0
  6
CONTINUOUS
 62
     7
 10
794.9999389648437
 20
76.21875
 11
837.0000610351563
 21
76.21875
  0
LINE
  8
0
  6
CONTINUOUS
 62
     7
 10
794.9999389648437
 20
68.35662841796875
 11
837.0000610351563
 21
68.35662841796875
  0
LINE
  8
0
  6
CONTINUOUS
 62
     7
 10
794.9999389648437
 20
61.04364013671875
 11
837.0000610351563
 21
61.04364013671875
  0
LINE
  8
0
  6
CONTINUOUS
 62
     7
 10
794.9999389648437
 20
51.7645263671875
 11
837.0000610351563
 21
51.7645263671875
  0
LINE
  8
0
  6
CONTINUOUS
 62
     7
 10
794.9999389648437
 20
43.10443115234375
 11
837.0000610351563
 21
43.10443115234375
  0
LINE
  8
0
  6
CONTINUOUS
 62
     7
 10
794.9999389648437
 20
32.5186767578125
 11
837.0000610351563
 21
32.5186767578125
  0
LINE
  8
0
  6
CONTINUOUS
 62
     7
 10
794.9999389648437
 20
22.95574951171875
 11
837.0000610351563
 21
22.95574951171875
  0
LINE
  8
0
  6
CONTINUOUS
 62
     7
 10
794.9999389648437
 20
11.00006103515625
 11
837.0000610351563
 21
11.00006103515625
  0
LINE
  8
0
  6
CONTINUOUS
 62
     7
 10
630
 20
150.0000610351562
 11
698
 21
150.0000610351562
  0
LINE
  8
0
  6
CONTINUOUS
 62
     7
 10
630
 20
-150
 11
698
 21
-150
  0
LINE
  8
0
  6
CONTINUOUS
 62
     7
 10
625.0001831054688
 20
144.9999542236328
 11
630.0001831054688
 21
149.9999389648438
  0
LINE
  8
0
  6
CONTINUOUS
 62
     7
 10
697.9998779296875
 20
150.0001831054687
 11
702.9998779296875
 21
145.0001983642578
  0
LINE
  8
0
  6
CONTINUOUS
 62
     7
 10
624.9999389648437
 20
-144.9998168945312
 11
630
 21
-149.9998779296875
  0
LINE
  8
0
  6
CONTINUOUS
 62
     7
 10
698.0001831054688
 20
-150.0001373291016
 11
703.0001831054687
 21
-145.0001525878906
  0
LINE
  8
0
  6
CONTINUOUS
 62
     7
 10
630.0001831054688
 20
143.6275634765625
 11
697.9998779296875
 21
143.6275634765625
  0
LINE
  8
0
  6
CONTINUOUS
 62
     7
 10
630.0001831054688
 20
132.1470336914063
 11
697.9998779296875
 21
132.1470336914063
  0
LINE
  8
0
  6
CONTINUOUS
 62
     7
 10
630.0001831054688
 20
121.913330078125
 11
697.9998779296875
 21
121.913330078125
  0
LINE
  8
0
  6
CONTINUOUS
 62
     7
 10
630.0001831054688
 20
112.5756225585938
 11
697.9998779296875
 21
112.5756225585938
  0
LINE
  8
0
  6
CONTINUOUS
 62
     7
 10
630.0001831054688
 20
99.1300048828125
 11
697.9998779296875
 21
99.1300048828125
  0
LINE
  8
0
  6
CONTINUOUS
 62
     7
 10
630.0001831054688
 20
43.2567138671875
 11
697.9998779296875
 21
43.2567138671875
  0
LINE
  8
0
  6
CONTINUOUS
 62
     7
 10
630.0001831054688
 20
25.00006103515625
 11
697.9998779296875
 21
25.00006103515625
  0
LINE
  8
0
  6
CONTINUOUS
 62
     7
 10
630.0001831054688
 20
-25
 11
697.9999389648437
 21
-25
  0
LINE
  8
0
  6
CONTINUOUS
 62
     7
 10
630.0001831054688
 20
-43.25653076171875
 11
697.9999389648437
 21
-43.25653076171875
  0
LINE
  8
0
  6
CONTINUOUS
 62
     7
 10
630.0001831054688
 20
-99.12994384765625
 11
697.9999389648437
 21
-99.12994384765625
  0
LINE
  8
0
  6
CONTINUOUS
 62
     7
 10
630.0001831054688
 20
-112.5755615234375
 11
697.9999389648437
 21
-112.5755615234375
  0
LINE
  8
0
  6
CONTINUOUS
 62
     7
 10
630.0001831054688
 20
-121.9132690429687
 11
697.9999389648437
 21
-121.9132690429687
  0
LINE
  8
0
  6
CONTINUOUS
 62
     7
 10
630.0001831054688
 20
-132.1470336914063
 11
697.9999389648437
 21
-132.1470336914063
  0
LINE
  8
0
  6
CONTINUOUS
 62
     7
 10
630.0001831054688
 20
-143.6275329589844
 11
697.9999389648437
 21
-143.6275329589844
  0
LINE
  8
0
  6
CONTINUOUS
 62
     7
 10
632.9999389648437
 20
5
 11
672.9999389648438
 21
5
  0
LINE
  8
0
  6
CONTINUOUS
 62
     7
 10
632.9999389648437
 20
-5
 11
672.9999389648438
 21
-5
  0
LINE
  8
0
  6
CONTINUOUS
 62
     7
 10
625
 20
148
 11
625
 21
-148
  0
LINE
  8
0
  6
CONTINUOUS
 62
     7
 10
510
 20
200
 11
510
 21
90.97784423828125
  0
LINE
  8
0
  6
CONTINUOUS
 62
     7
 10
510
 20
-200
 11
535
 21
-200
  0
LINE
  8
0
  6
CONTINUOUS
 62
     7
 10
510
 20
200
 11
535
 21
200
  0
LINE
  8
0
  6
CONTINUOUS
 62
     7
 10
603
 20
148
 11
625
 21
148
  0
LINE
  8
0
  6
CONTINUOUS
 62
     7
 10
603
 20
-148
 11
625
 21
-148
  0
LINE
  8
0
  6
CONTINUOUS
 62
     7
 10
603
 20
148
 11
603
 21
20.0000057220459
  0
LINE
  8
0
  6
CONTINUOUS
 62
     7
 10
576.3799438476562
 20
-62.3431396484375
 11
598
 21
-62.3431396484375
  0
LINE
  8
0
  6
CONTINUOUS
 62
     7
 10
576.3798828125
 20
62.3431396484375
 11
598
 21
62.3431396484375
  0
LINE
  8
0
  6
CONTINUOUS
 62
     7
 10
535
 20
-20
 11
603
 21
-20
  0
LINE
  8
0
  6
CONTINUOUS
 62
     7
 10
535
 20
20
 11
603
 21
20
  0
LINE
  8
0
  6
CONTINUOUS
 62
     7
 10
603
 20
-19.9999942779541
 11
603
 21
-148
  0
LINE
  8
0
  6
CONTINUOUS
 62
     7
 10
535.0000610351562
 20
148.0838775634766
 11
603
 21
111.1650695800781
  0
LINE
  8
0
  6
CONTINUOUS
 62
     7
 10
535
 20
126.8706588745117
 11
603
 21
89.95182037353516
  0
LINE
  8
0
  6
CONTINUOUS
 62
     7
 10
538.9332885742187
 20
88.34128570556641
 11
570.3131713867187
 21
64.39364624023437
  0
LINE
  8
0
  6
CONTINUOUS
 62
     7
 10
538.9332885742187
 20
-88.34127044677734
 11
570.313232421875
 21
-64.39363098144531
  0
LINE
  8
0
  6
CONTINUOUS
 62
     7
 10
535
 20
-126.8706665039063
 11
603
 21
-89.95183563232422
  0
LINE
  8
0
  6
CONTINUOUS
 62
     7
 10
535
 20
-148.0838470458984
 11
603
 21
-111.1650238037109
  0
LINE
  8
0
  6
CONTINUOUS
 62
     7
 10
535
 20
200
 11
535
 21
-200
  0
LINE
  8
0
  6
CONTINUOUS
 62
     7
 10
510
 20
42.5
 11
515.1341552734375
 21
42.5
  0
LINE
  8
0
  6
CONTINUOUS
 62
     7
 10
510
 20
-42.5
 11
516.2838134765625
 21
-42.5
  0
LINE
  8
0
  6
CONTINUOUS
 62
     7
 10
502
 20
150
 11
502
 21
97.3695068359375
  0
LINE
  8
0
  6
CONTINUOUS
 62
     7
 10
502
 20
150
 11
510
 21
150
  0
LINE
  8
0
  6
CONTINUOUS
 62
     7
 10
502
 20
-150
 11
510
 21
-150
  0
LINE
  8
0
  6
CONTINUOUS
 62
     7
 10
400
 20
37.5
 11
400
 21
-37.5
  0
LINE
  8
0
  6
CONTINUOUS
 62
     7
 10
400
 20
37.5
 11
510
 21
37.5
  0
LINE
  8
0
  6
CONTINUOUS
 62
     7
 10
400
 20
-37.5
 11
510
 21
-37.5
  0
LINE
  8
0
  6
CONTINUOUS
 62
     7
 10
502
 20
-94.56884765625
 11
502
 21
-150
  0
LINE
  8
0
  6
CONTINUOUS
 62
     7
 10
510
 20
-88.9996337890625
 11
510
 21
-200
  0
LINE
  8
0
  6
CONTINUOUS
 62
     7
 10
400
 20
-10
 11
495
 21
-10
  0
LINE
  8
0
  6
CONTINUOUS
 62
     7
 10
400
 20
10
 11
495
 21
10
  0
LINE
  8
0
  6
CONTINUOUS
 62
     7
 10
510
 20
42.40002822875977
 11
510
 21
-42.49999618530273
  0
LINE
  8
0
  6
CONTINUOUS
 62
     7
 10
583.4852905273438
 20
-2.205403689004015E-05
 11
575.0000610351563
 21
8.48521614074707
  0
LINE
  8
0
  6
CONTINUOUS
 62
     7
 10
575.0000610351563
 20
8.485241889953613
 11
566.5147705078125
 21
-3.866746556013823E-05
  0
LINE
  8
0
  6
CONTINUOUS
 62
     7
 10
574.9999389648438
 20
-8.485288619995117
 11
566.5147094726563
 21
-4.945705586578697E-05
  0
LINE
  8
0
  6
CONTINUOUS
 62
     7
 10
583.4852905273438
 20
-4.99310735904146E-05
 11
575
 21
-8.485329627990723
  0
LINE
  8
0
  6
CONTINUOUS
 62
     3
 10
575
 20
15.72766590118408
 11
575
 21
-15.83092784881592
  0
LINE
  8
0
  6
CONTINUOUS
 62
     7
 10
490
 20
10.00000286102295
 11
490
 21
-9.999997138977051
  0
LINE
  8
0
  6
CONTINUOUS
 62
     3
 10
681.0000610351562
 20
-139.9925994873047
 11
681.0000610351562
 21
-171.6517181396484
  0
LINE
  8
0
  6
CONTINUOUS
 62
     7
 10
672.9290161132812
 20
-164.6499938964844
 11
689.0711059570312
 21
-164.6499938964844
  0
LINE
  8
0
  6
CONTINUOUS
 62
     7
 10
672.4924926757813
 20
-155.6499938964844
 11
689.5076293945312
 21
-155.6499938964844
  0
LINE
  8
0
  6
CONTINUOUS
 62
     7
 10
672.4924926757813
 20
-155.6499938964844
 11
672.6690673828125
 21
-150
  0
LINE
  8
0
  6
CONTINUOUS
 62
     7
 10
689.5076293945312
 20
-155.6499786376953
 11
689.3310546875
 21
-149.9999847412109
  0
LINE
  8
0
  6
CONTINUOUS
 62
     7
 10
672.9290161132812
 20
-164.6499786376953
 11
672.9290161132812
 21
-155.6499786376953
  0
LINE
  8
0
  6
CONTINUOUS
 62
     7
 10
689.0711059570312
 20
-164.6499786376953
 11
689.0711059570312
 21
-155.6499786376953
  0
LINE
  8
0
  6
CONTINUOUS
 62
     7
 10
681.0000610351562
 20
-164.6499786376953
 11
681.0000610351562
 21
-155.6499786376953
  0
LINE
  8
0
  6
CONTINUOUS
 62
     3
 10
672.928955078125
 20
-155.6500396728516
 11
681
 21
-164.6499938964844
  0
LINE
  8
0
  6
CONTINUOUS
 62
     3
 10
672.9288940429688
 20
-164.64990234375
 11
680.9999389648438
 21
-155.64990234375
  0
LINE
  8
0
  6
CONTINUOUS
 62
     3
 10
681
 20
-155.6500244140625
 11
689.071044921875
 21
-164.6500244140625
  0
LINE
  8
0
  6
CONTINUOUS
 62
     3
 10
680.9999389648438
 20
-164.6499328613281
 11
689.071044921875
 21
-155.6499328613281
  0
LINE
  8
0
  6
CONTINUOUS
 62
     3
 10
720
 20
21.00000953674316
 11
720
 21
-20.99999046325684
  0
LINE
  8
0
  6
CONTINUOUS
 62
     7
 10
720
 20
-16
 11
752
 21
-16
  0
LINE
  8
0
  6
CONTINUOUS
 62
     7
 10
720
 20
16
 11
752
 21
16
  0
LINE
  8
0
  6
CONTINUOUS
 62
     7
 10
770.469970703125
 20
-11.19237995147705
 11
770.469970703125
 21
11.19239330291748
  0
LINE
  8
0
  6
CONTINUOUS
 62
     7
 10
759.469970703125
 20
-13.4534273147583
 11
759.469970703125
 21
13.45344829559326
  0
LINE
  8
0
  6
CONTINUOUS
 62
     7
 10
759.4700317382813
 20
-13.45343685150146
 11
752.0000610351562
 21
-13.21999835968018
  0
LINE
  8
0
  6
CONTINUOUS
 62
     7
 10
759.4700317382813
 20
13.45342445373535
 11
752
 21
13.2199878692627
  0
LINE
  8
0
  6
CONTINUOUS
 62
     7
 10
770.4700317382813
 20
-11.19239044189453
 11
759.4700317382813
 21
-11.19239044189453
  0
LINE
  8
0
  6
CONTINUOUS
 62
     7
 10
770.469970703125
 20
11.19239044189453
 11
759.469970703125
 21
11.19239044189453
  0
LINE
  8
0
  6
CONTINUOUS
 62
     7
 10
770.469970703125
 20
0
 11
759.469970703125
 21
0
  0
LINE
  8
0
  6
CONTINUOUS
 62
     3
 10
759.469970703125
 20
-11.19236946105957
 11
770.4700317382813
 21
3.932582694687881E-05
  0
LINE
  8
0
  6
CONTINUOUS
 62
     3
 10
770.469970703125
 20
-11.19238185882568
 11
759.469970703125
 21
1.945339681697078E-05
  0
LINE
  8
0
  6
CONTINUOUS
 62
     3
 10
759.469970703125
 20
-1.177554167952621E-05
 11
770.469970703125
 21
11.19239711761475
  0
LINE
  8
0
  6
CONTINUOUS
 62
     3
 10
770.4700317382813
 20
-2.4159167878679E-05
 11
759.4700317382813
 21
11.19236660003662
  0
LINE
  8
0
  6
CONTINUOUS
 62
     7
 10
752
 20
16.00000953674316
 11
752
 21
-15.99999046325684
  0
LINE
  8
0
  6
CONTINUOUS
 62
     7
 10
746
 20
-15.99999046325684
 11
746
 21
-102.918327331543
  0
LINE
  8
0
  6
CONTINUOUS
 62
     7
 10
621.229736328125
 20
-331.0000305175781
 11
684.28662109375
 21
-331.0000305175781
  0
LINE
  8
0
  6
CONTINUOUS
 62
     7
 10
653
 20
-299.097900390625
 11
653
 21
-374.4761657714844
  0
ARC
  8
0
  6
CONTINUOUS
 62
     7
 10
856
 20
-569.6885375976563
 40
4.999999999999972
 50
109.9999370358672
 51
179.9999640278219
  0
ARC
  8
0
  6
CONTINUOUS
 62
     7
 10
856
 20
-470.3114624023437
 40
4.999999999999963
 50
180.0000359721788
 51
250.0000766245117
  0
ARC
  8
0
  6
CONTINUOUS
 62
     7
 10
741
 20
-417.0816650390625
 40
5
 50
0
 51
84.99987373011112
  0
ARC
  8
0
  6
CONTINUOUS
 62
     7
 10
741
 20
-622.9183349609375
 40
5.000000000000052
 50
275.0001331000777
 51
0
  0
ARC
  8
0
  6
CONTINUOUS
 62
     7
 10
728
 20
-634.0938720703125
 40
5.000000000000004
 50
95.00015859960162
 51
179.9999640278219
  0
ARC
  8
0
  6
CONTINUOUS
 62
     7
 10
728
 20
-405.9060974121094
 40
5.000000000000038
 50
179.9999776881996
 51
264.9998650786887
  0
ARC
  8
0
  6
CONTINUOUS
 62
     7
 10
743
 20
-407.2184448242188
 40
5.000000000000038
 50
179.9999776881996
 51
264.9998377579323
  0
ARC
  8
0
  6
CONTINUOUS
 62
     7
 10
653
 20
-331.0000305175781
 40
25
 50
306.4238458862582
 51
233.5761318019415
  0
CIRCLE
  8
0
  6
CONTINUOUS
 62
     7
 10
653
 20
-331.0000305175781
 40
15
  0
ARC
  8
0
  6
CONTINUOUS
 62
     7
 10
643.76513671875
 20
-350.0000305175781
 40
1.999999999999985
 50
89.99998201391097
 51
170.0000206677889
  0
ARC
  8
0
  6
CONTINUOUS
 62
     7
 10
662.23486328125
 20
-350.0000305175781
 40
1.999999999999964
 50
9.999994586450628
 51
89.99998201391097
  0
ARC
  8
0
  6
CONTINUOUS
 62
     7
 10
634.5936279296875
 20
-355.944091796875
 40
6.000000000000009
 50
349.8636347103541
 51
53.57615411374161
  0
ARC
  8
0
  6
CONTINUOUS
 62
     7
 10
671.4063720703125
 20
-355.944091796875
 40
6.000000000000024
 50
126.4238645555929
 51
189.9999620293671
  0
ARC
  8
0
  6
CONTINUOUS
 62
     7
 10
545
 20
-362
 40
10
 50
179.999991348578
 51
270.0000006832456
  0
ARC
  8
0
  6
CONTINUOUS
 62
     7
 10
545
 20
-616.2908325195313
 40
9.999999999999964
 50
127.3491502824547
 51
180.0000050089563
  0
ARC
  8
0
  6
CONTINUOUS
 62
     7
 10
576.3798828125
 20
-447.6568298339844
 40
10.00000000000001
 50
232.6508497175455
 51
269.9999974955215
  0
ARC
  8
0
  6
CONTINUOUS
 62
     7
 10
545
 20
-423.7091979980469
 40
10
 50
179.999991348578
 51
232.650859735458
  0
ARC
  8
0
  6
CONTINUOUS
 62
     7
 10
598
 20
-452.6568298339844
 40
5.000000000000004
 50
269.9999974955222
 51
0
  0
ARC
  8
0
  6
CONTINUOUS
 62
     7
 10
576.3798828125
 20
-592.3431396484375
 40
10.00000000000001
 50
90.00000250447847
 51
127.3491502824547
  0
ARC
  8
0
  6
CONTINUOUS
 62
     7
 10
598
 20
-587.3431396484375
 40
5
 50
0
 51
90.00000250447782
  0
CIRCLE
  8
0
  6
CONTINUOUS
 62
     3
 10
681
 20
-520
 40
8.507550239562988
  0
ARC
  8
0
  6
CONTINUOUS
 62
     7
 10
736
 20
-335
 40
31.99999999999999
 50
89.99998201391055
 51
179.9999640278213
  0
ARC
  8
0
  6
CONTINUOUS
 62
     7
 10
741
 20
-340
 40
5.000000000000019
 50
89.99998201391031
 51
179.9999640278213
  0
CIRCLE
  8
0
  6
CONTINUOUS
 62
     7
 10
0
 20
-520
 40
200
  0
ARC
  8
0
  6
CONTINUOUS
 62
     7
 10
0
 20
-520
 40
37.50000000000002
 50
105.4660233138666
 51
74.53398488281326
  0
ARC
  8
0
  6
CONTINUOUS
 62
     3
 10
0
 20
-520
 40
175
 50
333.6566024090428
 51
341.8562240170756
  0
CIRCLE
  8
0
  6
CONTINUOUS
 62
     7
 10
161.678955078125
 20
-586.9696044921875
 40
9.5
  0
ARC
  8
0
  6
CONTINUOUS
 62
     3
 10
0
 20
-520
 40
175
 50
18.6566224443021
 51
26.85623892969302
  0
CIRCLE
  8
0
  6
CONTINUOUS
 62
     7
 10
161.6788940429688
 20
-453.0303955078125
 40
9.5
  0
ARC
  8
0
  6
CONTINUOUS
 62
     3
 10
0
 20
-520
 40
175
 50
63.65661857389931
 51
71.85624018193211
  0
CIRCLE
  8
0
  6
CONTINUOUS
 62
     7
 10
66.9696044921875
 20
-358.3211059570312
 40
9.5
  0
ARC
  8
0
  6
CONTINUOUS
 62
     3
 10
0
 20
-520
 40
175
 50
108.6566164110438
 51
116.8562311888874
  0
CIRCLE
  8
0
  6
CONTINUOUS
 62
     7
 10
-66.9696044921875
 20
-358.3211059570312
 40
9.5
  0
ARC
  8
0
  6
CONTINUOUS
 62
     3
 10
0
 20
-520
 40
175
 50
153.6566074179991
 51
161.8562221958428
  0
CIRCLE
  8
0
  6
CONTINUOUS
 62
     7
 10
-161.678955078125
 20
-453.0303955078125
 40
9.5
  0
ARC
  8
0
  6
CONTINUOUS
 62
     3
 10
0
 20
-520
 40
175
 50
198.6566157277985
 51
206.8562305056421
  0
CIRCLE
  8
0
  6
CONTINUOUS
 62
     7
 10
-161.678955078125
 20
-586.9696044921875
 40
9.5
  0
ARC
  8
0
  6
CONTINUOUS
 62
     3
 10
0
 20
-520
 40
175
 50
243.6566067347538
 51
251.8562283427866
  0
CIRCLE
  8
0
  6
CONTINUOUS
 62
     7
 10
-66.9696044921875
 20
-681.678955078125
 40
9.5
  0
ARC
  8
0
  6
CONTINUOUS
 62
     3
 10
0
 20
-520
 40
175.0000000000001
 50
288.6566045718983
 51
296.8562261799311
  0
CIRCLE
  8
0
  6
CONTINUOUS
 62
     7
 10
66.9696044921875
 20
-681.678955078125
 40
9.5
  0
CIRCLE
  8
0
  6
CONTINUOUS
 62
     7
 10
0
 20
-520
 40
75
  0
CIRCLE
  8
0
  6
CONTINUOUS
 62
     7
 10
0
 20
-520
 40
110
  0
ARC
  8
0
  6
CONTINUOUS
 62
     3
 10
0
 20
-520
 40
95
 50
355.1693713345101
 51
4.830628665489865
  0
ARC
  8
0
  6
CONTINUOUS
 62
     3
 10
0
 20
-520
 40
95.00000000000001
 50
55.16937086972811
 51
64.83062563938695
  0
ARC
  8
0
  6
CONTINUOUS
 62
     3
 10
0
 20
-520
 40
95
 50
115.169365709191
 51
124.8306273090391
  0
ARC
  8
0
  6
CONTINUOUS
 62
     3
 10
0
 20
-520
 40
95
 50
175.1693673788431
 51
184.8306289786912
  0
ARC
  8
0
  6
CONTINUOUS
 62
     3
 10
0
 20
-520
 40
95.00000000000001
 50
235.1693726909609
 51
244.8306342908089
  0
ARC
  8
0
  6
CONTINUOUS
 62
     3
 10
0
 20
-520
 40
94.99999999999997
 50
295.1693743606131
 51
304.8306291302719
  0
CIRCLE
  8
0
  6
CONTINUOUS
 62
     3
 10
0
 20
-520
 40
8
  0
CIRCLE
  8
0
  6
CONTINUOUS
 62
     7
 10
0
 20
-520
 40
7
  0
ARC
  8
0
  6
CONTINUOUS
 62
     7
 10
0
 20
-520
 40
150
 50
13.00753690632463
 51
186.9924658132702
  0
ARC
  8
0
  6
CONTINUOUS
 62
     7
 10
0
 20
-520
 40
142
 50
16.87726083531811
 51
183.1227401767295
  0
CIRCLE
  8
0
  6
CONTINUOUS
 62
     7
 10
-130.4869995117188
 20
-543.0083618164063
 40
19
  0
CIRCLE
  8
0
  6
CONTINUOUS
 62
     7
 10
130.4869995117188
 20
-496.9916076660156
 40
19
  0
ARC
  8
0
  6
CONTINUOUS
 62
     7
 10
0
 20
-520
 40
142
 50
196.8772558263618
 51
3.122739223197954
  0
ARC
  8
0
  6
CONTINUOUS
 62
     7
 10
0
 20
-520
 40
150
 50
193.0075438501993
 51
6.992462938748019
  0
ARC
  8
0
  6
CONTINUOUS
 62
     7
 10
908
 20
4.177179562248057E-06
 40
4
 50
90.00002299504598
 51
270.0000006832446
  0
ARC
  8
0
  6
CONTINUOUS
 62
     7
 10
856
 20
49.68854522705078
 40
4.999999999999943
 50
180.000008651422
 51
250.0000288131876
  0
ARC
  8
0
  6
CONTINUOUS
 62
     7
 10
856
 20
-49.68849945068359
 40
4.999999999999991
 50
109.9999233754883
 51
179.9999503674429
  0
ARC
  8
0
  6
CONTINUOUS
 62
     7
 10
652.9999389648438
 20
7.11881011739024E-06
 40
12.50000000000001
 50
203.5781631757645
 51
336.4218215699954
  0
ARC
  8
0
  6
CONTINUOUS
 62
     7
 10
741
 20
102.918342590332
 40
5
 50
0
 51
84.99987373011112
  0
ARC
  8
0
  6
CONTINUOUS
 62
     7
 10
741
 20
-102.918327331543
 40
4.999999999999996
 50
275.0001331000777
 51
0
  0
ARC
  8
0
  6
CONTINUOUS
 62
     7
 10
728
 20
-114.093864440918
 40
5.000000000000004
 50
95.00015859960162
 51
179.9999640278213
  0
ARC
  8
0
  6
CONTINUOUS
 62
     7
 10
728
 20
114.093879699707
 40
5.000000000000038
 50
179.9999776881996
 51
264.9998650786887
  0
ARC
  8
0
  6
CONTINUOUS
 62
     7
 10
708
 20
8.666379471833352E-06
 40
29.99999999999999
 50
304.8498834335421
 51
327.7690578916672
  0
ARC
  8
0
  6
CONTINUOUS
 62
     7
 10
728
 20
28.72284889221191
 40
5.000000000000038
 50
179.9999776881997
 51
235.1501079150353
  0
ARC
  8
0
  6
CONTINUOUS
 62
     7
 10
728
 20
-28.72276878356934
 40
5.000000000000026
 50
124.8500796877957
 51
179.9999640278213
  0
ARC
  8
0
  6
CONTINUOUS
 62
     7
 10
653
 20
7.118811481632292E-06
 40
20.13370323181152
 50
14.37929160866249
 51
165.620708277652
  0
ARC
  8
0
  6
CONTINUOUS
 62
     7
 10
653
 20
7.118811481632292E-06
 40
20.13370323181157
 50
194.379291722348
 51
345.6207083913375
  0
ARC
  8
0
  6
CONTINUOUS
 62
     7
 10
652.9999389648438
 20
7.11881011739024E-06
 40
12.5
 50
23.57817843000461
 51
156.4218368242355
  0
ARC
  8
0
  6
CONTINUOUS
 62
     7
 10
632.9999389648437
 20
6.556057996931486E-06
 40
5
 50
89.99998201391031
 51
270.0000006832456
  0
ARC
  8
0
  6
CONTINUOUS
 62
     7
 10
672.9999389648438
 20
7.681562237848993E-06
 40
5
 50
270.0000179860897
 51
89.99998201391031
  0
ARC
  8
0
  6
CONTINUOUS
 62
     7
 10
576.3798828125
 20
72.34314727783203
 40
9.999999999999998
 50
232.6508497175454
 51
269.9999974955215
  0
ARC
  8
0
  6
CONTINUOUS
 62
     7
 10
545
 20
96.29084014892578
 40
10
 50
179.999991348578
 51
232.6508597354581
  0
ARC
  8
0
  6
CONTINUOUS
 62
     7
 10
598
 20
67.34314727783203
 40
4.999999999999997
 50
269.9999974955222
 51
0
  0
ARC
  8
0
  6
CONTINUOUS
 62
     7
 10
576.3799438476562
 20
-72.34313201904297
 40
10
 50
90.00000250447847
 51
127.3491502824545
  0
ARC
  8
0
  6
CONTINUOUS
 62
     7
 10
598
 20
-67.34313201904297
 40
5
 50
0
 51
90.00000250447782
  0
ARC
  8
0
  6
CONTINUOUS
 62
     7
 10
545
 20
-96.29082489013672
 40
10.00000000000001
 50
127.3491502824545
 51
180.0000050089563
  0
ARC
  8
0
  6
CONTINUOUS
 62
     7
 10
495
 20
2.673071548997541E-06
 40
10
 50
270.0000179860893
 51
89.99998201391064
  0
CIRCLE
  8
0
  6
CONTINUOUS
 62
     7
 10
575
 20
4.92407934871153E-06
 40
13.5
  0
ARC
  8
0
  6
CONTINUOUS
 62
     7
 10
720
 20
9.004030289361253E-06
 40
16
 50
89.99998201391055
 51
270.0000006832454
  0
ARC
  8
0
  6
CONTINUOUS
 62
     7
 10
708
 20
8.666379471833352E-06
 40
29.99999999999996
 50
32.23094210833278
 51
55.15011656645787
  0
POLYLINE
  8
0
  6
CONTINUOUS
 62
     7
 66
     1
 10
0
 20
0
  0
VERTEX
  8
0
  6
CONTINUOUS
 62
     7
 10
502.0004784336099
 20
-399.2489833012394
 42
-0.1887438261067404
  0
VERTEX
  8
0
  6
CONTINUOUS
 62
     7
 10
515.051939843289
 20
-420.648789049435
 42
-0.06038154194833921
  0
VERTEX
  8
0
  6
CONTINUOUS
 62
     7
 10
515.6954407488979
 20
-446.2089026389468
 42
-0.0004322094772693455
  0
VERTEX
  8
0
  6
CONTINUOUS
 62
     7
 10
514.1862877717592
 20
-471.8004336457473
 42
0.008397338895544306
  0
VERTEX
  8
0
  6
CONTINUOUS
 62
     7
 10
513.0761581527086
 20
-497.4113338886147
 42
0.0177981016005773
  0
VERTEX
  8
0
  6
CONTINUOUS
 62
     7
 10
513.3110460765879
 20
-523.0406182957988
 42
0.01884773853434731
  0
VERTEX
  8
0
  6
CONTINUOUS
 62
     7
 10
515.6108054301302
 20
-548.5670107767883
 42
-0.02521594289077523
  0
VERTEX
  8
0
  6
CONTINUOUS
 62
     7
 10
517.6467007706173
 20
-574.1104424876518
 42
-0.07191649279413735
  0
VERTEX
  8
0
  6
CONTINUOUS
 62
     7
 10
514.7201551471846
 20
-599.4892622140839
 42
-0.136447472281352
  0
VERTEX
  8
0
  6
CONTINUOUS
 62
     7
 10
502.0005696393021
 20
-621.3925060611157
 42
0
  0
SEQEND
  8
0
  0
POLYLINE
  8
0
  6
CONTINUOUS
 62
     7
 66
     1
 10
0
 20
0
  0
VERTEX
  8
0
  6
CONTINUOUS
 62
     7
 10
502.0004520901811
 20
97.36923546788877
 42
-0.2005715994205281
  0
VERTEX
  8
0
  6
CONTINUOUS
 62
     7
 10
515.9153619859572
 20
80.30384982455922
 42
-0.08979221210164592
  0
VERTEX
  8
0
  6
CONTINUOUS
 62
     7
 10
516.7932488930641
 20
57.85379605929178
 42
0.01006572111062354
  0
VERTEX
  8
0
  6
CONTINUOUS
 62
     7
 10
514.5455855208115
 20
35.37203256416519
 42
0.0179733939484662
  0
VERTEX
  8
0
  6
CONTINUOUS
 62
     7
 10
513.7961173985411
 20
12.79354466239935
 42
0.01311236202344234
  0
VERTEX
  8
0
  6
CONTINUOUS
 62
     7
 10
514.4686460828011
 20
-9.789901460925398
 42
0.000180531885793886
  0
VERTEX
  8
0
  6
CONTINUOUS
 62
     7
 10
515.8135941408451
 20
-32.34514550221681
 42
-0.01242988916825689
  0
VERTEX
  8
0
  6
CONTINUOUS
 62
     7
 10
516.5531343012221
 20
-54.92569771198968
 42
-0.052604704636567
  0
VERTEX
  8
0
  6
CONTINUOUS
 62
     7
 10
514.9521166764368
 20
-77.41981821789589
 42
-0.2794032108806433
  0
VERTEX
  8
0
  6
CONTINUOUS
 62
     7
 10
502.0011145985991
 20
-94.56840884217064
 42
0
  0
SEQEND
  8
0
  0
TEXT
  8
0
  6
CONTINUOUS
 62
     7
 10
-115.7143092155457
 20
-15
 40
30
 41
0.8455557608891895
  1
ＥＲＶ－＿ＮＣＥ
  0
ENDSEC
  0
EOF
