  0
SECTION
  2
HEADER
  0
ENDSEC
  0
SECTION
  2
TABLES
  0
TABLE
  2
LTYPE
 70
    22
  0
LTYPE
  2
CONTINUOUS
 70
    64
  3
Solid line
 72
    65
 73
     0
 40
0.000000
  0
LTYPE
  2
DASHED
 70
    64
  3
__ __ __ __ __ __ __ __ __ __ __ __ __ __ __
 72
    65
 73
     2
 40
3.500000
 49
2.000000
 49
-1.500000
  0
LTYPE
  2
CENTER
 70
    64
  3
____ _ ____ _ ____ _ ____ _ ____ _ ____ _ ____
 72
    65
 73
     4
 40
17.500000
 49
13.000000
 49
-1.500000
 49
1.500000
 49
-1.500000
  0
LTYPE
  2
PHANTOM
 70
    64
  3
_____ _ _ _____ _ _ _____ _ _ _____ _ _ ____  
 72
    65
 73
     6
 40
15.500000
 49
8.000000
 49
-1.500000
 49
1.500000
 49
-1.500000
 49
1.500000
 49
-1.500000
  0
LTYPE
  2
DOT
 70
    64
  3
. . . . . . . . . . . . . . . . . . . . . . . .
 72
    65
 73
     2
 40
0.25
 49
0.0
 49
-0.25
  0
ENDTAB
  0
TABLE
  2
LAYER
 70
     1
  0
LAYER
  2
0
 70
     0
 62
     7
  6
CONTINUOUS
  0
ENDTAB
  0
TABLE
  2
STYLE
 70
     1
  0
STYLE
  2
STANDARD
 70
     0
 40
0.000000
 41
1.000000
 50
0.000000
 71
     0
 42
0.200000
  3
txt
  4
BIGFONT
  0
ENDTAB
  0
TABLE
  2
VIEW
 70
     0
  0
ENDTAB
  0
ENDSEC
  0
SECTION
  2
BLOCKS
  0
ENDSEC
  0
SECTION
  2
ENTITIES
  0
LINE
  8
0
  6
CONTINUOUS
 62
     3
 10
285
 20
-350
 11
610
 21
-350
  0
LINE
  8
0
  6
CONTINUOUS
 62
     7
 10
494
 20
-257.5
 11
494
 21
-442.5
  0
LINE
  8
0
  6
CONTINUOUS
 62
     7
 10
444
 20
-257.5
 11
444
 21
-442.5
  0
LINE
  8
0
  6
CONTINUOUS
 62
     7
 10
448
 20
-445
 11
490
 21
-445
  0
LINE
  8
0
  6
CONTINUOUS
 62
     7
 10
448
 20
-255
 11
490
 21
-255
  0
LINE
  8
0
  6
CONTINUOUS
 62
     7
 10
448.0000610351562
 20
-255.0000915527344
 11
444.0000610351562
 21
-259.0000915527344
  0
LINE
  8
0
  6
CONTINUOUS
 62
     7
 10
443.9999694824219
 20
-440.9999084472656
 11
447.9999694824219
 21
-444.9999084472656
  0
LINE
  8
0
  6
CONTINUOUS
 62
     7
 10
490.0000305175781
 20
-445.0000305175781
 11
494.0000305175781
 21
-441.0000305175781
  0
LINE
  8
0
  6
CONTINUOUS
 62
     7
 10
493.9999694824219
 20
-259
 11
489.9999694824219
 21
-255
  0
LINE
  8
0
  6
CONTINUOUS
 62
     7
 10
448
 20
-312.3461303710937
 11
490
 21
-312.3461303710937
  0
LINE
  8
0
  6
CONTINUOUS
 62
     7
 10
448
 20
-323.7876892089844
 11
490
 21
-323.7876892089844
  0
LINE
  8
0
  6
CONTINUOUS
 62
     7
 10
448
 20
-333.5312194824219
 11
490
 21
-333.5312194824219
  0
LINE
  8
0
  6
CONTINUOUS
 62
     7
 10
448
 20
-345.0005187988281
 11
490
 21
-345.0005187988281
  0
LINE
  8
0
  6
CONTINUOUS
 62
     7
 10
448
 20
-355.0001220703125
 11
490
 21
-355.0001220703125
  0
LINE
  8
0
  6
CONTINUOUS
 62
     7
 10
448
 20
-366.4694519042969
 11
490
 21
-366.4694519042969
  0
LINE
  8
0
  6
CONTINUOUS
 62
     7
 10
448
 20
-376.2124633789062
 11
490
 21
-376.2124633789062
  0
LINE
  8
0
  6
CONTINUOUS
 62
     7
 10
448
 20
-387.6537170410156
 11
490
 21
-387.6537170410156
  0
LINE
  8
0
  6
CONTINUOUS
 62
     7
 10
448
 20
-406.7067260742187
 11
490
 21
-406.7067260742187
  0
LINE
  8
0
  6
CONTINUOUS
 62
     7
 10
448
 20
-415.9718017578125
 11
490
 21
-415.9718017578125
  0
LINE
  8
0
  6
CONTINUOUS
 62
     7
 10
448
 20
-422.7931823730469
 11
490
 21
-422.7931823730469
  0
LINE
  8
0
  6
CONTINUOUS
 62
     7
 10
448
 20
-429.6584777832031
 11
490
 21
-429.6584777832031
  0
LINE
  8
0
  6
CONTINUOUS
 62
     7
 10
448
 20
-434.6587219238281
 11
490
 21
-434.6587219238281
  0
LINE
  8
0
  6
CONTINUOUS
 62
     7
 10
448
 20
-439.26123046875
 11
490
 21
-439.26123046875
  0
LINE
  8
0
  6
CONTINUOUS
 62
     7
 10
504
 20
-257.5
 11
504
 21
-442.5
  0
LINE
  8
0
  6
CONTINUOUS
 62
     7
 10
504
 20
-257.5
 11
494
 21
-257.5
  0
LINE
  8
0
  6
CONTINUOUS
 62
     7
 10
504
 20
-442.5
 11
494
 21
-442.5
  0
LINE
  8
0
  6
CONTINUOUS
 62
     7
 10
551
 20
-310
 11
521
 21
-310
  0
LINE
  8
0
  6
CONTINUOUS
 62
     7
 10
551
 20
-390
 11
521
 21
-390
  0
LINE
  8
0
  6
CONTINUOUS
 62
     7
 10
551
 20
-310
 11
551
 21
-390
  0
LINE
  8
0
  6
CONTINUOUS
 62
     7
 10
521
 20
-390.0000305175781
 11
507.2898864746094
 21
-394.9900817871094
  0
LINE
  8
0
  6
CONTINUOUS
 62
     7
 10
521
 20
-310
 11
507.2898864746094
 21
-305.0099487304687
  0
LINE
  8
0
  6
CONTINUOUS
 62
     7
 10
595
 20
-335
 11
595
 21
-362
  0
LINE
  8
0
  6
CONTINUOUS
 62
     7
 10
555
 20
-335
 11
555
 21
-365
  0
LINE
  8
0
  6
CONTINUOUS
 62
     7
 10
595
 20
-338
 11
555
 21
-338
  0
LINE
  8
0
  6
CONTINUOUS
 62
     7
 10
595
 20
-362
 11
555
 21
-362
  0
LINE
  8
0
  6
CONTINUOUS
 62
     7
 10
555
 20
-335
 11
551
 21
-335
  0
LINE
  8
0
  6
CONTINUOUS
 62
     7
 10
555
 20
-365
 11
551
 21
-365
  0
LINE
  8
0
  6
CONTINUOUS
 62
     7
 10
563
 20
-335
 11
563
 21
-338
  0
LINE
  8
0
  6
CONTINUOUS
 62
     7
 10
595
 20
-335
 11
563
 21
-335
  0
LINE
  8
0
  6
CONTINUOUS
 62
     7
 10
355
 20
-475
 11
355
 21
-387.6370849609375
  0
LINE
  8
0
  6
CONTINUOUS
 62
     7
 10
355
 20
-475
 11
373
 21
-475
  0
LINE
  8
0
  6
CONTINUOUS
 62
     7
 10
373
 20
-475
 11
373
 21
-225
  0
LINE
  8
0
  6
CONTINUOUS
 62
     7
 10
429
 20
-442.5
 11
429
 21
-287.9859008789062
  0
LINE
  8
0
  6
CONTINUOUS
 62
     7
 10
429
 20
-442.5
 11
444
 21
-442.5
  0
LINE
  8
0
  6
CONTINUOUS
 62
     7
 10
355
 20
-225
 11
373
 21
-225
  0
LINE
  8
0
  6
CONTINUOUS
 62
     7
 10
429
 20
-257.5
 11
444
 21
-257.5
  0
LINE
  8
0
  6
CONTINUOUS
 62
     7
 10
373
 20
-310.1224365234375
 11
420.4739990234375
 21
-310.1224365234375
  0
LINE
  8
0
  6
CONTINUOUS
 62
     7
 10
420.4739990234375
 20
-310.1224365234375
 11
429
 21
-305.8040161132812
  0
LINE
  8
0
  6
CONTINUOUS
 62
     7
 10
373
 20
-389.8775634765625
 11
420.4739990234375
 21
-389.8775634765625
  0
LINE
  8
0
  6
CONTINUOUS
 62
     7
 10
420.4739685058594
 20
-389.8775634765625
 11
428.9999694824219
 21
-394.1959838867188
  0
LINE
  8
0
  6
CONTINUOUS
 62
     7
 10
372.9999389648437
 20
-427.3218688964844
 11
428.9999694824219
 21
-408.6474609375
  0
LINE
  8
0
  6
CONTINUOUS
 62
     7
 10
372.9999694824219
 20
-434.1417846679687
 11
429
 21
-415.4673767089844
  0
LINE
  8
0
  6
CONTINUOUS
 62
     7
 10
372.9999084472656
 20
-272.67822265625
 11
414
 21
-285.1602478027344
  0
LINE
  8
0
  6
CONTINUOUS
 62
     7
 10
373.0000610351562
 20
-265.8581848144531
 11
410.826904296875
 21
-277.1973571777344
  0
LINE
  8
0
  6
CONTINUOUS
 62
     7
 10
414
 20
-285.1602783203125
 11
427.0078125
 21
-285.1602783203125
  0
LINE
  8
0
  6
CONTINUOUS
 62
     7
 10
300
 20
-369
 11
300
 21
-328
  0
LINE
  8
0
  6
CONTINUOUS
 62
     7
 10
351
 20
-440
 11
351
 21
-390.2865600585938
  0
LINE
  8
0
  6
CONTINUOUS
 62
     7
 10
351
 20
-440
 11
355
 21
-440
  0
LINE
  8
0
  6
CONTINUOUS
 62
     7
 10
351
 20
-260
 11
355
 21
-260
  0
LINE
  8
0
  6
CONTINUOUS
 62
     7
 10
300
 20
-331
 11
355
 21
-331
  0
LINE
  8
0
  6
CONTINUOUS
 62
     7
 10
300
 20
-369
 11
355
 21
-369
  0
LINE
  8
0
  6
CONTINUOUS
 62
     7
 10
355
 20
-372.5
 11
355
 21
-327.5
  0
LINE
  8
0
  6
CONTINUOUS
 62
     7
 10
355
 20
-372.5
 11
362.6358642578125
 21
-372.5
  0
LINE
  8
0
  6
CONTINUOUS
 62
     7
 10
355
 20
-327.5
 11
363.4695434570313
 21
-327.5
  0
LINE
  8
0
  6
CONTINUOUS
 62
     7
 10
351
 20
-288.0552368164062
 11
351
 21
-260
  0
LINE
  8
0
  6
CONTINUOUS
 62
     7
 10
355
 20
-289.598388671875
 11
355
 21
-225
  0
LINE
  8
0
  6
CONTINUOUS
 62
     7
 10
300
 20
-328
 11
345
 21
-328
  0
LINE
  8
0
  6
CONTINUOUS
 62
     7
 10
345
 20
-331
 11
345
 21
-328
  0
LINE
  8
0
  6
CONTINUOUS
 62
     7
 10
429
 20
-263.7052001953125
 11
429
 21
-257.5
  0
LINE
  8
0
  6
CONTINUOUS
 62
     7
 10
413.260498046875
 20
-276.0184631347656
 11
414.475830078125
 21
-272.9518432617187
  0
LINE
  8
0
  6
CONTINUOUS
 62
     3
 10
-135.9435424804688
 20
-350
 11
141.7079162597656
 21
-350
  0
LINE
  8
0
  6
CONTINUOUS
 62
     7
 10
5
 20
-336
 11
5
 21
-328
  0
LINE
  8
0
  6
CONTINUOUS
 62
     7
 10
-5
 20
-336
 11
-5
 21
-328
  0
LINE
  8
0
  6
CONTINUOUS
 62
     7
 10
-5
 20
-336
 11
5
 21
-336
  0
LINE
  8
0
  6
CONTINUOUS
 62
     7
 10
-5
 20
-328
 11
5
 21
-328
  0
LINE
  8
0
  6
CONTINUOUS
 62
     3
 10
0
 20
-200
 11
0
 21
-500
  0
LINE
  8
0
  6
CONTINUOUS
 62
     3
 10
285
 20
0
 11
610
 21
0
  0
LINE
  8
0
  6
CONTINUOUS
 62
     7
 10
448
 20
-95
 11
490
 21
-95
  0
LINE
  8
0
  6
CONTINUOUS
 62
     7
 10
448
 20
95
 11
490
 21
95
  0
LINE
  8
0
  6
CONTINUOUS
 62
     7
 10
448.0001831054688
 20
94.99987030029297
 11
444.0001831054688
 21
90.99986267089844
  0
LINE
  8
0
  6
CONTINUOUS
 62
     7
 10
443.9999694824219
 20
-90.99990844726563
 11
447.9999694824219
 21
-94.99991607666016
  0
LINE
  8
0
  6
CONTINUOUS
 62
     7
 10
490.0000915527344
 20
-95.00006103515625
 11
494.0000915527344
 21
-91.00006103515625
  0
LINE
  8
0
  6
CONTINUOUS
 62
     7
 10
493.9999694824219
 20
91.00004577636719
 11
489.9999694824219
 21
95.00004577636719
  0
LINE
  8
0
  6
CONTINUOUS
 62
     7
 10
447.9999694824219
 20
87.21896362304687
 11
490.0000915527344
 21
87.21896362304687
  0
LINE
  8
0
  6
CONTINUOUS
 62
     7
 10
447.9999694824219
 20
76.21878051757812
 11
490.0000915527344
 21
76.21878051757812
  0
LINE
  8
0
  6
CONTINUOUS
 62
     7
 10
447.9999694824219
 20
68.35662841796875
 11
490.0000915527344
 21
68.35662841796875
  0
LINE
  8
0
  6
CONTINUOUS
 62
     7
 10
447.9999694824219
 20
61.04364013671875
 11
490.0000915527344
 21
61.04364013671875
  0
LINE
  8
0
  6
CONTINUOUS
 62
     7
 10
447.9999694824219
 20
51.76449584960938
 11
490.0000915527344
 21
51.76449584960938
  0
LINE
  8
0
  6
CONTINUOUS
 62
     7
 10
447.9999694824219
 20
43.10443115234375
 11
490.0000915527344
 21
43.10443115234375
  0
LINE
  8
0
  6
CONTINUOUS
 62
     7
 10
447.9999694824219
 20
32.51864624023438
 11
490.0000915527344
 21
32.51864624023438
  0
LINE
  8
0
  6
CONTINUOUS
 62
     7
 10
447.9999694824219
 20
22.95574951171875
 11
490.0000915527344
 21
22.95574951171875
  0
LINE
  8
0
  6
CONTINUOUS
 62
     7
 10
447.9999694824219
 20
11.00006103515625
 11
490.0000915527344
 21
11.00006103515625
  0
LINE
  8
0
  6
CONTINUOUS
 62
     7
 10
447.9999694824219
 20
-87.21929931640625
 11
490.0000915527344
 21
-87.21929931640625
  0
LINE
  8
0
  6
CONTINUOUS
 62
     7
 10
504
 20
92.5
 11
504
 21
-92.50001525878906
  0
LINE
  8
0
  6
CONTINUOUS
 62
     7
 10
504
 20
92.5
 11
494
 21
92.5
  0
LINE
  8
0
  6
CONTINUOUS
 62
     7
 10
494
 20
92.5
 11
494
 21
-92.50001525878906
  0
LINE
  8
0
  6
CONTINUOUS
 62
     7
 10
551
 20
40
 11
521
 21
40
  0
LINE
  8
0
  6
CONTINUOUS
 62
     7
 10
551
 20
-40
 11
521
 21
-40
  0
LINE
  8
0
  6
CONTINUOUS
 62
     7
 10
551
 20
40
 11
551
 21
-40
  0
LINE
  8
0
  6
CONTINUOUS
 62
     7
 10
521
 20
-40.00000762939453
 11
507.2898864746094
 21
-44.99008178710938
  0
LINE
  8
0
  6
CONTINUOUS
 62
     7
 10
521
 20
39.99995040893555
 11
507.2899169921875
 21
44.99002075195312
  0
LINE
  8
0
  6
CONTINUOUS
 62
     7
 10
595
 20
12
 11
595
 21
-12
  0
LINE
  8
0
  6
CONTINUOUS
 62
     7
 10
555
 20
15
 11
555
 21
-15
  0
LINE
  8
0
  6
CONTINUOUS
 62
     7
 10
595
 20
12
 11
555
 21
12
  0
LINE
  8
0
  6
CONTINUOUS
 62
     7
 10
595
 20
-12
 11
555
 21
-12
  0
LINE
  8
0
  6
CONTINUOUS
 62
     7
 10
555
 20
15
 11
551
 21
15
  0
LINE
  8
0
  6
CONTINUOUS
 62
     7
 10
555
 20
-15
 11
551
 21
-15
  0
LINE
  8
0
  6
CONTINUOUS
 62
     7
 10
595
 20
-4
 11
561
 21
-4
  0
LINE
  8
0
  6
CONTINUOUS
 62
     7
 10
595
 20
4
 11
561
 21
4
  0
LINE
  8
0
  6
CONTINUOUS
 62
     7
 10
563
 20
4
 11
563
 21
-4
  0
LINE
  8
0
  6
CONTINUOUS
 62
     7
 10
504
 20
-92.50001525878906
 11
494
 21
-92.50001525878906
  0
LINE
  8
0
  6
CONTINUOUS
 62
     7
 10
355
 20
125.0000305175781
 11
355
 21
33.59185791015625
  0
LINE
  8
0
  6
CONTINUOUS
 62
     7
 10
355
 20
125.0000305175781
 11
373
 21
125.0000305175781
  0
LINE
  8
0
  6
CONTINUOUS
 62
     7
 10
373
 20
125.0000305175781
 11
373
 21
-125.0000305175781
  0
LINE
  8
0
  6
CONTINUOUS
 62
     7
 10
444
 20
92.50003051757812
 11
444
 21
-92.50003051757812
  0
LINE
  8
0
  6
CONTINUOUS
 62
     7
 10
429
 20
92.50003051757812
 11
429
 21
-37.98123168945312
  0
LINE
  8
0
  6
CONTINUOUS
 62
     7
 10
429
 20
92.50003051757812
 11
444
 21
92.50003051757812
  0
LINE
  8
0
  6
CONTINUOUS
 62
     7
 10
355
 20
-125.0000305175781
 11
373
 21
-125.0000305175781
  0
LINE
  8
0
  6
CONTINUOUS
 62
     7
 10
429
 20
-92.50003051757812
 11
444
 21
-92.50003051757812
  0
LINE
  8
0
  6
CONTINUOUS
 62
     7
 10
429
 20
-68.13046264648438
 11
429
 21
-92.50003051757812
  0
LINE
  8
0
  6
CONTINUOUS
 62
     7
 10
378
 20
13.4346923828125
 11
424
 21
13.4346923828125
  0
LINE
  8
0
  6
CONTINUOUS
 62
     7
 10
373
 20
78.94038391113281
 11
429
 21
64.60028076171875
  0
LINE
  8
0
  6
CONTINUOUS
 62
     7
 10
373
 20
71.62685394287109
 11
429.0000305175781
 21
57.28675079345703
  0
LINE
  8
0
  6
CONTINUOUS
 62
     7
 10
373
 20
-36.42343139648437
 11
408.7266845703125
 21
-36.42343139648437
  0
LINE
  8
0
  6
CONTINUOUS
 62
     7
 10
378
 20
40.11474609375
 11
424
 21
40.11474609375
  0
LINE
  8
0
  6
CONTINUOUS
 62
     7
 10
409.164306640625
 20
-38.8490104675293
 11
414.4541015625
 21
-56.05632400512695
  0
LINE
  8
0
  6
CONTINUOUS
 62
     7
 10
414.9172973632812
 20
-57.28677368164062
 11
414
 21
-57.28677368164062
  0
LINE
  8
0
  6
CONTINUOUS
 62
     7
 10
423.862060546875
 20
-64.60031127929688
 11
414
 21
-64.60031127929688
  0
LINE
  8
0
  6
CONTINUOUS
 62
     7
 10
373
 20
-71.62687683105469
 11
414
 21
-57.28676986694336
  0
LINE
  8
0
  6
CONTINUOUS
 62
     7
 10
373
 20
-78.94042205810547
 11
414
 21
-64.60031890869141
  0
LINE
  8
0
  6
CONTINUOUS
 62
     7
 10
351
 20
90.00003051757813
 11
355
 21
90.00003051757813
  0
LINE
  8
0
  6
CONTINUOUS
 62
     7
 10
351
 20
-90
 11
355
 21
-90
  0
LINE
  8
0
  6
CONTINUOUS
 62
     7
 10
351
 20
90.00003051757813
 11
351
 21
37.5
  0
LINE
  8
0
  6
CONTINUOUS
 62
     7
 10
300
 20
19
 11
300
 21
-19
  0
LINE
  8
0
  6
CONTINUOUS
 62
     7
 10
300
 20
-19
 11
355
 21
-19
  0
LINE
  8
0
  6
CONTINUOUS
 62
     7
 10
300
 20
19
 11
355
 21
19
  0
LINE
  8
0
  6
CONTINUOUS
 62
     7
 10
355
 20
22.5
 11
355
 21
-22.5
  0
LINE
  8
0
  6
CONTINUOUS
 62
     7
 10
355
 20
22.5
 11
360.6290893554687
 21
22.5
  0
LINE
  8
0
  6
CONTINUOUS
 62
     7
 10
355
 20
-22.5
 11
359.8729553222656
 21
-22.5
  0
LINE
  8
0
  6
CONTINUOUS
 62
     7
 10
351
 20
-37.5
 11
351
 21
-90
  0
LINE
  8
0
  6
CONTINUOUS
 62
     7
 10
355
 20
-33.92364501953125
 11
355
 21
-125.0000305175781
  0
LINE
  8
0
  6
CONTINUOUS
 62
     7
 10
300
 20
5
 11
348
 21
5
  0
LINE
  8
0
  6
CONTINUOUS
 62
     7
 10
300
 20
-5
 11
348
 21
-5
  0
LINE
  8
0
  6
CONTINUOUS
 62
     7
 10
345
 20
5
 11
345
 21
-5
  0
LINE
  8
0
  6
CONTINUOUS
 62
     7
 10
420.4740295410156
 20
-23.8505973815918
 11
429
 21
-25.7551212310791
  0
ARC
  8
0
  6
CONTINUOUS
 62
     7
 10
509
 20
-399.6885375976562
 40
5.000000000000026
 50
109.999937035867
 51
179.9999640278213
  0
ARC
  8
0
  6
CONTINUOUS
 62
     7
 10
509
 20
-300.3114624023438
 40
5.00000000000002
 50
180.0000359721788
 51
250.0000766245117
  0
ARC
  8
0
  6
CONTINUOUS
 62
     7
 10
426
 20
-287.9859008789062
 40
3
 50
0
 51
83.32966025161151
  0
ARC
  8
0
  6
CONTINUOUS
 62
     7
 10
427
 20
-263.7052001953125
 40
2.000000000000026
 50
274.6009085430908
 51
0
  0
ARC
  8
0
  6
CONTINUOUS
 62
     7
 10
411.4011840820312
 20
-275.2816162109375
 40
2.000000000000009
 50
253.31310769275
 51
338.3808769183058
  0
CIRCLE
  8
0
  6
CONTINUOUS
 62
     7
 10
0
 20
-350
 40
125
  0
ARC
  8
0
  6
CONTINUOUS
 62
     7
 10
0
 20
-350
 40
18.99999999999999
 50
105.2575386196411
 51
74.74246957703872
  0
CIRCLE
  8
0
  6
CONTINUOUS
 62
     7
 10
0
 20
-350
 40
90
  0
CIRCLE
  8
0
  6
CONTINUOUS
 62
     7
 10
0
 20
-350
 40
85
  0
ARC
  8
0
  6
CONTINUOUS
 62
     3
 10
0
 20
-350
 40
107.5
 50
355.0920924398065
 51
5.110231423787627
  0
CIRCLE
  8
0
  6
CONTINUOUS
 62
     7
 10
107.5
 20
-350
 40
7.5
  0
CIRCLE
  8
0
  6
CONTINUOUS
 62
     7
 10
0
 20
-242.5
 40
7.5
  0
ARC
  8
0
  6
CONTINUOUS
 62
     3
 10
0
 20
-350
 40
107.5
 50
85.0920812839063
 51
95.11021343769831
  0
CIRCLE
  8
0
  6
CONTINUOUS
 62
     7
 10
-107.5
 20
-350
 40
7.5
  0
ARC
  8
0
  6
CONTINUOUS
 62
     3
 10
0
 20
-350
 40
107.5
 50
175.0920906185736
 51
185.1102022817981
  0
CIRCLE
  8
0
  6
CONTINUOUS
 62
     7
 10
0
 20
-457.5
 40
7.5
  0
ARC
  8
0
  6
CONTINUOUS
 62
     3
 10
0
 20
-350
 40
107.5
 50
265.0920967655175
 51
275.1102357494987
  0
ARC
  8
0
  6
CONTINUOUS
 62
     7
 10
509
 20
-49.68853759765625
 40
5.000000000000005
 50
109.9999370358671
 51
179.9999640278213
  0
ARC
  8
0
  6
CONTINUOUS
 62
     7
 10
509
 20
49.68850708007812
 40
5.00000000000002
 50
180.0000359721786
 51
250.0000766245117
  0
ARC
  8
0
  6
CONTINUOUS
 62
     7
 10
561
 20
0
 40
4
 50
89.99998201391097
 51
269.9999460417313
  0
ARC
  8
0
  6
CONTINUOUS
 62
     7
 10
378
 20
45.11474609375
 40
5
 50
179.999991348578
 51
270.0000006832456
  0
ARC
  8
0
  6
CONTINUOUS
 62
     7
 10
424
 20
45.11474609375
 40
4.999999999999997
 50
269.9999974955215
 51
0
  0
ARC
  8
0
  6
CONTINUOUS
 62
     7
 10
378
 20
18.4346923828125
 40
5
 50
179.999991348578
 51
270.0000006832456
  0
ARC
  8
0
  6
CONTINUOUS
 62
     7
 10
424
 20
18.4346923828125
 40
4.999999999999999
 50
269.9999974955215
 51
0
  0
ARC
  8
0
  6
CONTINUOUS
 62
     7
 10
348
 20
0
 40
5
 50
270.0000179860891
 51
89.99998201391097
  0
ARC
  8
0
  6
CONTINUOUS
 62
     7
 10
425.9999694824219
 20
-37.98123168945312
 40
3.000000000000002
 50
278.1266590228406
 51
0
  0
ARC
  8
0
  6
CONTINUOUS
 62
     7
 10
426.0000610351563
 20
-68.13046264648438
 40
3
 50
0
 51
81.87301312807887
  0
POLYLINE
  8
0
  6
CONTINUOUS
 62
     7
 66
     1
 10
0
 20
0
  0
VERTEX
  8
0
  6
CONTINUOUS
 62
     7
 10
427.1596962372855
 20
-265.6988216043142
 42
0.02444462031447632
  0
VERTEX
  8
0
  6
CONTINUOUS
 62
     7
 10
425.0019397121678
 20
-265.9783774125252
 42
0.02619726373404326
  0
VERTEX
  8
0
  6
CONTINUOUS
 62
     7
 10
422.8827096435514
 20
-266.474196292498
 42
0.02921851553784463
  0
VERTEX
  8
0
  6
CONTINUOUS
 62
     7
 10
420.8311295260935
 20
-267.2005195166109
 42
0.03402552302965796
  0
VERTEX
  8
0
  6
CONTINUOUS
 62
     7
 10
418.8873428928599
 20
-268.1785578544416
 42
0.04144718314112359
  0
VERTEX
  8
0
  6
CONTINUOUS
 62
     7
 10
417.1122423271043
 20
-269.4358314864652
 42
0.05253306093949123
  0
VERTEX
  8
0
  6
CONTINUOUS
 62
     7
 10
415.60250369869
 20
-270.9998350984355
 42
0.06742961348108974
  0
VERTEX
  8
0
  6
CONTINUOUS
 62
     7
 10
414.5070567488776
 20
-272.8743974324211
 42
0.08166828806829343
  0
VERTEX
  8
0
  6
CONTINUOUS
 62
     7
 10
414.0130217999154
 20
-274.9856269620202
 42
0.08459485575228927
  0
VERTEX
  8
0
  6
CONTINUOUS
 62
     7
 10
414.2420113107373
 20
-277.1400084488716
 42
0.07329290506387295
  0
VERTEX
  8
0
  6
CONTINUOUS
 62
     7
 10
415.1333388113107
 20
-279.1170484618079
 42
0.05772561141778026
  0
VERTEX
  8
0
  6
CONTINUOUS
 62
     7
 10
416.507219765258
 20
-280.7987969970136
 42
0.04511847544358967
  0
VERTEX
  8
0
  6
CONTINUOUS
 62
     7
 10
418.1959539215317
 20
-282.1681844365785
 42
0.03644360754412563
  0
VERTEX
  8
0
  6
CONTINUOUS
 62
     7
 10
420.0844122725613
 20
-283.2474521062611
 42
0.03077953231154745
  0
VERTEX
  8
0
  6
CONTINUOUS
 62
     7
 10
422.1009293325445
 20
-284.065590164576
 42
0.02716358474544616
  0
VERTEX
  8
0
  6
CONTINUOUS
 62
     7
 10
424.1985642449782
 20
-284.6461150275416
 42
0.02498614909360148
  0
VERTEX
  8
0
  6
CONTINUOUS
 62
     7
 10
426.3455738163843
 20
-285.0058783752383
 42
0
  0
SEQEND
  8
0
  0
POLYLINE
  8
0
  6
CONTINUOUS
 62
     7
 66
     1
 10
0
 20
0
  0
VERTEX
  8
0
  6
CONTINUOUS
 62
     7
 10
351.0000596969374
 20
-288.0552809243683
 42
-0.244263824015601
  0
VERTEX
  8
0
  6
CONTINUOUS
 62
     7
 10
358.889564360402
 20
-293.9896127350758
 42
-0.06190713301420134
  0
VERTEX
  8
0
  6
CONTINUOUS
 62
     7
 10
362.095479846554
 20
-303.6875534176892
 42
-0.03500344925208199
  0
VERTEX
  8
0
  6
CONTINUOUS
 62
     7
 10
363.6869329674354
 20
-313.7980410857849
 42
-0.03772105761561532
  0
VERTEX
  8
0
  6
CONTINUOUS
 62
     7
 10
363.7860105764835
 20
-324.0304231993094
 42
-0.03573562342352376
  0
VERTEX
  8
0
  6
CONTINUOUS
 62
     7
 10
362.374250059934
 20
-334.1665502778356
 42
-0.000182369976206107
  0
VERTEX
  8
0
  6
CONTINUOUS
 62
     7
 10
360.0901458834478
 20
-344.1513938336188
 42
0.05693376983739415
  0
VERTEX
  8
0
  6
CONTINUOUS
 62
     7
 10
358.9193808105778
 20
-354.3052488529115
 42
0.08097250885401784
  0
VERTEX
  8
0
  6
CONTINUOUS
 62
     7
 10
360.9672435662835
 20
-364.295994027293
 42
-0.1093843017882261
  0
VERTEX
  8
0
  6
CONTINUOUS
 62
     7
 10
362.5363199079812
 20
-374.3326777404287
 42
-0.1309861165752099
  0
VERTEX
  8
0
  6
CONTINUOUS
 62
     7
 10
358.7608795144295
 20
-383.7292089901524
 42
-0.1104414356252686
  0
VERTEX
  8
0
  6
CONTINUOUS
 62
     7
 10
350.9999289168197
 20
-390.2865843267894
 42
0
  0
SEQEND
  8
0
  0
POLYLINE
  8
0
  6
CONTINUOUS
 62
     7
 66
     1
 10
0
 20
0
  0
VERTEX
  8
0
  6
CONTINUOUS
 62
     7
 10
420.4733541023214
 20
-23.85074041295838
 42
0.01877320204378713
  0
VERTEX
  8
0
  6
CONTINUOUS
 62
     7
 10
419.1753506779302
 20
-24.13622906037335
 42
0.01927661339493354
  0
VERTEX
  8
0
  6
CONTINUOUS
 62
     7
 10
417.9027125174231
 20
-24.51953626265018
 42
0.01993981413693793
  0
VERTEX
  8
0
  6
CONTINUOUS
 62
     7
 10
416.66384221607
 20
-25.00137629850377
 42
0.02077012826230484
  0
VERTEX
  8
0
  6
CONTINUOUS
 62
     7
 10
415.4680407257688
 20
-25.58240653085118
 42
0.02177343781025484
  0
VERTEX
  8
0
  6
CONTINUOUS
 62
     7
 10
414.325709858971
 20
-26.26301136258704
 42
0.0229511048358274
  0
VERTEX
  8
0
  6
CONTINUOUS
 62
     7
 10
413.2485316143575
 20
-27.04299794156121
 42
0.02429530793697724
  0
VERTEX
  8
0
  6
CONTINUOUS
 62
     7
 10
412.2495878098386
 20
-27.92118206072168
 42
0.0257825542378201
  0
VERTEX
  8
0
  6
CONTINUOUS
 62
     7
 10
411.3433604170129
 20
-28.89485070108361
 42
0.02736576523876173
  0
VERTEX
  8
0
  6
CONTINUOUS
 62
     7
 10
410.5455271664621
 20
-29.95911127783701
 42
0.02896671479336804
  0
VERTEX
  8
0
  6
CONTINUOUS
 62
     7
 10
409.872449701982
 20
-31.10618490812972
 42
0.03047269822515577
  0
VERTEX
  8
0
  6
CONTINUOUS
 62
     7
 10
409.3402655012966
 20
-32.32477355962863
 42
0.03174311906064782
  0
VERTEX
  8
0
  6
CONTINUOUS
 62
     7
 10
408.9635700061896
 20
-33.59971051714741
 42
0.03263070933565123
  0
VERTEX
  8
0
  6
CONTINUOUS
 62
     7
 10
408.7538270708182
 20
-34.91214008596124
 42
0.03300560628842341
  0
VERTEX
  8
0
  6
CONTINUOUS
 62
     7
 10
408.7178189513793
 20
-36.23998812181864
 42
0.03282506099812522
  0
VERTEX
  8
0
  6
CONTINUOUS
 62
     7
 10
408.8565038446329
 20
-37.5604626929271
 42
0.03213885658781764
  0
VERTEX
  8
0
  6
CONTINUOUS
 62
     7
 10
409.1653314245437
 20
-38.85234387186858
 42
0
  0
SEQEND
  8
0
  0
POLYLINE
  8
0
  6
CONTINUOUS
 62
     7
 66
     1
 10
0
 20
0
  0
VERTEX
  8
0
  6
CONTINUOUS
 62
     7
 10
426.4238188247132
 20
-40.95112625880803
 42
0.0332815244977249
  0
VERTEX
  8
0
  6
CONTINUOUS
 62
     7
 10
424.115122445095
 20
-41.43836342880081
 42
0.03501430497471451
  0
VERTEX
  8
0
  6
CONTINUOUS
 62
     7
 10
421.8935837570822
 20
-42.23499534330614
 42
0.03767572788925598
  0
VERTEX
  8
0
  6
CONTINUOUS
 62
     7
 10
419.8096490060644
 20
-43.34490436005182
 42
0.04128857415135623
  0
VERTEX
  8
0
  6
CONTINUOUS
 62
     7
 10
417.9260151937168
 20
-44.76793080635326
 42
0.04577595624124176
  0
VERTEX
  8
0
  6
CONTINUOUS
 62
     7
 10
416.3179359435878
 20
-46.4941509308793
 42
0.05079133519109651
  0
VERTEX
  8
0
  6
CONTINUOUS
 62
     7
 10
415.0710880231267
 20
-48.4960472122979
 42
0.05543451207575835
  0
VERTEX
  8
0
  6
CONTINUOUS
 62
     7
 10
414.2744951318891
 20
-50.7159219519833
 42
0.05825925671531294
  0
VERTEX
  8
0
  6
CONTINUOUS
 62
     7
 10
414
 20
-53.05581665039063
 42
0.05826919657668048
  0
VERTEX
  8
0
  6
CONTINUOUS
 62
     7
 10
414.2745923408427
 20
-55.39612305272642
 42
0.05540491037769749
  0
VERTEX
  8
0
  6
CONTINUOUS
 62
     7
 10
415.070710352141
 20
-57.61481636089297
 42
0.0507755482137455
  0
VERTEX
  8
0
  6
CONTINUOUS
 62
     7
 10
416.3168843886639
 20
-59.61612736281839
 42
0.0457705361185804
  0
VERTEX
  8
0
  6
CONTINUOUS
 62
     7
 10
417.9243780080082
 20
-61.34224833012592
 42
0.04127496490282782
  0
VERTEX
  8
0
  6
CONTINUOUS
 62
     7
 10
419.8069260448598
 20
-62.76501824602499
 42
0.03766513381463306
  0
VERTEX
  8
0
  6
CONTINUOUS
 62
     7
 10
421.8897370424863
 20
-63.87496559641436
 42
0.03502822799750095
  0
VERTEX
  8
0
  6
CONTINUOUS
 62
     7
 10
424.1117398725616
 20
-64.67234214933758
 42
0.03330681677298233
  0
VERTEX
  8
0
  6
CONTINUOUS
 62
     7
 10
426.4220006394364
 20
-65.16027679506438
 42
0
  0
SEQEND
  8
0
  0
POLYLINE
  8
0
  6
CONTINUOUS
 62
     7
 66
     1
 10
0
 20
0
  0
VERTEX
  8
0
  6
CONTINUOUS
 62
     7
 10
351
 20
37.5
 42
-0.07816348465958994
  0
VERTEX
  8
0
  6
CONTINUOUS
 62
     7
 10
357.7265286885543
 20
29.92771156591401
 42
-0.1157353546891892
  0
VERTEX
  8
0
  6
CONTINUOUS
 62
     7
 10
360.955410197578
 20
20.37798238772996
 42
-0.04715365176506241
  0
VERTEX
  8
0
  6
CONTINUOUS
 62
     7
 10
360.9430036248539
 20
10.22393889873684
 42
0.001971565245157912
  0
VERTEX
  8
0
  6
CONTINUOUS
 62
     7
 10
360.1170281987197
 20
0.08757109136783799
 42
0.01666007193726435
  0
VERTEX
  8
0
  6
CONTINUOUS
 62
     7
 10
359.6793327224573
 20
-10.07042272364274
 42
0.006808593608933389
  0
VERTEX
  8
0
  6
CONTINUOUS
 62
     7
 10
359.9367732296115
 20
-20.23643145845803
 42
-0.1334553348018521
  0
VERTEX
  8
0
  6
CONTINUOUS
 62
     7
 10
357.8287022848279
 20
-30.06260854249819
 42
-0.1041056115960396
  0
VERTEX
  8
0
  6
CONTINUOUS
 62
     7
 10
351
 20
-37.5
 42
0
  0
SEQEND
  8
0
  0
TEXT
  8
0
  6
CONTINUOUS
 62
     7
 10
-57.14286041259766
 20
-10
 40
20
 41
0.847397831130959
  1
ＥＲＶ－＿Ｃ
  0
ENDSEC
  0
EOF
