  0
SECTION
  2
HEADER
  0
ENDSEC
  0
SECTION
  2
TABLES
  0
TABLE
  2
LTYPE
 70
    22
  0
LTYPE
  2
CONTINUOUS
 70
    64
  3
Solid line
 72
    65
 73
     0
 40
0.000000
  0
LTYPE
  2
DASHED
 70
    64
  3
__ __ __ __ __ __ __ __ __ __ __ __ __ __ __
 72
    65
 73
     2
 40
3.500000
 49
2.000000
 49
-1.500000
  0
LTYPE
  2
CENTER
 70
    64
  3
____ _ ____ _ ____ _ ____ _ ____ _ ____ _ ____
 72
    65
 73
     4
 40
17.500000
 49
13.000000
 49
-1.500000
 49
1.500000
 49
-1.500000
  0
LTYPE
  2
PHANTOM
 70
    64
  3
_____ _ _ _____ _ _ _____ _ _ _____ _ _ ____  
 72
    65
 73
     6
 40
15.500000
 49
8.000000
 49
-1.500000
 49
1.500000
 49
-1.500000
 49
1.500000
 49
-1.500000
  0
LTYPE
  2
DOT
 70
    64
  3
. . . . . . . . . . . . . . . . . . . . . . . .
 72
    65
 73
     2
 40
0.25
 49
0.0
 49
-0.25
  0
ENDTAB
  0
TABLE
  2
LAYER
 70
     1
  0
LAYER
  2
0
 70
     0
 62
     7
  6
CONTINUOUS
  0
ENDTAB
  0
TABLE
  2
STYLE
 70
     1
  0
STYLE
  2
STANDARD
 70
     0
 40
0.000000
 41
1.000000
 50
0.000000
 71
     0
 42
0.200000
  3
txt
  4
BIGFONT
  0
ENDTAB
  0
TABLE
  2
VIEW
 70
     0
  0
ENDTAB
  0
ENDSEC
  0
SECTION
  2
BLOCKS
  0
ENDSEC
  0
SECTION
  2
ENTITIES
  0
LINE
  8
0
  6
CONTINUOUS
 62
     3
 10
380
 20
-500
 11
919.0325927734375
 21
-500
  0
LINE
  8
0
  6
CONTINUOUS
 62
     7
 10
703
 20
-352
 11
703
 21
-648
  0
LINE
  8
0
  6
CONTINUOUS
 62
     7
 10
703
 20
-648
 11
723
 21
-648
  0
LINE
  8
0
  6
CONTINUOUS
 62
     7
 10
703
 20
-352
 11
738
 21
-352
  0
LINE
  8
0
  6
CONTINUOUS
 62
     7
 10
746
 20
-398.0938720703125
 11
746
 21
-601.9061279296875
  0
LINE
  8
0
  6
CONTINUOUS
 62
     7
 10
727.5642700195313
 20
-608.1006469726563
 11
741.4358520507812
 21
-606.8870239257813
  0
LINE
  8
0
  6
CONTINUOUS
 62
     7
 10
741.435791015625
 20
-393.1128540039062
 11
742.5642700195313
 21
-393.2115783691406
  0
LINE
  8
0
  6
CONTINUOUS
 62
     7
 10
781
 20
-427.5
 11
781
 21
-572.5
  0
LINE
  8
0
  6
CONTINUOUS
 62
     7
 10
771
 20
-427.5
 11
771
 21
-572.5
  0
LINE
  8
0
  6
CONTINUOUS
 62
     7
 10
771
 20
-572.5
 11
781
 21
-572.5
  0
LINE
  8
0
  6
CONTINUOUS
 62
     7
 10
771
 20
-427.5
 11
781
 21
-427.5
  0
LINE
  8
0
  6
CONTINUOUS
 62
     7
 10
738
 20
-352
 11
738
 21
-388.2306518554688
  0
LINE
  8
0
  6
CONTINUOUS
 62
     7
 10
723
 20
-352
 11
723
 21
-648
  0
LINE
  8
0
  6
CONTINUOUS
 62
     7
 10
727.564208984375
 20
-391.8992309570312
 11
741.435791015625
 21
-393.1128540039062
  0
LINE
  8
0
  6
CONTINUOUS
 62
     7
 10
746
 20
-465.1884460449219
 11
771
 21
-465.1884460449219
  0
LINE
  8
0
  6
CONTINUOUS
 62
     7
 10
746.0000610351562
 20
-436.6886901855469
 11
771.0000610351563
 21
-447.259765625
  0
LINE
  8
0
  6
CONTINUOUS
 62
     7
 10
746
 20
-534.8115234375
 11
771
 21
-534.8115234375
  0
LINE
  8
0
  6
CONTINUOUS
 62
     7
 10
746.0000610351562
 20
-563.3113403320312
 11
771
 21
-552.740234375
  0
LINE
  8
0
  6
CONTINUOUS
 62
     7
 10
784.5
 20
-575
 11
817.5
 21
-575
  0
LINE
  8
0
  6
CONTINUOUS
 62
     7
 10
784.5
 20
-425
 11
817.5
 21
-425
  0
LINE
  8
0
  6
CONTINUOUS
 62
     7
 10
784.5
 20
-425
 11
781
 21
-429.1609191894531
  0
LINE
  8
0
  6
CONTINUOUS
 62
     7
 10
817.4999389648437
 20
-424.9999694824219
 11
820.9999389648437
 21
-429.1608581542969
  0
LINE
  8
0
  6
CONTINUOUS
 62
     7
 10
784.5
 20
-574.9999389648438
 11
781
 21
-570.8390502929687
  0
LINE
  8
0
  6
CONTINUOUS
 62
     7
 10
817.5
 20
-575
 11
821
 21
-570.839111328125
  0
LINE
  8
0
  6
CONTINUOUS
 62
     7
 10
784.5
 20
-470.5653076171875
 11
817.5
 21
-470.5653076171875
  0
LINE
  8
0
  6
CONTINUOUS
 62
     7
 10
784.5
 20
-479.2552795410156
 11
817.5
 21
-479.2552795410156
  0
LINE
  8
0
  6
CONTINUOUS
 62
     7
 10
784.5
 20
-487.0502319335938
 11
817.5
 21
-487.0502319335938
  0
LINE
  8
0
  6
CONTINUOUS
 62
     7
 10
784.5
 20
-496.0000610351562
 11
817.5
 21
-496.0000610351562
  0
LINE
  8
0
  6
CONTINUOUS
 62
     7
 10
784.5
 20
-504.0000915527344
 11
817.5
 21
-504.0000915527344
  0
LINE
  8
0
  6
CONTINUOUS
 62
     7
 10
784.5
 20
-512.949951171875
 11
817.5
 21
-512.949951171875
  0
LINE
  8
0
  6
CONTINUOUS
 62
     7
 10
784.5
 20
-520.744873046875
 11
817.5
 21
-520.744873046875
  0
LINE
  8
0
  6
CONTINUOUS
 62
     7
 10
784.5
 20
-529.434814453125
 11
817.5
 21
-529.434814453125
  0
LINE
  8
0
  6
CONTINUOUS
 62
     7
 10
784.5
 20
-545.0232543945312
 11
817.5
 21
-545.0232543945312
  0
LINE
  8
0
  6
CONTINUOUS
 62
     7
 10
784.5
 20
-552.04541015625
 11
817.5
 21
-552.04541015625
  0
LINE
  8
0
  6
CONTINUOUS
 62
     7
 10
784.5
 20
-557.50146484375
 11
817.5
 21
-557.50146484375
  0
LINE
  8
0
  6
CONTINUOUS
 62
     7
 10
784.5
 20
-562.8594360351563
 11
817.5
 21
-562.8594360351563
  0
LINE
  8
0
  6
CONTINUOUS
 62
     7
 10
784.5
 20
-566.8594360351563
 11
817.5
 21
-566.8594360351563
  0
LINE
  8
0
  6
CONTINUOUS
 62
     7
 10
784.5
 20
-570.4512939453125
 11
817.5
 21
-570.4512939453125
  0
LINE
  8
0
  6
CONTINUOUS
 62
     7
 10
625
 20
-352
 11
625
 21
-648
  0
LINE
  8
0
  6
CONTINUOUS
 62
     7
 10
630
 20
-350
 11
698
 21
-350
  0
LINE
  8
0
  6
CONTINUOUS
 62
     7
 10
630
 20
-650
 11
698
 21
-650
  0
LINE
  8
0
  6
CONTINUOUS
 62
     7
 10
625.0000610351563
 20
-355.0000305175781
 11
630
 21
-350.0000305175781
  0
LINE
  8
0
  6
CONTINUOUS
 62
     7
 10
698
 20
-350
 11
703
 21
-355.0000305175781
  0
LINE
  8
0
  6
CONTINUOUS
 62
     7
 10
625
 20
-644.9999389648438
 11
630
 21
-649.9999389648438
  0
LINE
  8
0
  6
CONTINUOUS
 62
     7
 10
698
 20
-650
 11
703
 21
-645
  0
LINE
  8
0
  6
CONTINUOUS
 62
     7
 10
669
 20
-340.0000305175781
 11
637
 21
-340.0000305175781
  0
LINE
  8
0
  6
CONTINUOUS
 62
     7
 10
669
 20
-340.0000610351562
 11
672.6397094726562
 21
-350.0000305175781
  0
LINE
  8
0
  6
CONTINUOUS
 62
     7
 10
637
 20
-340.0001220703125
 11
633.3603515625
 21
-350
  0
LINE
  8
0
  6
CONTINUOUS
 62
     7
 10
630
 20
-356.3724670410156
 11
698
 21
-356.3724670410156
  0
LINE
  8
0
  6
CONTINUOUS
 62
     7
 10
630
 20
-387.4244689941406
 11
698
 21
-387.4244689941406
  0
LINE
  8
0
  6
CONTINUOUS
 62
     7
 10
630
 20
-400.8700866699219
 11
698
 21
-400.8700866699219
  0
LINE
  8
0
  6
CONTINUOUS
 62
     7
 10
630
 20
-412.6091613769531
 11
698
 21
-412.6091613769531
  0
LINE
  8
0
  6
CONTINUOUS
 62
     7
 10
630
 20
-429.0270385742187
 11
698
 21
-429.0270385742187
  0
LINE
  8
0
  6
CONTINUOUS
 62
     7
 10
630
 20
-456.7433471679687
 11
698
 21
-456.7433471679687
  0
LINE
  8
0
  6
CONTINUOUS
 62
     7
 10
630
 20
-475.5888977050781
 11
698
 21
-475.5888977050781
  0
LINE
  8
0
  6
CONTINUOUS
 62
     7
 10
630
 20
-490.4924926757812
 11
698
 21
-490.4924926757812
  0
LINE
  8
0
  6
CONTINUOUS
 62
     7
 10
630
 20
-509.5074462890625
 11
698
 21
-509.5074462890625
  0
LINE
  8
0
  6
CONTINUOUS
 62
     7
 10
630
 20
-524.4110107421875
 11
698
 21
-524.4110107421875
  0
LINE
  8
0
  6
CONTINUOUS
 62
     7
 10
630
 20
-543.256591796875
 11
698
 21
-543.256591796875
  0
LINE
  8
0
  6
CONTINUOUS
 62
     7
 10
630
 20
-570.9730224609375
 11
698
 21
-570.9730224609375
  0
LINE
  8
0
  6
CONTINUOUS
 62
     7
 10
630
 20
-587.390869140625
 11
698
 21
-587.390869140625
  0
LINE
  8
0
  6
CONTINUOUS
 62
     7
 10
630
 20
-599.1300048828125
 11
698
 21
-599.1300048828125
  0
LINE
  8
0
  6
CONTINUOUS
 62
     7
 10
630
 20
-612.5756225585938
 11
698
 21
-612.5756225585938
  0
LINE
  8
0
  6
CONTINUOUS
 62
     7
 10
630
 20
-621.9133911132813
 11
698
 21
-621.9133911132813
  0
LINE
  8
0
  6
CONTINUOUS
 62
     7
 10
630
 20
-632.14697265625
 11
698
 21
-632.14697265625
  0
LINE
  8
0
  6
CONTINUOUS
 62
     7
 10
630
 20
-643.6275634765625
 11
698
 21
-643.6275634765625
  0
LINE
  8
0
  6
CONTINUOUS
 62
     7
 10
640.5
 20
-337
 11
641.7955322265625
 21
-329.6527099609375
  0
LINE
  8
0
  6
CONTINUOUS
 62
     7
 10
664.2045288085937
 20
-329.6527099609375
 11
665.5000610351563
 21
-337.0000305175781
  0
LINE
  8
0
  6
CONTINUOUS
 62
     7
 10
643.76513671875
 20
-328.0000305175781
 11
662.23486328125
 21
-328.0000305175781
  0
LINE
  8
0
  6
CONTINUOUS
 62
     7
 10
643.341796875
 20
-328.0453186035156
 11
652.57666015625
 21
-326.0453186035156
  0
LINE
  8
0
  6
CONTINUOUS
 62
     7
 10
653.4234008789063
 20
-326.0453186035156
 11
662.6582641601563
 21
-328.0453186035156
  0
LINE
  8
0
  6
CONTINUOUS
 62
     7
 10
640.5
 20
-337.0000305175781
 11
640.5
 21
-340.0000305175781
  0
LINE
  8
0
  6
CONTINUOUS
 62
     7
 10
665.5
 20
-337.0000305175781
 11
665.5
 21
-340.0000305175781
  0
LINE
  8
0
  6
CONTINUOUS
 62
     7
 10
510
 20
-300
 11
510
 21
-387.8723754882813
  0
LINE
  8
0
  6
CONTINUOUS
 62
     7
 10
510
 20
-700
 11
535
 21
-700
  0
LINE
  8
0
  6
CONTINUOUS
 62
     7
 10
510
 20
-300
 11
535
 21
-300
  0
LINE
  8
0
  6
CONTINUOUS
 62
     7
 10
535
 20
-300
 11
535
 21
-700
  0
LINE
  8
0
  6
CONTINUOUS
 62
     7
 10
545
 20
-352
 11
625
 21
-352
  0
LINE
  8
0
  6
CONTINUOUS
 62
     7
 10
603
 20
-648
 11
625
 21
-648
  0
LINE
  8
0
  6
CONTINUOUS
 62
     7
 10
603
 20
-352
 11
603
 21
-648
  0
LINE
  8
0
  6
CONTINUOUS
 62
     7
 10
576.3798828125
 20
-437.6568298339844
 11
598
 21
-437.6568298339844
  0
LINE
  8
0
  6
CONTINUOUS
 62
     7
 10
535.0000610351562
 20
-351.9161376953125
 11
603.0000610351563
 21
-388.8349609375
  0
LINE
  8
0
  6
CONTINUOUS
 62
     7
 10
535.0000610351562
 20
-373.1293029785156
 11
603.0000610351563
 21
-410.0481567382812
  0
LINE
  8
0
  6
CONTINUOUS
 62
     7
 10
538.9332885742187
 20
-411.6587219238281
 11
570.313232421875
 21
-435.6063842773438
  0
LINE
  8
0
  6
CONTINUOUS
 62
     7
 10
538.9332885742187
 20
-588.3412475585937
 11
570.3131713867187
 21
-564.3936157226563
  0
LINE
  8
0
  6
CONTINUOUS
 62
     7
 10
576.3798828125
 20
-562.3431396484375
 11
598
 21
-562.3431396484375
  0
LINE
  8
0
  6
CONTINUOUS
 62
     7
 10
535
 20
-626.8706665039063
 11
603
 21
-589.9518432617188
  0
LINE
  8
0
  6
CONTINUOUS
 62
     7
 10
535
 20
-648.0838623046875
 11
603
 21
-611.1650390625
  0
LINE
  8
0
  6
CONTINUOUS
 62
     7
 10
502
 20
-350
 11
502
 21
-379.2485961914062
  0
LINE
  8
0
  6
CONTINUOUS
 62
     7
 10
502
 20
-350
 11
510
 21
-350
  0
LINE
  8
0
  6
CONTINUOUS
 62
     7
 10
502
 20
-650
 11
510
 21
-650
  0
LINE
  8
0
  6
CONTINUOUS
 62
     7
 10
400
 20
-458
 11
400
 21
-537.5
  0
LINE
  8
0
  6
CONTINUOUS
 62
     7
 10
400
 20
-462.5
 11
510
 21
-462.5
  0
LINE
  8
0
  6
CONTINUOUS
 62
     7
 10
400
 20
-537.5
 11
510
 21
-537.5
  0
LINE
  8
0
  6
CONTINUOUS
 62
     7
 10
502
 20
-601.3932495117188
 11
502
 21
-650
  0
LINE
  8
0
  6
CONTINUOUS
 62
     7
 10
510
 20
-591.0530395507812
 11
510
 21
-700
  0
LINE
  8
0
  6
CONTINUOUS
 62
     7
 10
400
 20
-458
 11
490
 21
-458
  0
LINE
  8
0
  6
CONTINUOUS
 62
     7
 10
510
 20
-542.5
 11
517.0518188476562
 21
-542.5
  0
LINE
  8
0
  6
CONTINUOUS
 62
     7
 10
510
 20
-457.5
 11
513.872314453125
 21
-457.5
  0
LINE
  8
0
  6
CONTINUOUS
 62
     7
 10
510
 20
-457.6000061035156
 11
510
 21
-542.5
  0
LINE
  8
0
  6
CONTINUOUS
 62
     7
 10
561.5
 20
-314.7000122070312
 11
588.5
 21
-314.7000122070312
  0
LINE
  8
0
  6
CONTINUOUS
 62
     7
 10
566.3499755859375
 20
-314.7000122070312
 11
566.3499755859375
 21
-352
  0
LINE
  8
0
  6
CONTINUOUS
 62
     7
 10
583.6500244140625
 20
-314.7000122070312
 11
583.6500244140625
 21
-352
  0
LINE
  8
0
  6
CONTINUOUS
 62
     3
 10
575
 20
-260.0375671386719
 11
575
 21
-367
  0
LINE
  8
0
  6
CONTINUOUS
 62
     7
 10
561.5
 20
-282.7000122070313
 11
588.5
 21
-282.7000122070313
  0
LINE
  8
0
  6
CONTINUOUS
 62
     7
 10
583.071044921875
 20
-268.0500183105469
 11
566.928955078125
 21
-268.0500183105469
  0
LINE
  8
0
  6
CONTINUOUS
 62
     7
 10
583.507568359375
 20
-277.0500183105469
 11
566.492431640625
 21
-277.0500183105469
  0
LINE
  8
0
  6
CONTINUOUS
 62
     7
 10
583.507568359375
 20
-277.0500183105469
 11
583.3309936523438
 21
-282.7000122070313
  0
LINE
  8
0
  6
CONTINUOUS
 62
     7
 10
566.4923706054687
 20
-277.0499877929688
 11
566.6689453125
 21
-282.6999816894531
  0
LINE
  8
0
  6
CONTINUOUS
 62
     7
 10
583.071044921875
 20
-268.0500183105469
 11
583.071044921875
 21
-277.0500183105469
  0
LINE
  8
0
  6
CONTINUOUS
 62
     7
 10
566.928955078125
 20
-268.0500183105469
 11
566.928955078125
 21
-277.0500183105469
  0
LINE
  8
0
  6
CONTINUOUS
 62
     7
 10
588.5
 20
-282.7000122070313
 11
588.5
 21
-314.7000122070312
  0
LINE
  8
0
  6
CONTINUOUS
 62
     7
 10
561.5
 20
-282.7000122070313
 11
561.5
 21
-314.7000122070312
  0
LINE
  8
0
  6
CONTINUOUS
 62
     3
 10
566.928955078125
 20
-277.0499877929688
 11
575
 21
-268.0499877929687
  0
LINE
  8
0
  6
CONTINUOUS
 62
     7
 10
575
 20
-268.0500183105469
 11
575
 21
-277.0500183105469
  0
LINE
  8
0
  6
CONTINUOUS
 62
     3
 10
575
 20
-277.0500183105469
 11
583.071044921875
 21
-268.0500183105469
  0
LINE
  8
0
  6
CONTINUOUS
 62
     3
 10
583.071044921875
 20
-277.0500183105469
 11
575
 21
-268.050048828125
  0
LINE
  8
0
  6
CONTINUOUS
 62
     3
 10
566.9290161132813
 20
-268.0499877929687
 11
575.0000610351563
 21
-277.0499572753906
  0
LINE
  8
0
  6
CONTINUOUS
 62
     7
 10
490
 20
-458
 11
490
 21
-462.5
  0
LINE
  8
0
  6
CONTINUOUS
 62
     7
 10
821
 20
-427.5
 11
821
 21
-572.5
  0
LINE
  8
0
  6
CONTINUOUS
 62
     7
 10
874
 20
-480
 11
874
 21
-520
  0
LINE
  8
0
  6
CONTINUOUS
 62
     7
 10
831
 20
-427.5
 11
821
 21
-427.5
  0
LINE
  8
0
  6
CONTINUOUS
 62
     7
 10
836
 20
-448
 11
831
 21
-448
  0
LINE
  8
0
  6
CONTINUOUS
 62
     7
 10
831
 20
-427.5
 11
831
 21
-572.5
  0
LINE
  8
0
  6
CONTINUOUS
 62
     7
 10
867
 20
-471.5
 11
867
 21
-528.5
  0
LINE
  8
0
  6
CONTINUOUS
 62
     7
 10
874
 20
-479.9999389648437
 11
867
 21
-475.95849609375
  0
LINE
  8
0
  6
CONTINUOUS
 62
     7
 10
867
 20
-471.5
 11
854.8580322265625
 21
-471.5
  0
LINE
  8
0
  6
CONTINUOUS
 62
     7
 10
874.0000610351563
 20
-520
 11
867.0000610351563
 21
-524.0414428710937
  0
LINE
  8
0
  6
CONTINUOUS
 62
     7
 10
836
 20
-552
 11
836
 21
-448
  0
LINE
  8
0
  6
CONTINUOUS
 62
     7
 10
836
 20
-552
 11
831
 21
-552
  0
LINE
  8
0
  6
CONTINUOUS
 62
     7
 10
831
 20
-572.5
 11
821
 21
-572.5
  0
LINE
  8
0
  6
CONTINUOUS
 62
     7
 10
908
 20
-488
 11
883
 21
-488
  0
LINE
  8
0
  6
CONTINUOUS
 62
     7
 10
908
 20
-488
 11
908
 21
-509.5
  0
LINE
  8
0
  6
CONTINUOUS
 62
     7
 10
908
 20
-509.5
 11
878
 21
-509.5
  0
LINE
  8
0
  6
CONTINUOUS
 62
     7
 10
908
 20
-490.5
 11
878
 21
-490.5
  0
LINE
  8
0
  6
CONTINUOUS
 62
     7
 10
878
 20
-487.5
 11
878
 21
-512.5
  0
LINE
  8
0
  6
CONTINUOUS
 62
     7
 10
878
 20
-512.5
 11
874
 21
-512.5
  0
LINE
  8
0
  6
CONTINUOUS
 62
     7
 10
878
 20
-487.5
 11
874
 21
-487.5
  0
LINE
  8
0
  6
CONTINUOUS
 62
     7
 10
883
 20
-488
 11
883
 21
-490.5
  0
LINE
  8
0
  6
CONTINUOUS
 62
     7
 10
867
 20
-528.5
 11
854.8580322265625
 21
-528.5
  0
LINE
  8
0
  6
CONTINUOUS
 62
     7
 10
855.5
 20
-494.0823974609375
 11
836.0000610351563
 21
-489.0312805175781
  0
LINE
  8
0
  6
CONTINUOUS
 62
     7
 10
855.5
 20
-480.935302734375
 11
836
 21
-467.1353454589844
  0
LINE
  8
0
  6
CONTINUOUS
 62
     7
 10
836
 20
-453.2694702148438
 11
855.5
 21
-472.1205749511719
  0
LINE
  8
0
  6
CONTINUOUS
 62
     7
 10
855.4999389648437
 20
-508.8154602050781
 11
835.9999389648437
 21
-513.8665771484375
  0
LINE
  8
0
  6
CONTINUOUS
 62
     7
 10
836
 20
-534.9861450195313
 11
855.5
 21
-521.1861572265625
  0
LINE
  8
0
  6
CONTINUOUS
 62
     7
 10
836
 20
-546.7305297851562
 11
855.4999389648437
 21
-527.8794555664063
  0
LINE
  8
0
  6
CONTINUOUS
 62
     7
 10
680.9999389648438
 20
-491.5145874023438
 11
672.5146484375
 21
-499.9998779296875
  0
LINE
  8
0
  6
CONTINUOUS
 62
     7
 10
689.4853515625
 20
-499.9999084472656
 11
681.0001220703125
 21
-491.5146179199219
  0
LINE
  8
0
  6
CONTINUOUS
 62
     3
 10
681
 20
-489.492431640625
 11
681
 21
-510.507568359375
  0
LINE
  8
0
  6
CONTINUOUS
 62
     7
 10
681.0000610351562
 20
-508.4853820800781
 11
672.5147705078125
 21
-500.0000915527344
  0
LINE
  8
0
  6
CONTINUOUS
 62
     7
 10
689.4852294921875
 20
-499.9999389648438
 11
680.9999389648438
 21
-508.4852294921875
  0
LINE
  8
0
  6
CONTINUOUS
 62
     3
 10
720
 20
-281.6383361816406
 11
720
 21
-357
  0
LINE
  8
0
  6
CONTINUOUS
 62
     3
 10
702.6383056640625
 20
-299
 11
775.469970703125
 21
-299
  0
LINE
  8
0
  6
CONTINUOUS
 62
     7
 10
752
 20
-283
 11
752
 21
-315
  0
LINE
  8
0
  6
CONTINUOUS
 62
     7
 10
704
 20
-331
 11
736
 21
-331
  0
LINE
  8
0
  6
CONTINUOUS
 62
     7
 10
741
 20
-315
 11
752
 21
-315
  0
LINE
  8
0
  6
CONTINUOUS
 62
     7
 10
736
 20
-283
 11
752
 21
-283
  0
LINE
  8
0
  6
CONTINUOUS
 62
     7
 10
704
 20
-315
 11
704
 21
-331
  0
LINE
  8
0
  6
CONTINUOUS
 62
     7
 10
736
 20
-320
 11
736
 21
-331
  0
LINE
  8
0
  6
CONTINUOUS
 62
     7
 10
770.469970703125
 20
-310.1923828125
 11
770.469970703125
 21
-287.8076171875
  0
LINE
  8
0
  6
CONTINUOUS
 62
     7
 10
759.469970703125
 20
-312.4534301757813
 11
759.469970703125
 21
-285.5465698242188
  0
LINE
  8
0
  6
CONTINUOUS
 62
     7
 10
759.4700317382813
 20
-312.4534301757813
 11
752
 21
-312.2200012207031
  0
LINE
  8
0
  6
CONTINUOUS
 62
     7
 10
759.469970703125
 20
-285.5465393066406
 11
752
 21
-285.7799987792969
  0
LINE
  8
0
  6
CONTINUOUS
 62
     7
 10
770.469970703125
 20
-310.1923828125
 11
759.469970703125
 21
-310.1923828125
  0
LINE
  8
0
  6
CONTINUOUS
 62
     7
 10
770.469970703125
 20
-287.8076171875
 11
759.469970703125
 21
-287.8076171875
  0
LINE
  8
0
  6
CONTINUOUS
 62
     7
 10
770.469970703125
 20
-299
 11
759.469970703125
 21
-299
  0
LINE
  8
0
  6
CONTINUOUS
 62
     3
 10
759.4700317382813
 20
-310.1924133300781
 11
770.4700317382813
 21
-299
  0
LINE
  8
0
  6
CONTINUOUS
 62
     3
 10
770.4700317382813
 20
-310.1923828125
 11
759.4700317382813
 21
-299
  0
LINE
  8
0
  6
CONTINUOUS
 62
     3
 10
759.469970703125
 20
-299
 11
770.469970703125
 21
-287.8076171875
  0
LINE
  8
0
  6
CONTINUOUS
 62
     3
 10
770.469970703125
 20
-299
 11
759.469970703125
 21
-287.8076171875
  0
LINE
  8
0
  6
CONTINUOUS
 62
     7
 10
706.5
 20
-331
 11
706.5
 21
-352
  0
LINE
  8
0
  6
CONTINUOUS
 62
     7
 10
733.5
 20
-331
 11
733.5
 21
-352
  0
LINE
  8
0
  6
CONTINUOUS
 62
     3
 10
0
 20
-255.25
 11
0
 21
-720
  0
LINE
  8
0
  6
CONTINUOUS
 62
     3
 10
-220
 20
-500
 11
220
 21
-500
  0
LINE
  8
0
  6
CONTINUOUS
 62
     7
 10
-10
 20
-458
 11
-10
 21
-470
  0
LINE
  8
0
  6
CONTINUOUS
 62
     7
 10
10
 20
-458
 11
10
 21
-470
  0
LINE
  8
0
  6
CONTINUOUS
 62
     7
 10
-10
 20
-470
 11
10
 21
-470
  0
LINE
  8
0
  6
CONTINUOUS
 62
     7
 10
-10
 20
-458
 11
10
 21
-458
  0
LINE
  8
0
  6
CONTINUOUS
 62
     3
 10
149.4212036132813
 20
-561.8924560546875
 11
173.5414276123047
 21
-571.8834228515625
  0
LINE
  8
0
  6
CONTINUOUS
 62
     3
 10
149.4212646484375
 20
-438.1076354980469
 11
173.5415344238281
 21
-428.11669921875
  0
LINE
  8
0
  6
CONTINUOUS
 62
     3
 10
61.89229965209961
 20
-350.5787963867187
 11
71.88324737548828
 21
-326.45849609375
  0
LINE
  8
0
  6
CONTINUOUS
 62
     3
 10
-61.89223098754883
 20
-350.5787658691406
 11
-71.8831787109375
 21
-326.4584655761719
  0
LINE
  8
0
  6
CONTINUOUS
 62
     3
 10
-149.4211883544922
 20
-438.1076354980469
 11
-173.5414123535156
 21
-428.1167297363281
  0
LINE
  8
0
  6
CONTINUOUS
 62
     3
 10
-149.4212493896484
 20
-561.8922119140625
 11
-173.5414733886719
 21
-571.8831787109375
  0
LINE
  8
0
  6
CONTINUOUS
 62
     3
 10
-61.89248657226562
 20
-649.4210815429688
 11
-71.88341522216797
 21
-673.5413208007813
  0
LINE
  8
0
  6
CONTINUOUS
 62
     3
 10
61.89203262329102
 20
-649.4213256835937
 11
71.88294982910156
 21
-673.5415649414062
  0
LINE
  8
0
  6
CONTINUOUS
 62
     3
 10
52.31838607788086
 20
-409.3819885253906
 11
42.56133651733398
 21
-426.2817077636719
  0
LINE
  8
0
  6
CONTINUOUS
 62
     3
 10
-52.31834030151367
 20
-409.3819274902344
 11
-42.5612907409668
 21
-426.2816467285156
  0
LINE
  8
0
  6
CONTINUOUS
 62
     3
 10
-52.31829071044922
 20
-590.6180419921875
 11
-42.56123733520508
 21
-573.7183227539063
  0
LINE
  8
0
  6
CONTINUOUS
 62
     3
 10
52.3183479309082
 20
-590.6179809570312
 11
42.56129837036133
 21
-573.71826171875
  0
LINE
  8
0
  6
CONTINUOUS
 62
     7
 10
-13.5
 20
-282.7000122070313
 11
13.5
 21
-282.7000122070313
  0
LINE
  8
0
  6
CONTINUOUS
 62
     7
 10
8.071044921875
 20
-268.0500183105469
 11
-8.071044921875
 21
-268.0500183105469
  0
LINE
  8
0
  6
CONTINUOUS
 62
     7
 10
8.507568359375
 20
-277.0500183105469
 11
-8.507568359375
 21
-277.0500183105469
  0
LINE
  8
0
  6
CONTINUOUS
 62
     7
 10
8.507533073425293
 20
-277.0499877929688
 11
8.330971717834473
 21
-282.6999816894531
  0
LINE
  8
0
  6
CONTINUOUS
 62
     7
 10
-8.507612228393555
 20
-277.050048828125
 11
-8.331049919128418
 21
-282.7000427246094
  0
LINE
  8
0
  6
CONTINUOUS
 62
     7
 10
8.071044921875
 20
-268.0500183105469
 11
8.071044921875
 21
-277.0500183105469
  0
LINE
  8
0
  6
CONTINUOUS
 62
     7
 10
-8.071044921875
 20
-268.0500183105469
 11
-8.071044921875
 21
-277.0500183105469
  0
LINE
  8
0
  6
CONTINUOUS
 62
     7
 10
13.5
 20
-282.7000122070313
 11
13.5
 21
-300.4561462402344
  0
LINE
  8
0
  6
CONTINUOUS
 62
     7
 10
-13.5
 20
-282.7000122070313
 11
-13.5
 21
-300.4561462402344
  0
LINE
  8
0
  6
CONTINUOUS
 62
     3
 10
-8.071043014526367
 20
-277.0500183105469
 11
3.621029463829473E-06
 21
-268.0500183105469
  0
LINE
  8
0
  6
CONTINUOUS
 62
     3
 10
-8.071063995361328
 20
-268.0500183105469
 11
-7.37670052330941E-06
 21
-277.050048828125
  0
LINE
  8
0
  6
CONTINUOUS
 62
     3
 10
2.775146822386887E-05
 20
-277.0500183105469
 11
8.071063995361328
 21
-268.0500183105469
  0
LINE
  8
0
  6
CONTINUOUS
 62
     3
 10
8.071042060852051
 20
-277.0500183105469
 11
2.576858241809532E-05
 21
-268.0500793457031
  0
LINE
  8
0
  6
CONTINUOUS
 62
     7
 10
0
 20
-268.0500183105469
 11
0
 21
-277.0500183105469
  0
LINE
  8
0
  6
CONTINUOUS
 62
     3
 10
380
 20
0
 11
918.065185546875
 21
0
  0
LINE
  8
0
  6
CONTINUOUS
 62
     7
 10
703
 20
148.0000152587891
 11
703
 21
-147.9999847412109
  0
LINE
  8
0
  6
CONTINUOUS
 62
     7
 10
703
 20
-148
 11
723
 21
-148
  0
LINE
  8
0
  6
CONTINUOUS
 62
     7
 10
703
 20
148
 11
723
 21
148
  0
LINE
  8
0
  6
CONTINUOUS
 62
     7
 10
746
 20
101.906135559082
 11
746
 21
16.00000953674316
  0
LINE
  8
0
  6
CONTINUOUS
 62
     7
 10
727.5641479492187
 20
-108.1004638671875
 11
741.4357299804687
 21
-106.8868560791016
  0
LINE
  8
0
  6
CONTINUOUS
 62
     7
 10
741.4359130859375
 20
106.8874588012695
 11
742.5643310546875
 21
106.7887344360352
  0
LINE
  8
0
  6
CONTINUOUS
 62
     7
 10
781
 20
72.50000762939453
 11
781
 21
-72.49999237060547
  0
LINE
  8
0
  6
CONTINUOUS
 62
     7
 10
771
 20
72.50000762939453
 11
771
 21
-72.49999237060547
  0
LINE
  8
0
  6
CONTINUOUS
 62
     7
 10
771
 20
-72.5
 11
781
 21
-72.5
  0
LINE
  8
0
  6
CONTINUOUS
 62
     7
 10
771
 20
72.5
 11
781
 21
72.5
  0
LINE
  8
0
  6
CONTINUOUS
 62
     7
 10
723
 20
148.0000152587891
 11
723
 21
28.72284698486328
  0
LINE
  8
0
  6
CONTINUOUS
 62
     7
 10
727.5643310546875
 20
108.1010665893555
 11
741.4359130859375
 21
106.8874588012695
  0
LINE
  8
0
  6
CONTINUOUS
 62
     7
 10
723
 20
-28.72283172607422
 11
723
 21
-147.9999847412109
  0
LINE
  8
0
  6
CONTINUOUS
 62
     7
 10
746
 20
-31.98541259765625
 11
771
 21
-31.98541259765625
  0
LINE
  8
0
  6
CONTINUOUS
 62
     7
 10
771
 20
-49.56257247924805
 11
746
 21
-59.42026901245117
  0
LINE
  8
0
  6
CONTINUOUS
 62
     7
 10
746
 20
31.98541259765625
 11
771
 21
31.98541259765625
  0
LINE
  8
0
  6
CONTINUOUS
 62
     7
 10
770.9999389648437
 20
49.56259918212891
 11
746
 21
59.42027282714844
  0
LINE
  8
0
  6
CONTINUOUS
 62
     7
 10
784.5
 20
75
 11
817.5
 21
75
  0
LINE
  8
0
  6
CONTINUOUS
 62
     7
 10
784.5
 20
74.99997711181641
 11
781
 21
70.83908081054688
  0
LINE
  8
0
  6
CONTINUOUS
 62
     7
 10
817.5
 20
75.00001525878906
 11
821
 21
70.83911895751953
  0
LINE
  8
0
  6
CONTINUOUS
 62
     7
 10
817.4999389648437
 20
-75.00003814697266
 11
820.9999389648437
 21
-70.83914184570313
  0
LINE
  8
0
  6
CONTINUOUS
 62
     7
 10
784.5
 20
-75
 11
817.5
 21
-75
  0
LINE
  8
0
  6
CONTINUOUS
 62
     7
 10
784.5
 20
-75.00001525878906
 11
781.0000610351563
 21
-70.83916473388672
  0
LINE
  8
0
  6
CONTINUOUS
 62
     7
 10
784.5
 20
72.07391357421875
 11
817.5
 21
72.07391357421875
  0
LINE
  8
0
  6
CONTINUOUS
 62
     7
 10
784.5
 20
68.98248291015625
 11
817.5
 21
68.98248291015625
  0
LINE
  8
0
  6
CONTINUOUS
 62
     7
 10
784.5
 20
59.98248291015625
 11
817.5
 21
59.98248291015625
  0
LINE
  8
0
  6
CONTINUOUS
 62
     7
 10
784.5
 20
54.0025634765625
 11
817.5
 21
54.0025634765625
  0
LINE
  8
0
  6
CONTINUOUS
 62
     7
 10
784.5
 20
40.91082763671875
 11
817.5
 21
40.91082763671875
  0
LINE
  8
0
  6
CONTINUOUS
 62
     7
 10
784.5
 20
48.15167236328125
 11
817.5
 21
48.15167236328125
  0
LINE
  8
0
  6
CONTINUOUS
 62
     7
 10
784.5
 20
33.98260498046875
 11
817.5
 21
33.98260498046875
  0
LINE
  8
0
  6
CONTINUOUS
 62
     7
 10
784.5
 20
25.72198486328125
 11
817.5
 21
25.72198486328125
  0
LINE
  8
0
  6
CONTINUOUS
 62
     7
 10
784.5
 20
18.07147216796875
 11
817.5
 21
18.07147216796875
  0
LINE
  8
0
  6
CONTINUOUS
 62
     7
 10
784.5
 20
9.00006103515625
 11
817.5
 21
9.00006103515625
  0
LINE
  8
0
  6
CONTINUOUS
 62
     7
 10
784.5
 20
-68.98260498046875
 11
817.5
 21
-68.98260498046875
  0
LINE
  8
0
  6
CONTINUOUS
 62
     7
 10
784.5
 20
-72.073974609375
 11
817.5
 21
-72.073974609375
  0
LINE
  8
0
  6
CONTINUOUS
 62
     7
 10
630
 20
150.0000610351562
 11
698
 21
150.0000610351562
  0
LINE
  8
0
  6
CONTINUOUS
 62
     7
 10
630
 20
-150
 11
698
 21
-150
  0
LINE
  8
0
  6
CONTINUOUS
 62
     7
 10
625.0001831054688
 20
144.9999084472656
 11
630.0001831054688
 21
149.9998779296875
  0
LINE
  8
0
  6
CONTINUOUS
 62
     7
 10
697.9998779296875
 20
150.0001525878906
 11
702.9998168945312
 21
145.0001678466797
  0
LINE
  8
0
  6
CONTINUOUS
 62
     7
 10
624.9999389648437
 20
-144.9998168945312
 11
630
 21
-149.9998931884766
  0
LINE
  8
0
  6
CONTINUOUS
 62
     7
 10
698.0001831054688
 20
-150.0001373291016
 11
703.0001831054687
 21
-145.0001525878906
  0
LINE
  8
0
  6
CONTINUOUS
 62
     7
 10
630.0001831054688
 20
143.6275634765625
 11
697.9998779296875
 21
143.6275634765625
  0
LINE
  8
0
  6
CONTINUOUS
 62
     7
 10
630.0001831054688
 20
132.1470336914063
 11
697.9998779296875
 21
132.1470336914063
  0
LINE
  8
0
  6
CONTINUOUS
 62
     7
 10
630.0001831054688
 20
121.913330078125
 11
697.9998779296875
 21
121.913330078125
  0
LINE
  8
0
  6
CONTINUOUS
 62
     7
 10
630.0001831054688
 20
112.5756225585938
 11
697.9998779296875
 21
112.5756225585938
  0
LINE
  8
0
  6
CONTINUOUS
 62
     7
 10
630.0001831054688
 20
99.1300048828125
 11
697.9998779296875
 21
99.1300048828125
  0
LINE
  8
0
  6
CONTINUOUS
 62
     7
 10
630.0001831054688
 20
43.2567138671875
 11
697.9998779296875
 21
43.2567138671875
  0
LINE
  8
0
  6
CONTINUOUS
 62
     7
 10
630.0001831054688
 20
25.00006103515625
 11
697.9998779296875
 21
25.00006103515625
  0
LINE
  8
0
  6
CONTINUOUS
 62
     7
 10
630.0001831054688
 20
-25
 11
697.9999389648437
 21
-25
  0
LINE
  8
0
  6
CONTINUOUS
 62
     7
 10
630.0001831054688
 20
-43.25653076171875
 11
697.9999389648437
 21
-43.25653076171875
  0
LINE
  8
0
  6
CONTINUOUS
 62
     7
 10
630.0001831054688
 20
-99.12994384765625
 11
697.9999389648437
 21
-99.12994384765625
  0
LINE
  8
0
  6
CONTINUOUS
 62
     7
 10
630.0001831054688
 20
-112.5755615234375
 11
697.9999389648437
 21
-112.5755615234375
  0
LINE
  8
0
  6
CONTINUOUS
 62
     7
 10
630.0001831054688
 20
-121.9132690429687
 11
697.9999389648437
 21
-121.9132690429687
  0
LINE
  8
0
  6
CONTINUOUS
 62
     7
 10
630.0001831054688
 20
-132.1470336914063
 11
697.9999389648437
 21
-132.1470336914063
  0
LINE
  8
0
  6
CONTINUOUS
 62
     7
 10
630.0001831054688
 20
-143.6275329589844
 11
697.9999389648437
 21
-143.6275329589844
  0
LINE
  8
0
  6
CONTINUOUS
 62
     7
 10
632.9999389648437
 20
5
 11
672.9999389648438
 21
5
  0
LINE
  8
0
  6
CONTINUOUS
 62
     7
 10
632.9999389648437
 20
-5
 11
672.9999389648438
 21
-5
  0
LINE
  8
0
  6
CONTINUOUS
 62
     7
 10
625
 20
148
 11
625
 21
-148
  0
LINE
  8
0
  6
CONTINUOUS
 62
     7
 10
510
 20
200
 11
510
 21
90.97784423828125
  0
LINE
  8
0
  6
CONTINUOUS
 62
     7
 10
510
 20
-200
 11
535
 21
-200
  0
LINE
  8
0
  6
CONTINUOUS
 62
     7
 10
510
 20
200
 11
535
 21
200
  0
LINE
  8
0
  6
CONTINUOUS
 62
     7
 10
603
 20
148
 11
625
 21
148
  0
LINE
  8
0
  6
CONTINUOUS
 62
     7
 10
603
 20
-148
 11
625
 21
-148
  0
LINE
  8
0
  6
CONTINUOUS
 62
     7
 10
603
 20
148
 11
603
 21
20.0000057220459
  0
LINE
  8
0
  6
CONTINUOUS
 62
     7
 10
576.3799438476562
 20
-62.3431396484375
 11
598
 21
-62.3431396484375
  0
LINE
  8
0
  6
CONTINUOUS
 62
     7
 10
576.3798828125
 20
62.3431396484375
 11
598
 21
62.3431396484375
  0
LINE
  8
0
  6
CONTINUOUS
 62
     7
 10
535
 20
-20
 11
603
 21
-20
  0
LINE
  8
0
  6
CONTINUOUS
 62
     7
 10
535
 20
20
 11
603
 21
20
  0
LINE
  8
0
  6
CONTINUOUS
 62
     7
 10
603
 20
-19.9999942779541
 11
603
 21
-148
  0
LINE
  8
0
  6
CONTINUOUS
 62
     7
 10
535.0000610351562
 20
148.0838928222656
 11
603
 21
111.1650848388672
  0
LINE
  8
0
  6
CONTINUOUS
 62
     7
 10
535
 20
126.8706741333008
 11
603
 21
89.95183563232422
  0
LINE
  8
0
  6
CONTINUOUS
 62
     7
 10
538.9332885742187
 20
88.34128570556641
 11
570.3131713867187
 21
64.39364624023437
  0
LINE
  8
0
  6
CONTINUOUS
 62
     7
 10
538.9332885742187
 20
-88.34127044677734
 11
570.313232421875
 21
-64.39363098144531
  0
LINE
  8
0
  6
CONTINUOUS
 62
     7
 10
535
 20
-126.8706817626953
 11
603
 21
-89.95185089111328
  0
LINE
  8
0
  6
CONTINUOUS
 62
     7
 10
535
 20
-148.0838470458984
 11
603
 21
-111.1650161743164
  0
LINE
  8
0
  6
CONTINUOUS
 62
     7
 10
535
 20
200
 11
535
 21
-200
  0
LINE
  8
0
  6
CONTINUOUS
 62
     7
 10
510
 20
42.5
 11
515.1341552734375
 21
42.5
  0
LINE
  8
0
  6
CONTINUOUS
 62
     7
 10
510
 20
-42.5
 11
516.2838134765625
 21
-42.5
  0
LINE
  8
0
  6
CONTINUOUS
 62
     7
 10
502
 20
150
 11
502
 21
97.3695068359375
  0
LINE
  8
0
  6
CONTINUOUS
 62
     7
 10
502
 20
150
 11
510
 21
150
  0
LINE
  8
0
  6
CONTINUOUS
 62
     7
 10
502
 20
-150
 11
510
 21
-150
  0
LINE
  8
0
  6
CONTINUOUS
 62
     7
 10
400
 20
37.5
 11
400
 21
-37.5
  0
LINE
  8
0
  6
CONTINUOUS
 62
     7
 10
400
 20
37.5
 11
510
 21
37.5
  0
LINE
  8
0
  6
CONTINUOUS
 62
     7
 10
400
 20
-37.5
 11
510
 21
-37.5
  0
LINE
  8
0
  6
CONTINUOUS
 62
     7
 10
502
 20
-94.56884765625
 11
502
 21
-150
  0
LINE
  8
0
  6
CONTINUOUS
 62
     7
 10
510
 20
-88.9996337890625
 11
510
 21
-200
  0
LINE
  8
0
  6
CONTINUOUS
 62
     7
 10
400
 20
-10
 11
495
 21
-10
  0
LINE
  8
0
  6
CONTINUOUS
 62
     7
 10
400
 20
10
 11
495
 21
10
  0
LINE
  8
0
  6
CONTINUOUS
 62
     7
 10
510
 20
42.40002822875977
 11
510
 21
-42.49999618530273
  0
LINE
  8
0
  6
CONTINUOUS
 62
     7
 10
583.4852905273438
 20
-2.226303331553936E-05
 11
575.0000610351563
 21
8.485215187072754
  0
LINE
  8
0
  6
CONTINUOUS
 62
     7
 10
575.0000610351563
 20
8.485247611999512
 11
566.5147705078125
 21
-3.346233643242158E-05
  0
LINE
  8
0
  6
CONTINUOUS
 62
     7
 10
574.9999389648438
 20
-8.485288619995117
 11
566.5147094726563
 21
-4.96467218908947E-05
  0
LINE
  8
0
  6
CONTINUOUS
 62
     7
 10
583.4852905273438
 20
-5.014007183490321E-05
 11
575
 21
-8.485329627990723
  0
LINE
  8
0
  6
CONTINUOUS
 62
     3
 10
575
 20
15.72766590118408
 11
575
 21
-15.83092784881592
  0
LINE
  8
0
  6
CONTINUOUS
 62
     7
 10
490
 20
10.00000190734863
 11
490
 21
-9.999998092651367
  0
LINE
  8
0
  6
CONTINUOUS
 62
     7
 10
821
 20
-72.49999237060547
 11
821
 21
72.50000762939453
  0
LINE
  8
0
  6
CONTINUOUS
 62
     7
 10
874.0000610351563
 20
-19.9999885559082
 11
874.0000610351563
 21
20.0000114440918
  0
LINE
  8
0
  6
CONTINUOUS
 62
     7
 10
828
 20
-72.49997711181641
 11
821
 21
-72.49997711181641
  0
LINE
  8
0
  6
CONTINUOUS
 62
     7
 10
836
 20
-51.99997711181641
 11
831
 21
-51.99997711181641
  0
LINE
  8
0
  6
CONTINUOUS
 62
     7
 10
828.0000610351563
 20
-72.49999237060547
 11
828.0000610351563
 21
-63.92558670043945
  0
LINE
  8
0
  6
CONTINUOUS
 62
     7
 10
831.0000610351563
 20
-63.92558670043945
 11
831.0000610351563
 21
63.92560958862305
  0
LINE
  8
0
  6
CONTINUOUS
 62
     7
 10
867.0000610351563
 20
-28.4999885559082
 11
867.0000610351563
 21
28.5000114440918
  0
LINE
  8
0
  6
CONTINUOUS
 62
     7
 10
874
 20
-20.00007629394531
 11
867
 21
-24.04151725769043
  0
LINE
  8
0
  6
CONTINUOUS
 62
     7
 10
867
 20
-28.49997901916504
 11
854.8580322265625
 21
-28.49997901916504
  0
LINE
  8
0
  6
CONTINUOUS
 62
     7
 10
874
 20
19.99992752075195
 11
867.0000610351563
 21
24.04137229919434
  0
LINE
  8
0
  6
CONTINUOUS
 62
     7
 10
867
 20
28.50002098083496
 11
854.8580322265625
 21
28.50002098083496
  0
LINE
  8
0
  6
CONTINUOUS
 62
     7
 10
836.0000610351563
 20
52.0000114440918
 11
836.0000610351563
 21
-51.9999885559082
  0
LINE
  8
0
  6
CONTINUOUS
 62
     7
 10
836
 20
52.00002288818359
 11
831
 21
52.00002288818359
  0
LINE
  8
0
  6
CONTINUOUS
 62
     7
 10
828
 20
72.50002288818359
 11
821
 21
72.50002288818359
  0
LINE
  8
0
  6
CONTINUOUS
 62
     7
 10
831
 20
-63.92557525634766
 11
828
 21
-63.92557525634766
  0
LINE
  8
0
  6
CONTINUOUS
 62
     7
 10
831
 20
63.92562103271484
 11
828
 21
63.92562103271484
  0
LINE
  8
0
  6
CONTINUOUS
 62
     7
 10
908.0000610351563
 20
-9.49998664855957
 11
908.0000610351563
 21
9.50001335144043
  0
LINE
  8
0
  6
CONTINUOUS
 62
     7
 10
908
 20
9.500021934509277
 11
878
 21
9.500021934509277
  0
LINE
  8
0
  6
CONTINUOUS
 62
     7
 10
908
 20
-9.499978065490723
 11
878
 21
-9.499978065490723
  0
LINE
  8
0
  6
CONTINUOUS
 62
     7
 10
878.0000610351563
 20
-12.49998760223389
 11
878.0000610351563
 21
12.50001239776611
  0
LINE
  8
0
  6
CONTINUOUS
 62
     7
 10
878
 20
12.50002193450928
 11
874
 21
12.50002193450928
  0
LINE
  8
0
  6
CONTINUOUS
 62
     7
 10
878
 20
-12.49997806549072
 11
874
 21
-12.49997806549072
  0
LINE
  8
0
  6
CONTINUOUS
 62
     7
 10
908
 20
-2.999978303909302
 11
883
 21
-2.999978303909302
  0
LINE
  8
0
  6
CONTINUOUS
 62
     7
 10
908
 20
3.000021696090698
 11
883
 21
3.000021696090698
  0
LINE
  8
0
  6
CONTINUOUS
 62
     7
 10
883.0000610351563
 20
-2.999987602233887
 11
883.0000610351563
 21
3.000012397766113
  0
LINE
  8
0
  6
CONTINUOUS
 62
     7
 10
855.5
 20
-5.917634963989258
 11
836.0000610351563
 21
-10.96875667572021
  0
LINE
  8
0
  6
CONTINUOUS
 62
     7
 10
855.5
 20
-19.064697265625
 11
836
 21
-32.86466598510742
  0
LINE
  8
0
  6
CONTINUOUS
 62
     7
 10
836
 20
-46.73052215576172
 11
855.5
 21
-27.87942123413086
  0
LINE
  8
0
  6
CONTINUOUS
 62
     7
 10
855.5
 20
5.91756534576416
 11
836.0000610351563
 21
10.96870136260986
  0
LINE
  8
0
  6
CONTINUOUS
 62
     7
 10
855.5
 20
19.06473731994629
 11
836
 21
32.86471176147461
  0
LINE
  8
0
  6
CONTINUOUS
 62
     7
 10
836
 20
46.73053741455078
 11
855.4999389648437
 21
27.87945175170898
  0
LINE
  8
0
  6
CONTINUOUS
 62
     7
 10
828.0000610351563
 20
63.92560958862305
 11
828.0000610351563
 21
72.50000762939453
  0
LINE
  8
0
  6
CONTINUOUS
 62
     3
 10
681.0000610351562
 20
-139.9926147460938
 11
681.0000610351562
 21
-171.6517333984375
  0
LINE
  8
0
  6
CONTINUOUS
 62
     7
 10
672.9290161132812
 20
-164.6499938964844
 11
689.0711059570312
 21
-164.6499938964844
  0
LINE
  8
0
  6
CONTINUOUS
 62
     7
 10
672.4924926757813
 20
-155.6499938964844
 11
689.5076293945312
 21
-155.6499938964844
  0
LINE
  8
0
  6
CONTINUOUS
 62
     7
 10
672.4924926757813
 20
-155.6499938964844
 11
672.6690673828125
 21
-150
  0
LINE
  8
0
  6
CONTINUOUS
 62
     7
 10
689.5076293945312
 20
-155.6499786376953
 11
689.3310546875
 21
-149.9999847412109
  0
LINE
  8
0
  6
CONTINUOUS
 62
     7
 10
672.9290161132812
 20
-164.6499938964844
 11
672.9290161132812
 21
-155.6499938964844
  0
LINE
  8
0
  6
CONTINUOUS
 62
     7
 10
689.0711059570312
 20
-164.6499938964844
 11
689.0711059570312
 21
-155.6499938964844
  0
LINE
  8
0
  6
CONTINUOUS
 62
     7
 10
681.0000610351562
 20
-164.6499938964844
 11
681.0000610351562
 21
-155.6499938964844
  0
LINE
  8
0
  6
CONTINUOUS
 62
     3
 10
672.928955078125
 20
-155.6500396728516
 11
681
 21
-164.6499938964844
  0
LINE
  8
0
  6
CONTINUOUS
 62
     3
 10
672.9288940429688
 20
-164.64990234375
 11
680.9999389648438
 21
-155.64990234375
  0
LINE
  8
0
  6
CONTINUOUS
 62
     3
 10
681
 20
-155.6500244140625
 11
689.071044921875
 21
-164.6500244140625
  0
LINE
  8
0
  6
CONTINUOUS
 62
     3
 10
680.9999389648438
 20
-164.6499328613281
 11
689.071044921875
 21
-155.6499328613281
  0
LINE
  8
0
  6
CONTINUOUS
 62
     3
 10
720
 20
21.00000762939453
 11
720
 21
-20.99999237060547
  0
LINE
  8
0
  6
CONTINUOUS
 62
     7
 10
720
 20
-16
 11
752
 21
-16
  0
LINE
  8
0
  6
CONTINUOUS
 62
     7
 10
720
 20
16
 11
752
 21
16
  0
LINE
  8
0
  6
CONTINUOUS
 62
     7
 10
770.469970703125
 20
-11.19238090515137
 11
770.469970703125
 21
11.19239234924316
  0
LINE
  8
0
  6
CONTINUOUS
 62
     7
 10
759.469970703125
 20
-13.45342826843262
 11
759.469970703125
 21
13.45344734191895
  0
LINE
  8
0
  6
CONTINUOUS
 62
     7
 10
759.4700317382813
 20
-13.45343685150146
 11
752.0000610351562
 21
-13.21999835968018
  0
LINE
  8
0
  6
CONTINUOUS
 62
     7
 10
759.4700317382813
 20
13.45342445373535
 11
752
 21
13.2199878692627
  0
LINE
  8
0
  6
CONTINUOUS
 62
     7
 10
770.4700317382813
 20
-11.19239044189453
 11
759.4700317382813
 21
-11.19239044189453
  0
LINE
  8
0
  6
CONTINUOUS
 62
     7
 10
770.469970703125
 20
11.19239044189453
 11
759.469970703125
 21
11.19239044189453
  0
LINE
  8
0
  6
CONTINUOUS
 62
     7
 10
770.469970703125
 20
0
 11
759.469970703125
 21
0
  0
LINE
  8
0
  6
CONTINUOUS
 62
     3
 10
759.469970703125
 20
-11.19236946105957
 11
770.4700317382813
 21
3.889653089572676E-05
  0
LINE
  8
0
  6
CONTINUOUS
 62
     3
 10
770.469970703125
 20
-11.19238185882568
 11
759.469970703125
 21
1.903684824355878E-05
  0
LINE
  8
0
  6
CONTINUOUS
 62
     3
 10
759.469970703125
 20
-1.219209025293821E-05
 11
770.469970703125
 21
11.19239616394043
  0
LINE
  8
0
  6
CONTINUOUS
 62
     3
 10
770.4700317382813
 20
-2.458846392983105E-05
 11
759.4700317382813
 21
11.19235515594482
  0
LINE
  8
0
  6
CONTINUOUS
 62
     7
 10
752
 20
16.00000953674316
 11
752
 21
-15.99999046325684
  0
LINE
  8
0
  6
CONTINUOUS
 62
     7
 10
746
 20
-15.99999141693115
 11
746
 21
-101.9060592651367
  0
LINE
  8
0
  6
CONTINUOUS
 62
     7
 10
653
 20
-278.5624694824219
 11
653
 21
-355.218994140625
  0
LINE
  8
0
  6
CONTINUOUS
 62
     7
 10
619.6897583007812
 20
-311.0000305175781
 11
686.2442626953125
 21
-311.0000305175781
  0
ARC
  8
0
  6
CONTINUOUS
 62
     7
 10
741
 20
-601.9061279296875
 40
4.999999999999999
 50
275.0001399302667
 51
0
  0
ARC
  8
0
  6
CONTINUOUS
 62
     7
 10
728
 20
-613.0816650390625
 40
5.000000000000004
 50
95.00015859960162
 51
179.9999640278219
  0
ARC
  8
0
  6
CONTINUOUS
 62
     7
 10
741
 20
-398.0938720703125
 40
5
 50
359.9999453584866
 51
84.99980542821913
  0
ARC
  8
0
  6
CONTINUOUS
 62
     7
 10
743
 20
-388.2306518554688
 40
5.000000000000038
 50
179.9999776881996
 51
264.9998650786887
  0
ARC
  8
0
  6
CONTINUOUS
 62
     7
 10
728
 20
-386.9183349609375
 40
5.000000000000038
 50
179.9999776881996
 51
264.9998377579323
  0
ARC
  8
0
  6
CONTINUOUS
 62
     7
 10
671.4063720703125
 20
-335.944091796875
 40
6.000000000000024
 50
126.4238645555929
 51
189.9999620293671
  0
ARC
  8
0
  6
CONTINUOUS
 62
     7
 10
653
 20
-311.0000305175781
 40
25
 50
306.4238458862582
 51
233.5761318019415
  0
CIRCLE
  8
0
  6
CONTINUOUS
 62
     7
 10
653
 20
-311.0000305175781
 40
15
  0
ARC
  8
0
  6
CONTINUOUS
 62
     7
 10
643.76513671875
 20
-330.0000305175781
 40
1.999999999999985
 50
89.99998201391097
 51
170.0000206677889
  0
ARC
  8
0
  6
CONTINUOUS
 62
     7
 10
662.23486328125
 20
-330.0000305175781
 40
1.999999999999964
 50
9.999994586450628
 51
89.99998201391097
  0
ARC
  8
0
  6
CONTINUOUS
 62
     7
 10
634.5936279296875
 20
-335.944091796875
 40
6.000000000000009
 50
349.8636347103541
 51
53.57615411374161
  0
ARC
  8
0
  6
CONTINUOUS
 62
     7
 10
545
 20
-342
 40
10
 50
179.999991348578
 51
270.0000006832456
  0
ARC
  8
0
  6
CONTINUOUS
 62
     7
 10
545
 20
-596.2908325195312
 40
9.999999999999964
 50
127.3491502824547
 51
180.0000050089563
  0
ARC
  8
0
  6
CONTINUOUS
 62
     7
 10
576.3798828125
 20
-427.6568298339844
 40
10.00000000000001
 50
232.6508497175455
 51
269.9999974955215
  0
ARC
  8
0
  6
CONTINUOUS
 62
     7
 10
545
 20
-403.7091979980469
 40
10
 50
179.999991348578
 51
232.650859735458
  0
ARC
  8
0
  6
CONTINUOUS
 62
     7
 10
598
 20
-432.6568298339844
 40
5.000000000000004
 50
269.9999974955222
 51
0
  0
ARC
  8
0
  6
CONTINUOUS
 62
     7
 10
576.3798828125
 20
-572.3431396484375
 40
10.00000000000001
 50
90.00000250447847
 51
127.3491502824547
  0
ARC
  8
0
  6
CONTINUOUS
 62
     7
 10
598
 20
-567.3431396484375
 40
5
 50
0
 51
90.00000250447782
  0
CIRCLE
  8
0
  6
CONTINUOUS
 62
     3
 10
681
 20
-500
 40
8.507550239562988
  0
ARC
  8
0
  6
CONTINUOUS
 62
     7
 10
736
 20
-315
 40
31.99999999999999
 50
89.99998201391055
 51
179.9999640278213
  0
ARC
  8
0
  6
CONTINUOUS
 62
     7
 10
741
 20
-320
 40
5.000000000000019
 50
89.99998201391031
 51
179.9999640278213
  0
CIRCLE
  8
0
  6
CONTINUOUS
 62
     7
 10
0
 20
-500
 40
200
  0
ARC
  8
0
  6
CONTINUOUS
 62
     7
 10
0
 20
-500
 40
37.50000000000002
 50
105.4660233138666
 51
74.53398488281326
  0
ARC
  8
0
  6
CONTINUOUS
 62
     3
 10
0
 20
-500
 40
175
 50
333.6566024090428
 51
341.8562240170756
  0
CIRCLE
  8
0
  6
CONTINUOUS
 62
     7
 10
161.678955078125
 20
-566.9696044921875
 40
9.5
  0
ARC
  8
0
  6
CONTINUOUS
 62
     3
 10
0
 20
-500
 40
175
 50
18.6566224443021
 51
26.85623892969302
  0
CIRCLE
  8
0
  6
CONTINUOUS
 62
     7
 10
161.6788940429688
 20
-433.0303955078125
 40
9.5
  0
ARC
  8
0
  6
CONTINUOUS
 62
     3
 10
0
 20
-500
 40
175
 50
63.65661857389931
 51
71.85624018193211
  0
CIRCLE
  8
0
  6
CONTINUOUS
 62
     7
 10
66.9696044921875
 20
-338.3211059570313
 40
9.5
  0
ARC
  8
0
  6
CONTINUOUS
 62
     3
 10
0
 20
-500
 40
175
 50
108.6566164110438
 51
116.8562311888874
  0
CIRCLE
  8
0
  6
CONTINUOUS
 62
     7
 10
-66.9696044921875
 20
-338.3211059570313
 40
9.5
  0
ARC
  8
0
  6
CONTINUOUS
 62
     3
 10
0
 20
-500
 40
175
 50
153.6566074179991
 51
161.8562221958428
  0
CIRCLE
  8
0
  6
CONTINUOUS
 62
     7
 10
-161.678955078125
 20
-433.0303955078125
 40
9.5
  0
ARC
  8
0
  6
CONTINUOUS
 62
     3
 10
0
 20
-500
 40
175
 50
198.6566157277985
 51
206.8562305056421
  0
CIRCLE
  8
0
  6
CONTINUOUS
 62
     7
 10
-161.678955078125
 20
-566.9696044921875
 40
9.5
  0
ARC
  8
0
  6
CONTINUOUS
 62
     3
 10
0
 20
-500
 40
175
 50
243.6566067347538
 51
251.8562283427866
  0
CIRCLE
  8
0
  6
CONTINUOUS
 62
     7
 10
-66.9696044921875
 20
-661.678955078125
 40
9.5
  0
ARC
  8
0
  6
CONTINUOUS
 62
     3
 10
0
 20
-500
 40
175.0000000000001
 50
288.6566045718983
 51
296.8562261799311
  0
CIRCLE
  8
0
  6
CONTINUOUS
 62
     7
 10
66.9696044921875
 20
-661.678955078125
 40
9.5
  0
CIRCLE
  8
0
  6
CONTINUOUS
 62
     7
 10
0
 20
-500
 40
75
  0
CIRCLE
  8
0
  6
CONTINUOUS
 62
     7
 10
0
 20
-500
 40
110
  0
ARC
  8
0
  6
CONTINUOUS
 62
     3
 10
0
 20
-500
 40
95
 50
355.1693713345101
 51
4.830628665489865
  0
ARC
  8
0
  6
CONTINUOUS
 62
     3
 10
0
 20
-500
 40
95.00000000000001
 50
55.16937086972811
 51
64.83062563938695
  0
ARC
  8
0
  6
CONTINUOUS
 62
     3
 10
0
 20
-500
 40
95
 50
115.169365709191
 51
124.8306273090391
  0
ARC
  8
0
  6
CONTINUOUS
 62
     3
 10
0
 20
-500
 40
95
 50
175.1693673788431
 51
184.8306289786912
  0
ARC
  8
0
  6
CONTINUOUS
 62
     3
 10
0
 20
-500
 40
95.00000000000001
 50
235.1693726909609
 51
244.8306342908089
  0
ARC
  8
0
  6
CONTINUOUS
 62
     3
 10
0
 20
-500
 40
94.99999999999997
 50
295.1693743606131
 51
304.8306291302719
  0
CIRCLE
  8
0
  6
CONTINUOUS
 62
     3
 10
0
 20
-500
 40
8
  0
CIRCLE
  8
0
  6
CONTINUOUS
 62
     7
 10
0
 20
-500
 40
7
  0
ARC
  8
0
  6
CONTINUOUS
 62
     7
 10
0
 20
-500
 40
150
 50
13.00753690632463
 51
186.9924658132702
  0
ARC
  8
0
  6
CONTINUOUS
 62
     7
 10
0
 20
-500
 40
142
 50
16.87726083531811
 51
183.1227401767295
  0
CIRCLE
  8
0
  6
CONTINUOUS
 62
     7
 10
-130.4869995117188
 20
-523.0083618164063
 40
19
  0
CIRCLE
  8
0
  6
CONTINUOUS
 62
     7
 10
130.4869995117188
 20
-476.9916076660156
 40
19
  0
ARC
  8
0
  6
CONTINUOUS
 62
     7
 10
0
 20
-500
 40
142
 50
196.8772558263618
 51
3.122739223197954
  0
ARC
  8
0
  6
CONTINUOUS
 62
     7
 10
0
 20
-500
 40
150
 50
193.0075438501993
 51
6.992462938748019
  0
ARC
  8
0
  6
CONTINUOUS
 62
     7
 10
652.9999389648438
 20
6.542456048919121E-06
 40
12.50000000000001
 50
203.5781631757645
 51
336.4218215699954
  0
ARC
  8
0
  6
CONTINUOUS
 62
     7
 10
741
 20
-101.9060592651367
 40
4.999999999999999
 50
275.0001399302667
 51
0
  0
ARC
  8
0
  6
CONTINUOUS
 62
     7
 10
728
 20
-113.0815963745117
 40
5.000000000000004
 50
95.00015859960162
 51
179.9999640278213
  0
ARC
  8
0
  6
CONTINUOUS
 62
     7
 10
741
 20
101.906135559082
 40
5
 50
359.9999453584866
 51
84.99980542821916
  0
ARC
  8
0
  6
CONTINUOUS
 62
     7
 10
728
 20
113.081672668457
 40
5.000000000000038
 50
179.9999776881996
 51
264.9998377579323
  0
ARC
  8
0
  6
CONTINUOUS
 62
     7
 10
708
 20
7.964731594256591E-06
 40
30.00000000000001
 50
304.849917584488
 51
327.7690578916672
  0
ARC
  8
0
  6
CONTINUOUS
 62
     7
 10
728
 20
-28.72283172607422
 40
5.000000000000028
 50
124.849888442499
 51
179.9999640278213
  0
ARC
  8
0
  6
CONTINUOUS
 62
     7
 10
728
 20
28.72284698486328
 40
5.000000000000038
 50
179.9999776881997
 51
235.1501079150353
  0
ARC
  8
0
  6
CONTINUOUS
 62
     7
 10
653
 20
6.542457867908524E-06
 40
20.13370323181152
 50
14.37929160866249
 51
165.620708277652
  0
ARC
  8
0
  6
CONTINUOUS
 62
     7
 10
653
 20
6.542457867908524E-06
 40
20.13370323181157
 50
194.379291722348
 51
345.6207083913375
  0
ARC
  8
0
  6
CONTINUOUS
 62
     7
 10
652.9999389648438
 20
6.542456048919121E-06
 40
12.5
 50
23.57817843000461
 51
156.4218368242355
  0
ARC
  8
0
  6
CONTINUOUS
 62
     7
 10
632.9999389648437
 20
6.025265975040384E-06
 40
5
 50
89.99998201391031
 51
270.0000006832456
  0
ARC
  8
0
  6
CONTINUOUS
 62
     7
 10
672.9999389648438
 20
7.059646577545209E-06
 40
5
 50
270.0000179860897
 51
89.99998201391031
  0
ARC
  8
0
  6
CONTINUOUS
 62
     7
 10
576.3798828125
 20
72.34314727783203
 40
9.999999999999998
 50
232.6508497175454
 51
269.9999974955215
  0
ARC
  8
0
  6
CONTINUOUS
 62
     7
 10
545
 20
96.29083251953125
 40
10
 50
179.999991348578
 51
232.6508597354581
  0
ARC
  8
0
  6
CONTINUOUS
 62
     7
 10
598
 20
67.34314727783203
 40
4.999999999999997
 50
269.9999974955222
 51
0
  0
ARC
  8
0
  6
CONTINUOUS
 62
     7
 10
576.3799438476562
 20
-72.34313201904297
 40
10
 50
90.00000250447847
 51
127.3491502824545
  0
ARC
  8
0
  6
CONTINUOUS
 62
     7
 10
598
 20
-67.34313201904297
 40
5
 50
0
 51
90.00000250447782
  0
ARC
  8
0
  6
CONTINUOUS
 62
     7
 10
545
 20
-96.29083251953125
 40
10.00000000000001
 50
127.3491502824545
 51
180.0000050089563
  0
ARC
  8
0
  6
CONTINUOUS
 62
     7
 10
495
 20
2.456654101479216E-06
 40
10
 50
270.0000179860893
 51
89.99998201391064
  0
CIRCLE
  8
0
  6
CONTINUOUS
 62
     7
 10
575
 20
4.525415533862542E-06
 40
13.5
  0
ARC
  8
0
  6
CONTINUOUS
 62
     7
 10
883
 20
3.128406888208701E-06
 40
3
 50
90.0000229950449
 51
270.0000006832452
  0
ARC
  8
0
  6
CONTINUOUS
 62
     7
 10
720
 20
8.275045729533304E-06
 40
16
 50
89.99998201391055
 51
270.0000006832454
  0
ARC
  8
0
  6
CONTINUOUS
 62
     7
 10
708
 20
7.964731594256591E-06
 40
29.99999999999996
 50
32.23094210833278
 51
55.15011656645787
  0
POLYLINE
  8
0
  6
CONTINUOUS
 62
     7
 66
     1
 10
0
 20
0
  0
VERTEX
  8
0
  6
CONTINUOUS
 62
     7
 10
502.0004784336099
 20
-379.2489833012394
 42
-0.1887438261067408
  0
VERTEX
  8
0
  6
CONTINUOUS
 62
     7
 10
515.051939843289
 20
-400.648789049435
 42
-0.06038154194833921
  0
VERTEX
  8
0
  6
CONTINUOUS
 62
     7
 10
515.6954407488979
 20
-426.2089026389468
 42
-0.0004322094772693455
  0
VERTEX
  8
0
  6
CONTINUOUS
 62
     7
 10
514.1862877717592
 20
-451.8004336457473
 42
0.008397338895544306
  0
VERTEX
  8
0
  6
CONTINUOUS
 62
     7
 10
513.0761581527086
 20
-477.4113338886147
 42
0.01779810160057752
  0
VERTEX
  8
0
  6
CONTINUOUS
 62
     7
 10
513.3110460765879
 20
-503.0406182957988
 42
0.01884773853434731
  0
VERTEX
  8
0
  6
CONTINUOUS
 62
     7
 10
515.6108054301302
 20
-528.5670107767883
 42
-0.02521594289077534
  0
VERTEX
  8
0
  6
CONTINUOUS
 62
     7
 10
517.6467007706173
 20
-554.1104424876518
 42
-0.07191649279413735
  0
VERTEX
  8
0
  6
CONTINUOUS
 62
     7
 10
514.7201551471846
 20
-579.4892622140839
 42
-0.1364474722813522
  0
VERTEX
  8
0
  6
CONTINUOUS
 62
     7
 10
502.0005696393021
 20
-601.3925060611157
 42
0
  0
SEQEND
  8
0
  0
POLYLINE
  8
0
  6
CONTINUOUS
 62
     7
 66
     1
 10
0
 20
0
  0
VERTEX
  8
0
  6
CONTINUOUS
 62
     7
 10
502.0004523119958
 20
97.36923523552379
 42
-0.200571599420526
  0
VERTEX
  8
0
  6
CONTINUOUS
 62
     7
 10
515.9153621688957
 20
80.30384956049498
 42
-0.08979221210163688
  0
VERTEX
  8
0
  6
CONTINUOUS
 62
     7
 10
516.7932490248596
 20
57.85379579322763
 42
0.01006572111062176
  0
VERTEX
  8
0
  6
CONTINUOUS
 62
     7
 10
514.5455856013918
 20
35.37203230322139
 42
0.01797339394846087
  0
VERTEX
  8
0
  6
CONTINUOUS
 62
     7
 10
513.7961174276859
 20
12.79354440316289
 42
0.01311236202343679
  0
VERTEX
  8
0
  6
CONTINUOUS
 62
     7
 10
514.4686460604989
 20
-9.789901721693937
 42
0.0001805318857904443
  0
VERTEX
  8
0
  6
CONTINUOUS
 62
     7
 10
515.8135940671605
 20
-32.34514576604924
 42
-0.012429889168249
  0
VERTEX
  8
0
  6
CONTINUOUS
 62
     7
 10
516.5531341760972
 20
-54.92569797750684
 42
-0.05260470463657345
  0
VERTEX
  8
0
  6
CONTINUOUS
 62
     7
 10
514.9521165000685
 20
-77.41981847976582
 42
-0.2794032108806386
  0
VERTEX
  8
0
  6
CONTINUOUS
 62
     7
 10
502.0011143831649
 20
-94.56840907453717
 42
0
  0
SEQEND
  8
0
  0
TEXT
  8
0
  6
CONTINUOUS
 62
     7
 10
-115.7142906188965
 20
-15
 40
30
 41
0.8455556493890867
  1
ＥＲＶ－＿ＮＢＥ
  0
ENDSEC
  0
EOF
