  0
SECTION
  2
HEADER
  0
ENDSEC
  0
SECTION
  2
TABLES
  0
TABLE
  2
LTYPE
 70
    22
  0
LTYPE
  2
CONTINUOUS
 70
    64
  3
Solid line
 72
    65
 73
     0
 40
0.000000
  0
LTYPE
  2
DASHED
 70
    64
  3
__ __ __ __ __ __ __ __ __ __ __ __ __ __ __
 72
    65
 73
     2
 40
3.500000
 49
2.000000
 49
-1.500000
  0
LTYPE
  2
CENTER
 70
    64
  3
____ _ ____ _ ____ _ ____ _ ____ _ ____ _ ____
 72
    65
 73
     4
 40
17.500000
 49
13.000000
 49
-1.500000
 49
1.500000
 49
-1.500000
  0
LTYPE
  2
PHANTOM
 70
    64
  3
_____ _ _ _____ _ _ _____ _ _ _____ _ _ ____  
 72
    65
 73
     6
 40
15.500000
 49
8.000000
 49
-1.500000
 49
1.500000
 49
-1.500000
 49
1.500000
 49
-1.500000
  0
LTYPE
  2
DOT
 70
    64
  3
. . . . . . . . . . . . . . . . . . . . . . . .
 72
    65
 73
     2
 40
0.25
 49
0.0
 49
-0.25
  0
ENDTAB
  0
TABLE
  2
LAYER
 70
     1
  0
LAYER
  2
0
 70
     0
 62
     7
  6
CONTINUOUS
  0
ENDTAB
  0
TABLE
  2
STYLE
 70
     1
  0
STYLE
  2
STANDARD
 70
     0
 40
0.000000
 41
1.000000
 50
0.000000
 71
     0
 42
0.200000
  3
txt
  4
BIGFONT
  0
ENDTAB
  0
TABLE
  2
VIEW
 70
     0
  0
ENDTAB
  0
ENDSEC
  0
SECTION
  2
BLOCKS
  0
ENDSEC
  0
SECTION
  2
ENTITIES
  0
LINE
  8
0
  6
CONTINUOUS
 62
     3
 10
330
 20
-425
 11
809.15869140625
 21
-425
  0
LINE
  8
0
  6
CONTINUOUS
 62
     7
 10
589
 20
-310
 11
589
 21
-540
  0
LINE
  8
0
  6
CONTINUOUS
 62
     7
 10
589
 20
-310
 11
595.5742797851563
 21
-310
  0
LINE
  8
0
  6
CONTINUOUS
 62
     7
 10
589
 20
-540
 11
616
 21
-540
  0
LINE
  8
0
  6
CONTINUOUS
 62
     7
 10
607
 20
-321.816650390625
 11
607
 21
-540
  0
LINE
  8
0
  6
CONTINUOUS
 62
     7
 10
654
 20
-352.5
 11
654
 21
-497.5
  0
LINE
  8
0
  6
CONTINUOUS
 62
     7
 10
654
 20
-497.5
 11
664
 21
-497.5
  0
LINE
  8
0
  6
CONTINUOUS
 62
     7
 10
654
 20
-352.5
 11
664
 21
-352.5
  0
LINE
  8
0
  6
CONTINUOUS
 62
     7
 10
622
 20
-347.5
 11
622
 21
-502.5
  0
LINE
  8
0
  6
CONTINUOUS
 62
     7
 10
612
 20
-507.5
 11
617
 21
-507.5
  0
LINE
  8
0
  6
CONTINUOUS
 62
     7
 10
616
 20
-310
 11
616
 21
-340.5
  0
LINE
  8
0
  6
CONTINUOUS
 62
     7
 10
612
 20
-342.5
 11
617
 21
-342.5
  0
LINE
  8
0
  6
CONTINUOUS
 62
     7
 10
616
 20
-540
 11
616
 21
-509.5
  0
LINE
  8
0
  6
CONTINUOUS
 62
     7
 10
621.9999389648438
 20
-364.2030334472656
 11
653.9999389648437
 21
-371.5271911621094
  0
LINE
  8
0
  6
CONTINUOUS
 62
     7
 10
622
 20
-390.947509765625
 11
654
 21
-390.947509765625
  0
LINE
  8
0
  6
CONTINUOUS
 62
     7
 10
622
 20
-485.7969665527344
 11
654
 21
-478.4728088378906
  0
LINE
  8
0
  6
CONTINUOUS
 62
     7
 10
622
 20
-459.052490234375
 11
654
 21
-459.052490234375
  0
LINE
  8
0
  6
CONTINUOUS
 62
     7
 10
612.4257202148437
 20
-310
 11
616
 21
-310
  0
LINE
  8
0
  6
CONTINUOUS
 62
     7
 10
606.9999389648437
 20
-321.8166809082031
 11
615.9999389648437
 21
-320.7745971679688
  0
LINE
  8
0
  6
CONTINUOUS
 62
     7
 10
541
 20
-307.5
 11
585
 21
-307.5
  0
LINE
  8
0
  6
CONTINUOUS
 62
     7
 10
541
 20
-542.5
 11
585
 21
-542.5
  0
LINE
  8
0
  6
CONTINUOUS
 62
     7
 10
537
 20
-310
 11
537
 21
-540
  0
LINE
  8
0
  6
CONTINUOUS
 62
     7
 10
537
 20
-311.5000305175781
 11
541.0000610351563
 21
-307.5
  0
LINE
  8
0
  6
CONTINUOUS
 62
     7
 10
585
 20
-307.5
 11
589
 21
-311.5
  0
LINE
  8
0
  6
CONTINUOUS
 62
     7
 10
589
 20
-538.5
 11
585
 21
-542.5
  0
LINE
  8
0
  6
CONTINUOUS
 62
     7
 10
541
 20
-542.5
 11
537
 21
-538.5
  0
LINE
  8
0
  6
CONTINUOUS
 62
     7
 10
541
 20
-350.0578002929687
 11
585
 21
-350.0578002929687
  0
LINE
  8
0
  6
CONTINUOUS
 62
     7
 10
541
 20
-363.7132568359375
 11
585
 21
-363.7132568359375
  0
LINE
  8
0
  6
CONTINUOUS
 62
     7
 10
541
 20
-372.4596557617187
 11
585
 21
-372.4596557617187
  0
LINE
  8
0
  6
CONTINUOUS
 62
     7
 10
541
 20
-387.8352966308594
 11
585
 21
-387.8352966308594
  0
LINE
  8
0
  6
CONTINUOUS
 62
     7
 10
541
 20
-397.447998046875
 11
585
 21
-397.447998046875
  0
LINE
  8
0
  6
CONTINUOUS
 62
     7
 10
541
 20
-414.00048828125
 11
585
 21
-414.00048828125
  0
LINE
  8
0
  6
CONTINUOUS
 62
     7
 10
541
 20
-436.0003051757812
 11
585
 21
-436.0003051757812
  0
LINE
  8
0
  6
CONTINUOUS
 62
     7
 10
541
 20
-452.5516662597656
 11
585
 21
-452.5516662597656
  0
LINE
  8
0
  6
CONTINUOUS
 62
     7
 10
541
 20
-462.1639404296875
 11
585
 21
-462.1639404296875
  0
LINE
  8
0
  6
CONTINUOUS
 62
     7
 10
541
 20
-477.5404357910156
 11
585
 21
-477.5404357910156
  0
LINE
  8
0
  6
CONTINUOUS
 62
     7
 10
541
 20
-486.2864379882813
 11
585
 21
-486.2864379882813
  0
LINE
  8
0
  6
CONTINUOUS
 62
     7
 10
541
 20
-499.9408874511719
 11
585
 21
-499.9408874511719
  0
LINE
  8
0
  6
CONTINUOUS
 62
     7
 10
541
 20
-515.4974365234375
 11
585
 21
-515.4974365234375
  0
LINE
  8
0
  6
CONTINUOUS
 62
     7
 10
541
 20
-525.2504272460938
 11
585
 21
-525.2504272460938
  0
LINE
  8
0
  6
CONTINUOUS
 62
     7
 10
541
 20
-530.0982055664062
 11
585
 21
-530.0982055664062
  0
LINE
  8
0
  6
CONTINUOUS
 62
     7
 10
541
 20
-536.4676513671875
 11
585
 21
-536.4676513671875
  0
LINE
  8
0
  6
CONTINUOUS
 62
     7
 10
757
 20
-405
 11
757
 21
-445
  0
LINE
  8
0
  6
CONTINUOUS
 62
     7
 10
714
 20
-352.5
 11
704
 21
-352.5
  0
LINE
  8
0
  6
CONTINUOUS
 62
     7
 10
719
 20
-373
 11
714
 21
-373
  0
LINE
  8
0
  6
CONTINUOUS
 62
     7
 10
714
 20
-352.5
 11
714
 21
-497.5
  0
LINE
  8
0
  6
CONTINUOUS
 62
     7
 10
750
 20
-396.5
 11
750
 21
-453.5
  0
LINE
  8
0
  6
CONTINUOUS
 62
     7
 10
757
 20
-404.9999389648437
 11
750
 21
-400.95849609375
  0
LINE
  8
0
  6
CONTINUOUS
 62
     7
 10
750
 20
-396.5
 11
737.8580322265625
 21
-396.5
  0
LINE
  8
0
  6
CONTINUOUS
 62
     7
 10
757.0000610351563
 20
-445.0000305175781
 11
750.0000610351563
 21
-449.0414733886719
  0
LINE
  8
0
  6
CONTINUOUS
 62
     7
 10
719
 20
-477
 11
719
 21
-373
  0
LINE
  8
0
  6
CONTINUOUS
 62
     7
 10
719
 20
-477
 11
714
 21
-477
  0
LINE
  8
0
  6
CONTINUOUS
 62
     7
 10
714
 20
-497.5
 11
704
 21
-497.5
  0
LINE
  8
0
  6
CONTINUOUS
 62
     7
 10
791
 20
-413
 11
766
 21
-413
  0
LINE
  8
0
  6
CONTINUOUS
 62
     7
 10
791
 20
-413
 11
791
 21
-434.5
  0
LINE
  8
0
  6
CONTINUOUS
 62
     7
 10
791
 20
-434.5
 11
761
 21
-434.5
  0
LINE
  8
0
  6
CONTINUOUS
 62
     7
 10
791
 20
-415.5
 11
761
 21
-415.5
  0
LINE
  8
0
  6
CONTINUOUS
 62
     7
 10
761
 20
-412.5
 11
761
 21
-437.5
  0
LINE
  8
0
  6
CONTINUOUS
 62
     7
 10
761
 20
-437.5
 11
757
 21
-437.5
  0
LINE
  8
0
  6
CONTINUOUS
 62
     7
 10
761
 20
-412.5
 11
757
 21
-412.5
  0
LINE
  8
0
  6
CONTINUOUS
 62
     7
 10
766
 20
-413
 11
766
 21
-415.5
  0
LINE
  8
0
  6
CONTINUOUS
 62
     7
 10
750
 20
-453.5
 11
737.8580322265625
 21
-453.5
  0
LINE
  8
0
  6
CONTINUOUS
 62
     7
 10
738.4999389648437
 20
-419.0823669433594
 11
719
 21
-414.03125
  0
LINE
  8
0
  6
CONTINUOUS
 62
     7
 10
738.5
 20
-405.935302734375
 11
719
 21
-392.1353149414063
  0
LINE
  8
0
  6
CONTINUOUS
 62
     7
 10
719
 20
-378.2694702148438
 11
738.5
 21
-397.1205444335938
  0
LINE
  8
0
  6
CONTINUOUS
 62
     7
 10
738.5
 20
-433.8154602050781
 11
719
 21
-438.8665771484375
  0
LINE
  8
0
  6
CONTINUOUS
 62
     7
 10
719
 20
-459.9861450195313
 11
738.5
 21
-446.1861877441406
  0
LINE
  8
0
  6
CONTINUOUS
 62
     7
 10
719
 20
-471.7305297851562
 11
738.5
 21
-452.8794555664063
  0
LINE
  8
0
  6
CONTINUOUS
 62
     7
 10
445
 20
-275
 11
467
 21
-275
  0
LINE
  8
0
  6
CONTINUOUS
 62
     7
 10
445
 20
-575
 11
467
 21
-575
  0
LINE
  8
0
  6
CONTINUOUS
 62
     7
 10
445
 20
-275
 11
445
 21
-332.2501525878906
  0
LINE
  8
0
  6
CONTINUOUS
 62
     7
 10
467
 20
-275
 11
467
 21
-575
  0
LINE
  8
0
  6
CONTINUOUS
 62
     7
 10
519
 20
-310
 11
519
 21
-540
  0
LINE
  8
0
  6
CONTINUOUS
 62
     7
 10
519
 20
-540
 11
537
 21
-540
  0
LINE
  8
0
  6
CONTINUOUS
 62
     7
 10
472
 20
-310
 11
537
 21
-310
  0
LINE
  8
0
  6
CONTINUOUS
 62
     7
 10
470.0956726074219
 20
-491.2222595214844
 11
504.6410217285156
 21
-476.9927673339844
  0
LINE
  8
0
  6
CONTINUOUS
 62
     7
 10
470.095703125
 20
-358.7777709960937
 11
504.6410217285156
 21
-373.0072326660156
  0
LINE
  8
0
  6
CONTINUOUS
 62
     7
 10
467
 20
-318.1235046386719
 11
519
 21
-339.4042358398437
  0
LINE
  8
0
  6
CONTINUOUS
 62
     7
 10
467
 20
-332.2656555175781
 11
519
 21
-353.54638671875
  0
LINE
  8
0
  6
CONTINUOUS
 62
     7
 10
504.6410217285156
 20
-373.0072326660156
 11
514
 21
-373.0072326660156
  0
LINE
  8
0
  6
CONTINUOUS
 62
     7
 10
504.6410217285156
 20
-476.9927978515625
 11
514
 21
-476.9927978515625
  0
LINE
  8
0
  6
CONTINUOUS
 62
     7
 10
467
 20
-517.734375
 11
519
 21
-496.4535827636719
  0
LINE
  8
0
  6
CONTINUOUS
 62
     7
 10
467.0000305175781
 20
-531.8765258789062
 11
519
 21
-510.5957336425781
  0
LINE
  8
0
  6
CONTINUOUS
 62
     7
 10
440
 20
-540
 11
445
 21
-540
  0
LINE
  8
0
  6
CONTINUOUS
 62
     7
 10
440
 20
-310
 11
445
 21
-310
  0
LINE
  8
0
  6
CONTINUOUS
 62
     7
 10
350
 20
-388.5
 11
350
 21
-457.5
  0
LINE
  8
0
  6
CONTINUOUS
 62
     7
 10
350
 20
-457.5
 11
445
 21
-457.5
  0
LINE
  8
0
  6
CONTINUOUS
 62
     7
 10
350
 20
-392.5
 11
445
 21
-392.5
  0
LINE
  8
0
  6
CONTINUOUS
 62
     7
 10
440
 20
-505.2203674316406
 11
440
 21
-540
  0
LINE
  8
0
  6
CONTINUOUS
 62
     7
 10
445
 20
-496.8104858398437
 11
445
 21
-575
  0
LINE
  8
0
  6
CONTINUOUS
 62
     7
 10
440
 20
-310
 11
440
 21
-327.4778747558594
  0
LINE
  8
0
  6
CONTINUOUS
 62
     7
 10
350
 20
-388.5
 11
430
 21
-388.5
  0
LINE
  8
0
  6
CONTINUOUS
 62
     7
 10
430
 20
-388.5
 11
430
 21
-392.5
  0
LINE
  8
0
  6
CONTINUOUS
 62
     7
 10
445
 20
-387.5
 11
448.7959899902344
 21
-387.5
  0
LINE
  8
0
  6
CONTINUOUS
 62
     7
 10
445
 20
-462.5
 11
449.16015625
 21
-462.5
  0
LINE
  8
0
  6
CONTINUOUS
 62
     7
 10
445
 20
-388.1000061035156
 11
445
 21
-462.5
  0
LINE
  8
0
  6
CONTINUOUS
 62
     3
 10
493
 20
-218.0375671386719
 11
493
 21
-325
  0
LINE
  8
0
  6
CONTINUOUS
 62
     7
 10
479.5
 20
-240.7000122070312
 11
506.5
 21
-240.7000122070312
  0
LINE
  8
0
  6
CONTINUOUS
 62
     7
 10
501.0710754394531
 20
-226.0500183105469
 11
484.9289245605469
 21
-226.0500183105469
  0
LINE
  8
0
  6
CONTINUOUS
 62
     7
 10
501.507568359375
 20
-235.0500183105469
 11
484.492431640625
 21
-235.0500183105469
  0
LINE
  8
0
  6
CONTINUOUS
 62
     7
 10
501.507568359375
 20
-235.0500183105469
 11
501.3309936523438
 21
-240.7000122070312
  0
LINE
  8
0
  6
CONTINUOUS
 62
     7
 10
484.4924011230469
 20
-235.0500183105469
 11
484.6689758300781
 21
-240.7000122070312
  0
LINE
  8
0
  6
CONTINUOUS
 62
     7
 10
501.071044921875
 20
-226.0500183105469
 11
501.071044921875
 21
-235.0500183105469
  0
LINE
  8
0
  6
CONTINUOUS
 62
     7
 10
484.928955078125
 20
-226.0500183105469
 11
484.928955078125
 21
-235.0500183105469
  0
LINE
  8
0
  6
CONTINUOUS
 62
     7
 10
479.5
 20
-272.7000122070313
 11
506.5
 21
-272.7000122070313
  0
LINE
  8
0
  6
CONTINUOUS
 62
     7
 10
484.3499755859375
 20
-272.7000122070313
 11
484.3499755859375
 21
-310
  0
LINE
  8
0
  6
CONTINUOUS
 62
     7
 10
501.6500244140625
 20
-272.7000122070313
 11
501.6500244140625
 21
-310
  0
LINE
  8
0
  6
CONTINUOUS
 62
     7
 10
506.5
 20
-240.7000122070312
 11
506.5
 21
-272.7000122070313
  0
LINE
  8
0
  6
CONTINUOUS
 62
     7
 10
479.5
 20
-240.7000122070312
 11
479.5
 21
-272.7000122070313
  0
LINE
  8
0
  6
CONTINUOUS
 62
     3
 10
484.9289855957031
 20
-235.0500030517578
 11
493.0000305175781
 21
-226.0500030517578
  0
LINE
  8
0
  6
CONTINUOUS
 62
     3
 10
484.928955078125
 20
-226.0500335693359
 11
493
 21
-235.0500183105469
  0
LINE
  8
0
  6
CONTINUOUS
 62
     7
 10
493
 20
-235.0500183105469
 11
493
 21
-226.0500183105469
  0
LINE
  8
0
  6
CONTINUOUS
 62
     3
 10
493.0000610351563
 20
-226.0500335693359
 11
501.0710754394531
 21
-235.0500183105469
  0
LINE
  8
0
  6
CONTINUOUS
 62
     3
 10
501.071044921875
 20
-226.0499877929688
 11
493
 21
-235.0500030517578
  0
LINE
  8
0
  6
CONTINUOUS
 62
     7
 10
667.5
 20
-500
 11
700.5
 21
-500
  0
LINE
  8
0
  6
CONTINUOUS
 62
     7
 10
664
 20
-352.5
 11
664
 21
-497.5
  0
LINE
  8
0
  6
CONTINUOUS
 62
     7
 10
667.5
 20
-495.4512939453125
 11
700.5
 21
-495.4512939453125
  0
LINE
  8
0
  6
CONTINUOUS
 62
     7
 10
667.5
 20
-350
 11
700.5
 21
-350
  0
LINE
  8
0
  6
CONTINUOUS
 62
     7
 10
667.5
 20
-350.0000305175781
 11
664
 21
-354.160888671875
  0
LINE
  8
0
  6
CONTINUOUS
 62
     7
 10
700.5
 20
-350
 11
704
 21
-354.160888671875
  0
LINE
  8
0
  6
CONTINUOUS
 62
     7
 10
704
 20
-352.5
 11
704
 21
-497.5
  0
LINE
  8
0
  6
CONTINUOUS
 62
     7
 10
667.5
 20
-499.9999694824219
 11
664
 21
-495.839111328125
  0
LINE
  8
0
  6
CONTINUOUS
 62
     7
 10
700.5
 20
-500
 11
704
 21
-495.839111328125
  0
LINE
  8
0
  6
CONTINUOUS
 62
     7
 10
667.5
 20
-395.5653076171875
 11
700.5
 21
-395.5653076171875
  0
LINE
  8
0
  6
CONTINUOUS
 62
     7
 10
667.5
 20
-404.2552795410156
 11
700.5
 21
-404.2552795410156
  0
LINE
  8
0
  6
CONTINUOUS
 62
     7
 10
667.5
 20
-412.0502319335938
 11
700.5
 21
-412.0502319335938
  0
LINE
  8
0
  6
CONTINUOUS
 62
     7
 10
667.5
 20
-421.0000610351562
 11
700.5
 21
-421.0000610351562
  0
LINE
  8
0
  6
CONTINUOUS
 62
     7
 10
667.5
 20
-429.0000915527344
 11
700.5
 21
-429.0000915527344
  0
LINE
  8
0
  6
CONTINUOUS
 62
     7
 10
667.5
 20
-437.9499206542969
 11
700.5
 21
-437.9499206542969
  0
LINE
  8
0
  6
CONTINUOUS
 62
     7
 10
667.5
 20
-445.744873046875
 11
700.5
 21
-445.744873046875
  0
LINE
  8
0
  6
CONTINUOUS
 62
     7
 10
667.5
 20
-454.4347839355469
 11
700.5
 21
-454.4347839355469
  0
LINE
  8
0
  6
CONTINUOUS
 62
     7
 10
667.5
 20
-470.0232543945312
 11
700.5
 21
-470.0232543945312
  0
LINE
  8
0
  6
CONTINUOUS
 62
     7
 10
667.5
 20
-477.0454406738281
 11
700.5
 21
-477.0454406738281
  0
LINE
  8
0
  6
CONTINUOUS
 62
     7
 10
667.5
 20
-482.5014343261719
 11
700.5
 21
-482.5014343261719
  0
LINE
  8
0
  6
CONTINUOUS
 62
     7
 10
667.5
 20
-487.8594360351563
 11
700.5
 21
-487.8594360351563
  0
LINE
  8
0
  6
CONTINUOUS
 62
     7
 10
667.5
 20
-491.8594360351563
 11
700.5
 21
-491.8594360351563
  0
LINE
  8
0
  6
CONTINUOUS
 62
     3
 10
574
 20
-415.135009765625
 11
574
 21
-434.864990234375
  0
LINE
  8
0
  6
CONTINUOUS
 62
     7
 10
574
 20
-420.0502624511719
 11
569.0502319335937
 21
-425
  0
LINE
  8
0
  6
CONTINUOUS
 62
     7
 10
569.0502319335937
 20
-425
 11
574
 21
-429.9497375488281
  0
LINE
  8
0
  6
CONTINUOUS
 62
     7
 10
574
 20
-429.9497375488281
 11
578.94970703125
 21
-425
  0
LINE
  8
0
  6
CONTINUOUS
 62
     7
 10
578.9497680664062
 20
-425
 11
574
 21
-420.0502624511719
  0
LINE
  8
0
  6
CONTINUOUS
 62
     3
 10
647.4326171875
 20
-276.8999938964844
 11
586.7659301757813
 21
-276.8999938964844
  0
LINE
  8
0
  6
CONTINUOUS
 62
     3
 10
604
 20
-261.5993957519531
 11
604
 21
-318.7841186523437
  0
LINE
  8
0
  6
CONTINUOUS
 62
     7
 10
612.5
 20
-301.2159423828125
 11
612.5
 21
-313.2413330078125
  0
LINE
  8
0
  6
CONTINUOUS
 62
     7
 10
595.5
 20
-301.2159729003906
 11
595.5
 21
-313.2413330078125
  0
LINE
  8
0
  6
CONTINUOUS
 62
     7
 10
642
 20
-285.1677856445313
 11
642
 21
-268.6322021484375
  0
LINE
  8
0
  6
CONTINUOUS
 62
     7
 10
633
 20
-285.4075622558594
 11
633
 21
-268.3924560546875
  0
LINE
  8
0
  6
CONTINUOUS
 62
     7
 10
633
 20
-285.4075622558594
 11
627
 21
-285.2200622558594
  0
LINE
  8
0
  6
CONTINUOUS
 62
     7
 10
633
 20
-268.3924560546875
 11
627
 21
-268.5799560546875
  0
LINE
  8
0
  6
CONTINUOUS
 62
     7
 10
615
 20
-264.8999938964844
 11
627
 21
-264.8999938964844
  0
LINE
  8
0
  6
CONTINUOUS
 62
     7
 10
621
 20
-288.8999938964844
 11
627
 21
-288.8999938964844
  0
LINE
  8
0
  6
CONTINUOUS
 62
     7
 10
627
 20
-264.8999938964844
 11
627
 21
-288.8999938964844
  0
LINE
  8
0
  6
CONTINUOUS
 62
     7
 10
592
 20
-287.8999938964844
 11
592
 21
-299.3105163574219
  0
LINE
  8
0
  6
CONTINUOUS
 62
     7
 10
616
 20
-293.8999938964844
 11
616
 21
-299.3105163574219
  0
LINE
  8
0
  6
CONTINUOUS
 62
     7
 10
633
 20
-268.6322021484375
 11
642
 21
-268.6322021484375
  0
LINE
  8
0
  6
CONTINUOUS
 62
     7
 10
633
 20
-285.1677856445313
 11
642
 21
-285.1677856445313
  0
LINE
  8
0
  6
CONTINUOUS
 62
     7
 10
633
 20
-276.8999938964844
 11
642
 21
-276.8999938964844
  0
LINE
  8
0
  6
CONTINUOUS
 62
     3
 10
642
 20
-276.8999938964844
 11
633
 21
-285.1678161621094
  0
LINE
  8
0
  6
CONTINUOUS
 62
     3
 10
633
 20
-276.8999938964844
 11
642
 21
-268.6322021484375
  0
LINE
  8
0
  6
CONTINUOUS
 62
     3
 10
633
 20
-268.6322021484375
 11
642
 21
-276.8999938964844
  0
LINE
  8
0
  6
CONTINUOUS
 62
     3
 10
642
 20
-285.1678161621094
 11
633
 21
-276.8999938964844
  0
LINE
  8
0
  6
CONTINUOUS
 62
     3
 10
-176.1560668945313
 20
-425
 11
171.580810546875
 21
-425
  0
LINE
  8
0
  6
CONTINUOUS
 62
     3
 10
0
 20
-209.6046752929687
 11
0
 21
-601.5166015625
  0
LINE
  8
0
  6
CONTINUOUS
 62
     7
 10
9
 20
-388.5
 11
9
 21
-399.5
  0
LINE
  8
0
  6
CONTINUOUS
 62
     7
 10
-9
 20
-388.5
 11
-9
 21
-399.5
  0
LINE
  8
0
  6
CONTINUOUS
 62
     3
 10
111.7655639648437
 20
-471.2949829101562
 11
132.5182189941406
 21
-479.8910522460938
  0
LINE
  8
0
  6
CONTINUOUS
 62
     3
 10
111.765739440918
 20
-378.7051086425781
 11
132.5184020996094
 21
-370.1090698242188
  0
LINE
  8
0
  6
CONTINUOUS
 62
     3
 10
46.294921875
 20
-313.234375
 11
54.89094543457031
 21
-292.4817504882813
  0
LINE
  8
0
  6
CONTINUOUS
 62
     3
 10
-46.2946891784668
 20
-313.234375
 11
-54.89072418212891
 21
-292.4817199707031
  0
LINE
  8
0
  6
CONTINUOUS
 62
     3
 10
-111.765625
 20
-378.7049865722656
 11
-132.5182952880859
 21
-370.1089477539062
  0
LINE
  8
0
  6
CONTINUOUS
 62
     3
 10
-111.7656784057617
 20
-471.2947082519531
 11
-132.5183410644531
 21
-479.8907470703125
  0
LINE
  8
0
  6
CONTINUOUS
 62
     3
 10
-46.29496002197266
 20
-536.7655029296875
 11
-54.8910026550293
 21
-557.5181884765625
  0
LINE
  8
0
  6
CONTINUOUS
 62
     3
 10
46.29468154907227
 20
-536.7656860351562
 11
54.89071273803711
 21
-557.5183715820313
  0
LINE
  8
0
  6
CONTINUOUS
 62
     7
 10
-9
 20
-399.5
 11
9
 21
-399.5
  0
LINE
  8
0
  6
CONTINUOUS
 62
     7
 10
-9
 20
-388.5
 11
9
 21
-388.5
  0
LINE
  8
0
  6
CONTINUOUS
 62
     3
 10
58.56740570068359
 20
-458.8139038085938
 11
71.13249206542969
 21
-466.068359375
  0
LINE
  8
0
  6
CONTINUOUS
 62
     3
 10
58.56741333007813
 20
-391.1861267089844
 11
71.13249969482422
 21
-383.9316711425781
  0
LINE
  8
0
  6
CONTINUOUS
 62
     3
 10
-58.56744384765625
 20
-391.1860656738281
 11
-71.13258361816406
 21
-383.9315795898438
  0
LINE
  8
0
  6
CONTINUOUS
 62
     3
 10
-58.5674934387207
 20
-458.8139953613281
 11
-71.13257598876953
 21
-466.0684509277344
  0
LINE
  8
0
  6
CONTINUOUS
 62
     7
 10
-13.5
 20
-240.7000122070312
 11
13.5
 21
-240.7000122070312
  0
LINE
  8
0
  6
CONTINUOUS
 62
     7
 10
8.07110595703125
 20
-226.0500183105469
 11
-8.07110595703125
 21
-226.0500183105469
  0
LINE
  8
0
  6
CONTINUOUS
 62
     7
 10
8.507568359375
 20
-235.0500183105469
 11
-8.507568359375
 21
-235.0500183105469
  0
LINE
  8
0
  6
CONTINUOUS
 62
     7
 10
8.507609367370605
 20
-235.0500030517578
 11
8.331047058105469
 21
-240.7000122070312
  0
LINE
  8
0
  6
CONTINUOUS
 62
     7
 10
-8.507546424865723
 20
-235.0500183105469
 11
-8.330984115600586
 21
-240.6999969482422
  0
LINE
  8
0
  6
CONTINUOUS
 62
     7
 10
8.07110595703125
 20
-226.0500183105469
 11
8.07110595703125
 21
-235.0500183105469
  0
LINE
  8
0
  6
CONTINUOUS
 62
     7
 10
-8.07110595703125
 20
-226.0500183105469
 11
-8.07110595703125
 21
-235.0500183105469
  0
LINE
  8
0
  6
CONTINUOUS
 62
     7
 10
-13.5
 20
-240.7000122070312
 11
-13.5
 21
-275.6087341308594
  0
LINE
  8
0
  6
CONTINUOUS
 62
     7
 10
13.5
 20
-240.7000122070312
 11
13.5
 21
-275.6087341308594
  0
LINE
  8
0
  6
CONTINUOUS
 62
     3
 10
-8.071090698242188
 20
-235.0499572753906
 11
2.050900911854114E-05
 21
-226.0499572753906
  0
LINE
  8
0
  6
CONTINUOUS
 62
     7
 10
0
 20
-226.0500183105469
 11
0
 21
-235.0500183105469
  0
LINE
  8
0
  6
CONTINUOUS
 62
     3
 10
-1.856322342064232E-05
 20
-235.0500335693359
 11
8.07109260559082
 21
-226.0500183105469
  0
LINE
  8
0
  6
CONTINUOUS
 62
     3
 10
8.071117401123047
 20
-235.0500640869141
 11
2.691074769245461E-05
 21
-226.0500793457031
  0
LINE
  8
0
  6
CONTINUOUS
 62
     3
 10
-8.071108818054199
 20
-226.0500335693359
 11
2.189824772358406E-05
 21
-235.0500640869141
  0
LINE
  8
0
  6
CONTINUOUS
 62
     3
 10
37.59789657592773
 20
-262.1456298828125
 11
33.74266052246094
 21
-278.844482421875
  0
LINE
  8
0
  6
CONTINUOUS
 62
     7
 10
22.50012016296387
 20
-274.1963500976562
 11
21.94206809997559
 21
-276.613525390625
  0
LINE
  8
0
  6
CONTINUOUS
 62
     7
 10
45.88500213623047
 20
-279.5951538085938
 11
45.32695007324219
 21
-282.0123596191406
  0
LINE
  8
0
  6
CONTINUOUS
 62
     3
 10
332.5
 20
0
 11
802.8477172851563
 21
0
  0
LINE
  8
0
  6
CONTINUOUS
 62
     7
 10
757.0000610351563
 20
-20
 11
757.0000610351563
 21
20
  0
LINE
  8
0
  6
CONTINUOUS
 62
     7
 10
711
 20
-72.49997711181641
 11
704
 21
-72.49997711181641
  0
LINE
  8
0
  6
CONTINUOUS
 62
     7
 10
719
 20
-51.99997711181641
 11
714
 21
-51.99997711181641
  0
LINE
  8
0
  6
CONTINUOUS
 62
     7
 10
711.0000610351563
 20
-72.5
 11
711.0000610351563
 21
-63.92559814453125
  0
LINE
  8
0
  6
CONTINUOUS
 62
     7
 10
714.0000610351562
 20
-63.92559814453125
 11
714.0000610351562
 21
63.92559814453125
  0
LINE
  8
0
  6
CONTINUOUS
 62
     7
 10
750.0000610351563
 20
-28.5
 11
750.0000610351563
 21
28.5
  0
LINE
  8
0
  6
CONTINUOUS
 62
     7
 10
757
 20
-20.00008392333984
 11
750
 21
-24.04152488708496
  0
LINE
  8
0
  6
CONTINUOUS
 62
     7
 10
750
 20
-28.49997901916504
 11
737.8580322265625
 21
-28.49997901916504
  0
LINE
  8
0
  6
CONTINUOUS
 62
     7
 10
757
 20
19.99995231628418
 11
750.0000610351563
 21
24.04139709472656
  0
LINE
  8
0
  6
CONTINUOUS
 62
     7
 10
750
 20
28.50002098083496
 11
737.8580322265625
 21
28.50002098083496
  0
LINE
  8
0
  6
CONTINUOUS
 62
     7
 10
719.0000610351563
 20
52
 11
719.0000610351563
 21
-52
  0
LINE
  8
0
  6
CONTINUOUS
 62
     7
 10
719
 20
52.00002288818359
 11
714
 21
52.00002288818359
  0
LINE
  8
0
  6
CONTINUOUS
 62
     7
 10
711
 20
72.50002288818359
 11
704
 21
72.50002288818359
  0
LINE
  8
0
  6
CONTINUOUS
 62
     7
 10
714
 20
-63.92557525634766
 11
711
 21
-63.92557525634766
  0
LINE
  8
0
  6
CONTINUOUS
 62
     7
 10
714
 20
63.92562103271484
 11
711
 21
63.92562103271484
  0
LINE
  8
0
  6
CONTINUOUS
 62
     7
 10
791.0000610351563
 20
-9.5
 11
791.0000610351563
 21
9.5
  0
LINE
  8
0
  6
CONTINUOUS
 62
     7
 10
791
 20
9.500021934509277
 11
761
 21
9.500021934509277
  0
LINE
  8
0
  6
CONTINUOUS
 62
     7
 10
791
 20
-9.499978065490723
 11
761
 21
-9.499978065490723
  0
LINE
  8
0
  6
CONTINUOUS
 62
     7
 10
761.0000610351563
 20
-12.5
 11
761.0000610351563
 21
12.5
  0
LINE
  8
0
  6
CONTINUOUS
 62
     7
 10
761
 20
12.50002193450928
 11
757
 21
12.50002193450928
  0
LINE
  8
0
  6
CONTINUOUS
 62
     7
 10
761
 20
-12.49997806549072
 11
757
 21
-12.49997806549072
  0
LINE
  8
0
  6
CONTINUOUS
 62
     7
 10
791
 20
-2.999978303909302
 11
766
 21
-2.999978303909302
  0
LINE
  8
0
  6
CONTINUOUS
 62
     7
 10
791
 20
3.000021696090698
 11
766
 21
3.000021696090698
  0
LINE
  8
0
  6
CONTINUOUS
 62
     7
 10
766.0000610351562
 20
-3
 11
766.0000610351562
 21
3
  0
LINE
  8
0
  6
CONTINUOUS
 62
     7
 10
738.5
 20
-5.917627811431885
 11
719.0000610351563
 21
-10.96875
  0
LINE
  8
0
  6
CONTINUOUS
 62
     7
 10
738.4999389648437
 20
-19.0646800994873
 11
719
 21
-32.86465072631836
  0
LINE
  8
0
  6
CONTINUOUS
 62
     7
 10
719
 20
-46.73049926757813
 11
738.4999389648437
 21
-27.87942123413086
  0
LINE
  8
0
  6
CONTINUOUS
 62
     7
 10
738.5
 20
5.917555809020996
 11
719.0000610351563
 21
10.9686918258667
  0
LINE
  8
0
  6
CONTINUOUS
 62
     7
 10
738.5
 20
19.06473731994629
 11
719.0000610351563
 21
32.86471176147461
  0
LINE
  8
0
  6
CONTINUOUS
 62
     7
 10
719
 20
46.73052597045898
 11
738.4999389648437
 21
27.87944221496582
  0
LINE
  8
0
  6
CONTINUOUS
 62
     7
 10
711.0000610351563
 20
63.92559814453125
 11
711.0000610351563
 21
72.5
  0
LINE
  8
0
  6
CONTINUOUS
 62
     7
 10
589
 20
114.9999694824219
 11
589
 21
4
  0
LINE
  8
0
  6
CONTINUOUS
 62
     7
 10
589
 20
114.9999694824219
 11
607
 21
114.9999694824219
  0
LINE
  8
0
  6
CONTINUOUS
 62
     7
 10
589
 20
-115
 11
607
 21
-115
  0
LINE
  8
0
  6
CONTINUOUS
 62
     7
 10
607
 20
114.9999694824219
 11
607
 21
12.43438720703125
  0
LINE
  8
0
  6
CONTINUOUS
 62
     7
 10
664
 20
72.49996948242187
 11
664
 21
-72.5
  0
LINE
  8
0
  6
CONTINUOUS
 62
     7
 10
654
 20
72.49996948242187
 11
654
 21
-72.5
  0
LINE
  8
0
  6
CONTINUOUS
 62
     7
 10
654
 20
-72.5
 11
664
 21
-72.5
  0
LINE
  8
0
  6
CONTINUOUS
 62
     7
 10
654
 20
72.49996948242187
 11
664
 21
72.49996948242187
  0
LINE
  8
0
  6
CONTINUOUS
 62
     7
 10
622
 20
77.49996948242187
 11
622
 21
3.708099365234375
  0
LINE
  8
0
  6
CONTINUOUS
 62
     7
 10
612
 20
-82.5
 11
617
 21
-82.5
  0
LINE
  8
0
  6
CONTINUOUS
 62
     7
 10
612
 20
82.49996948242188
 11
617
 21
82.49996948242188
  0
LINE
  8
0
  6
CONTINUOUS
 62
     7
 10
616
 20
-48.60113525390625
 11
616
 21
-46.19300079345703
  0
LINE
  8
0
  6
CONTINUOUS
 62
     7
 10
607.0000610351563
 20
12.43439197540283
 11
616
 21
10.02285289764404
  0
LINE
  8
0
  6
CONTINUOUS
 62
     7
 10
607
 20
-51.01267242431641
 11
616
 21
-48.60112380981445
  0
LINE
  8
0
  6
CONTINUOUS
 62
     7
 10
607
 20
-51.01266479492187
 11
607
 21
-115
  0
LINE
  8
0
  6
CONTINUOUS
 62
     7
 10
622
 20
31.18218994140625
 11
654
 21
31.18218994140625
  0
LINE
  8
0
  6
CONTINUOUS
 62
     7
 10
622.0000610351563
 20
57.07563781738281
 11
654.0000610351562
 21
50.24575805664062
  0
LINE
  8
0
  6
CONTINUOUS
 62
     7
 10
642
 20
-31.18218994140625
 11
654
 21
-31.18218994140625
  0
LINE
  8
0
  6
CONTINUOUS
 62
     7
 10
622
 20
-57.07560729980469
 11
654.0000610351562
 21
-50.24572372436523
  0
LINE
  8
0
  6
CONTINUOUS
 62
     7
 10
587.5
 20
4
 11
620.5
 21
4
  0
LINE
  8
0
  6
CONTINUOUS
 62
     7
 10
587.5
 20
-4
 11
620.5
 21
-4
  0
LINE
  8
0
  6
CONTINUOUS
 62
     7
 10
616
 20
4
 11
616
 21
10.0228271484375
  0
LINE
  8
0
  6
CONTINUOUS
 62
     7
 10
622
 20
-3.708099365234375
 11
622
 21
-22.19300079345703
  0
LINE
  8
0
  6
CONTINUOUS
 62
     7
 10
589
 20
-4
 11
589
 21
-115
  0
LINE
  8
0
  6
CONTINUOUS
 62
     7
 10
704
 20
72.50002288818359
 11
704
 21
-72.49997711181641
  0
LINE
  8
0
  6
CONTINUOUS
 62
     7
 10
541
 20
117.4999694824219
 11
585
 21
117.4999694824219
  0
LINE
  8
0
  6
CONTINUOUS
 62
     7
 10
541
 20
-117.5
 11
585
 21
-117.5
  0
LINE
  8
0
  6
CONTINUOUS
 62
     7
 10
537
 20
115
 11
537
 21
-114.9999694824219
  0
LINE
  8
0
  6
CONTINUOUS
 62
     7
 10
541
 20
-111.4677429199219
 11
585
 21
-111.4677429199219
  0
LINE
  8
0
  6
CONTINUOUS
 62
     7
 10
537.0000610351562
 20
113.4999389648438
 11
541.0000610351563
 21
117.4999465942383
  0
LINE
  8
0
  6
CONTINUOUS
 62
     7
 10
584.9998168945312
 20
117.4999389648437
 11
588.9998168945313
 21
113.4999389648438
  0
LINE
  8
0
  6
CONTINUOUS
 62
     7
 10
589
 20
-113.5000457763672
 11
585
 21
-117.5000534057617
  0
LINE
  8
0
  6
CONTINUOUS
 62
     7
 10
541.0001220703125
 20
-117.4999008178711
 11
537.0001220703125
 21
-113.4998550415039
  0
LINE
  8
0
  6
CONTINUOUS
 62
     7
 10
541
 20
111.4676208496094
 11
585
 21
111.4676208496094
  0
LINE
  8
0
  6
CONTINUOUS
 62
     7
 10
541
 20
105.0982360839844
 11
585
 21
105.0982360839844
  0
LINE
  8
0
  6
CONTINUOUS
 62
     7
 10
541
 20
100.2502136230469
 11
585
 21
100.2502136230469
  0
LINE
  8
0
  6
CONTINUOUS
 62
     7
 10
541
 20
90.49581909179687
 11
585
 21
90.49581909179687
  0
LINE
  8
0
  6
CONTINUOUS
 62
     7
 10
541
 20
74.94113159179688
 11
585
 21
74.94113159179688
  0
LINE
  8
0
  6
CONTINUOUS
 62
     7
 10
541
 20
61.28469848632813
 11
585
 21
61.28469848632813
  0
LINE
  8
0
  6
CONTINUOUS
 62
     7
 10
541
 20
52.53948974609375
 11
585
 21
52.53948974609375
  0
LINE
  8
0
  6
CONTINUOUS
 62
     7
 10
541
 20
37.16400146484375
 11
585
 21
37.16400146484375
  0
LINE
  8
0
  6
CONTINUOUS
 62
     7
 10
541
 20
27.5504150390625
 11
585
 21
27.5504150390625
  0
LINE
  8
0
  6
CONTINUOUS
 62
     7
 10
541
 20
10.99948120117188
 11
585
 21
10.99948120117188
  0
LINE
  8
0
  6
CONTINUOUS
 62
     7
 10
541
 20
-90.49783325195313
 11
585
 21
-90.49783325195313
  0
LINE
  8
0
  6
CONTINUOUS
 62
     7
 10
541
 20
-100.2507019042969
 11
585
 21
-100.2507019042969
  0
LINE
  8
0
  6
CONTINUOUS
 62
     7
 10
541
 20
-105.0988464355469
 11
585
 21
-105.0988464355469
  0
LINE
  8
0
  6
CONTINUOUS
 62
     7
 10
445
 20
150
 11
467
 21
150
  0
LINE
  8
0
  6
CONTINUOUS
 62
     7
 10
445
 20
-149.9999694824219
 11
467
 21
-149.9999694824219
  0
LINE
  8
0
  6
CONTINUOUS
 62
     7
 10
445
 20
150
 11
445
 21
63.5789794921875
  0
LINE
  8
0
  6
CONTINUOUS
 62
     7
 10
467
 20
150
 11
467
 21
-149.9999694824219
  0
LINE
  8
0
  6
CONTINUOUS
 62
     7
 10
519
 20
115
 11
519
 21
17.5
  0
LINE
  8
0
  6
CONTINUOUS
 62
     7
 10
519
 20
-114.9999694824219
 11
537
 21
-114.9999694824219
  0
LINE
  8
0
  6
CONTINUOUS
 62
     7
 10
519
 20
115
 11
537
 21
115
  0
LINE
  8
0
  6
CONTINUOUS
 62
     7
 10
467
 20
17.5
 11
519
 21
17.5
  0
LINE
  8
0
  6
CONTINUOUS
 62
     7
 10
467
 20
-17.5
 11
519
 21
-17.5
  0
LINE
  8
0
  6
CONTINUOUS
 62
     7
 10
519
 20
-17.5
 11
519
 21
-114.9999694824219
  0
LINE
  8
0
  6
CONTINUOUS
 62
     7
 10
467.0000915527344
 20
106.8764953613281
 11
519.0000610351562
 21
85.59574890136719
  0
LINE
  8
0
  6
CONTINUOUS
 62
     7
 10
466.9999694824219
 20
92.73436737060547
 11
519
 21
71.45361328125
  0
LINE
  8
0
  6
CONTINUOUS
 62
     7
 10
504.6410217285156
 20
51.9927978515625
 11
514
 21
51.9927978515625
  0
LINE
  8
0
  6
CONTINUOUS
 62
     7
 10
504.6410217285156
 20
-51.9927978515625
 11
514
 21
-51.9927978515625
  0
LINE
  8
0
  6
CONTINUOUS
 62
     7
 10
467.0000305175781
 20
-92.73436737060547
 11
519
 21
-71.45360565185547
  0
LINE
  8
0
  6
CONTINUOUS
 62
     7
 10
467.0000305175781
 20
-106.8765335083008
 11
519
 21
-85.59577178955078
  0
LINE
  8
0
  6
CONTINUOUS
 62
     7
 10
470.095703125
 20
66.22222900390625
 11
504.6409912109375
 21
51.99277496337891
  0
LINE
  8
0
  6
CONTINUOUS
 62
     7
 10
470.0956726074219
 20
-66.22224426269531
 11
504.6410217285156
 21
-51.99278259277344
  0
LINE
  8
0
  6
CONTINUOUS
 62
     7
 10
440
 20
115
 11
440
 21
74.63330078125
  0
LINE
  8
0
  6
CONTINUOUS
 62
     7
 10
440
 20
115
 11
445
 21
115
  0
LINE
  8
0
  6
CONTINUOUS
 62
     7
 10
440
 20
-115
 11
445
 21
-115
  0
LINE
  8
0
  6
CONTINUOUS
 62
     7
 10
350
 20
32.5
 11
350
 21
-32.5
  0
LINE
  8
0
  6
CONTINUOUS
 62
     7
 10
350
 20
-32.5
 11
445
 21
-32.5
  0
LINE
  8
0
  6
CONTINUOUS
 62
     7
 10
350
 20
32.5
 11
445
 21
32.5
  0
LINE
  8
0
  6
CONTINUOUS
 62
     7
 10
350
 20
9
 11
431
 21
9
  0
LINE
  8
0
  6
CONTINUOUS
 62
     7
 10
350
 20
-9
 11
431
 21
-9
  0
LINE
  8
0
  6
CONTINUOUS
 62
     7
 10
445
 20
-37.5
 11
449.4187927246094
 21
-37.5
  0
LINE
  8
0
  6
CONTINUOUS
 62
     7
 10
445
 20
37.5
 11
450.41064453125
 21
37.5
  0
LINE
  8
0
  6
CONTINUOUS
 62
     7
 10
440
 20
-71.69732666015625
 11
440
 21
-115
  0
LINE
  8
0
  6
CONTINUOUS
 62
     7
 10
445
 20
-67.507568359375
 11
445
 21
-149.9999694824219
  0
LINE
  8
0
  6
CONTINUOUS
 62
     7
 10
445
 20
36.9000244140625
 11
445
 21
-37.5
  0
LINE
  8
0
  6
CONTINUOUS
 62
     7
 10
430
 20
9
 11
430
 21
-9
  0
LINE
  8
0
  6
CONTINUOUS
 62
     7
 10
501.4852600097656
 20
-9.79976357484702E-06
 11
493
 21
8.485271453857422
  0
LINE
  8
0
  6
CONTINUOUS
 62
     7
 10
493.0000305175781
 20
8.485263824462891
 11
484.5147705078125
 21
-5.94394987274427E-06
  0
LINE
  8
0
  6
CONTINUOUS
 62
     7
 10
492.9999694824219
 20
-8.485244750976563
 11
484.5147399902344
 21
-5.943947144260164E-06
  0
LINE
  8
0
  6
CONTINUOUS
 62
     7
 10
501.4852600097656
 20
1.22250694403192E-05
 11
493
 21
-8.485245704650879
  0
LINE
  8
0
  6
CONTINUOUS
 62
     3
 10
493
 20
15.72772216796875
 11
493
 21
-15.83087158203125
  0
LINE
  8
0
  6
CONTINUOUS
 62
     7
 10
667.5
 20
-72.07395935058594
 11
700.5
 21
-72.07395935058594
  0
LINE
  8
0
  6
CONTINUOUS
 62
     7
 10
667.5
 20
75
 11
700.5
 21
75
  0
LINE
  8
0
  6
CONTINUOUS
 62
     7
 10
667.5
 20
74.99999237060547
 11
664
 21
70.83909606933594
  0
LINE
  8
0
  6
CONTINUOUS
 62
     7
 10
700.5000610351563
 20
74.99996948242188
 11
704.0000610351562
 21
70.83908081054688
  0
LINE
  8
0
  6
CONTINUOUS
 62
     7
 10
700.5
 20
-75
 11
704
 21
-70.83910369873047
  0
LINE
  8
0
  6
CONTINUOUS
 62
     7
 10
667.5
 20
-75
 11
700.5
 21
-75
  0
LINE
  8
0
  6
CONTINUOUS
 62
     7
 10
667.5
 20
-74.99998474121094
 11
664
 21
-70.839111328125
  0
LINE
  8
0
  6
CONTINUOUS
 62
     7
 10
667.5
 20
72.07391357421875
 11
700.5
 21
72.07391357421875
  0
LINE
  8
0
  6
CONTINUOUS
 62
     7
 10
667.5
 20
68.98251342773437
 11
700.5
 21
68.98251342773437
  0
LINE
  8
0
  6
CONTINUOUS
 62
     7
 10
667.5
 20
59.98248291015625
 11
700.5
 21
59.98248291015625
  0
LINE
  8
0
  6
CONTINUOUS
 62
     7
 10
667.5
 20
54.0025634765625
 11
700.5
 21
54.0025634765625
  0
LINE
  8
0
  6
CONTINUOUS
 62
     7
 10
667.5
 20
40.91079711914063
 11
700.5
 21
40.91079711914063
  0
LINE
  8
0
  6
CONTINUOUS
 62
     7
 10
667.5
 20
48.15170288085938
 11
700.5
 21
48.15170288085938
  0
LINE
  8
0
  6
CONTINUOUS
 62
     7
 10
667.5
 20
33.98257446289063
 11
700.5
 21
33.98257446289063
  0
LINE
  8
0
  6
CONTINUOUS
 62
     7
 10
667.5
 20
25.72195434570313
 11
700.5
 21
25.72195434570313
  0
LINE
  8
0
  6
CONTINUOUS
 62
     7
 10
667.5
 20
18.07150268554688
 11
700.5
 21
18.07150268554688
  0
LINE
  8
0
  6
CONTINUOUS
 62
     7
 10
667.5
 20
9.00006103515625
 11
700.5
 21
9.00006103515625
  0
LINE
  8
0
  6
CONTINUOUS
 62
     7
 10
667.5
 20
-68.98260498046875
 11
700.5
 21
-68.98260498046875
  0
LINE
  8
0
  6
CONTINUOUS
 62
     7
 10
569.0090942382812
 20
-121.5300064086914
 11
569.135009765625
 21
-117.5000076293945
  0
LINE
  8
0
  6
CONTINUOUS
 62
     7
 10
578.9910278320313
 20
-121.5300064086914
 11
578.8650512695313
 21
-117.5
  0
LINE
  8
0
  6
CONTINUOUS
 62
     3
 10
574
 20
-112.517951965332
 11
574
 21
-130.4290771484375
  0
LINE
  8
0
  6
CONTINUOUS
 62
     7
 10
569.009033203125
 20
-121.5299987792969
 11
578.990966796875
 21
-121.5299987792969
  0
LINE
  8
0
  6
CONTINUOUS
 62
     7
 10
578.5355224609375
 20
-128.5299987792969
 11
578.5355224609375
 21
-121.5299987792969
  0
LINE
  8
0
  6
CONTINUOUS
 62
     3
 10
574
 20
-121.5299911499023
 11
578.5355224609375
 21
-128.5299682617187
  0
LINE
  8
0
  6
CONTINUOUS
 62
     3
 10
574
 20
-128.5299987792969
 11
578.5355224609375
 21
-121.5299987792969
  0
LINE
  8
0
  6
CONTINUOUS
 62
     3
 10
569.4644775390625
 20
-121.5299682617188
 11
574
 21
-128.5299835205078
  0
LINE
  8
0
  6
CONTINUOUS
 62
     3
 10
569.4644775390625
 20
-128.5299987792969
 11
574
 21
-121.5299987792969
  0
LINE
  8
0
  6
CONTINUOUS
 62
     7
 10
569.4644775390625
 20
-128.5299987792969
 11
569.4644775390625
 21
-121.5299987792969
  0
LINE
  8
0
  6
CONTINUOUS
 62
     7
 10
569.4644775390625
 20
-128.5299987792969
 11
578.5355224609375
 21
-128.5299987792969
  0
LINE
  8
0
  6
CONTINUOUS
 62
     7
 10
592
 20
-29.01912498474121
 11
592
 21
-31.71853828430176
  0
LINE
  8
0
  6
CONTINUOUS
 62
     3
 10
584.9986572265625
 20
-34.19300079345703
 11
647.62939453125
 21
-34.19300079345703
  0
LINE
  8
0
  6
CONTINUOUS
 62
     3
 10
604
 20
-15.03795146942139
 11
604
 21
-48.40578460693359
  0
LINE
  8
0
  6
CONTINUOUS
 62
     7
 10
615.9979858398437
 20
-22.19300079345703
 11
627
 21
-22.19300079345703
  0
LINE
  8
0
  6
CONTINUOUS
 62
     7
 10
627
 20
-22.19300079345703
 11
627
 21
-46.19300079345703
  0
LINE
  8
0
  6
CONTINUOUS
 62
     7
 10
615
 20
-46.19300079345703
 11
627
 21
-46.19300079345703
  0
LINE
  8
0
  6
CONTINUOUS
 62
     7
 10
633
 20
-25.68543815612793
 11
627
 21
-25.87293815612793
  0
LINE
  8
0
  6
CONTINUOUS
 62
     7
 10
633
 20
-42.70056533813477
 11
633
 21
-25.6854362487793
  0
LINE
  8
0
  6
CONTINUOUS
 62
     7
 10
633
 20
-42.70056915283203
 11
627
 21
-42.51306915283203
  0
LINE
  8
0
  6
CONTINUOUS
 62
     7
 10
642
 20
-42.46081161499023
 11
642
 21
-25.92519760131836
  0
LINE
  8
0
  6
CONTINUOUS
 62
     7
 10
633
 20
-42.46081161499023
 11
642
 21
-42.46081161499023
  0
LINE
  8
0
  6
CONTINUOUS
 62
     7
 10
633
 20
-25.92519760131836
 11
642
 21
-25.92519760131836
  0
LINE
  8
0
  6
CONTINUOUS
 62
     7
 10
616
 20
-22.19300079345703
 11
616
 21
-4
  0
LINE
  8
0
  6
CONTINUOUS
 62
     7
 10
622
 20
-46.19300079345703
 11
622
 21
-77.5
  0
LINE
  8
0
  6
CONTINUOUS
 62
     3
 10
633
 20
-25.92519187927246
 11
642
 21
-34.19300079345703
  0
LINE
  8
0
  6
CONTINUOUS
 62
     3
 10
642
 20
-34.19300079345703
 11
633
 21
-42.4608154296875
  0
LINE
  8
0
  6
CONTINUOUS
 62
     7
 10
633
 20
-34.19300079345703
 11
642
 21
-34.19300079345703
  0
LINE
  8
0
  6
CONTINUOUS
 62
     3
 10
633
 20
-34.19301223754883
 11
642
 21
-25.92520141601563
  0
LINE
  8
0
  6
CONTINUOUS
 62
     3
 10
633
 20
-34.19300079345703
 11
642
 21
-42.46080017089844
  0
LINE
  8
0
  6
CONTINUOUS
 62
     7
 10
574
 20
-121.5299987792969
 11
574.0000610351563
 21
-128.5299987792969
  0
ARC
  8
0
  6
CONTINUOUS
 62
     7
 10
617
 20
-502.5
 40
5.000000000000019
 50
270.0000179860897
 51
0
  0
ARC
  8
0
  6
CONTINUOUS
 62
     7
 10
612
 20
-512.5
 40
5.000000000000019
 50
89.99998201391031
 51
179.9999640278219
  0
ARC
  8
0
  6
CONTINUOUS
 62
     7
 10
612
 20
-337.5
 40
5.000000000000038
 50
179.9999776881996
 51
269.9999733624889
  0
ARC
  8
0
  6
CONTINUOUS
 62
     7
 10
617
 20
-347.5
 40
5
 50
359.9999453584866
 51
89.99992737239695
  0
ARC
  8
0
  6
CONTINUOUS
 62
     7
 10
618
 20
-340.5
 40
2.000000000000038
 50
179.9999776882003
 51
270.0000280040029
  0
ARC
  8
0
  6
CONTINUOUS
 62
     7
 10
618
 20
-509.5
 40
1.999999999999985
 50
89.99998201391097
 51
179.9999640278219
  0
ARC
  8
0
  6
CONTINUOUS
 62
     7
 10
472
 20
-305
 40
4.999999999999981
 50
179.9999776881996
 51
270.0000280040023
  0
ARC
  8
0
  6
CONTINUOUS
 62
     7
 10
472
 20
-354.1546020507813
 40
5
 50
179.999991348578
 51
247.6128808859912
  0
ARC
  8
0
  6
CONTINUOUS
 62
     7
 10
514
 20
-481.9927978515625
 40
5
 50
0
 51
90.00000250447782
  0
ARC
  8
0
  6
CONTINUOUS
 62
     7
 10
514
 20
-368.0072326660156
 40
5.000000000000004
 50
269.9999974955222
 51
0
  0
ARC
  8
0
  6
CONTINUOUS
 62
     7
 10
472
 20
-495.8453979492188
 40
5.000000000000009
 50
112.3871086413539
 51
180.0000050089563
  0
CIRCLE
  8
0
  6
CONTINUOUS
 62
     3
 10
574
 20
-425
 40
4.990937232971191
  0
ARC
  8
0
  6
CONTINUOUS
 62
     7
 10
604
 20
-286.5
 40
20.50000000000001
 50
297.2092035260483
 51
353.2767831183339
  0
ARC
  8
0
  6
CONTINUOUS
 62
     7
 10
621
 20
-293.8999938964844
 40
5.000000000000004
 50
90.00000250447782
 51
180.0000050089563
  0
ARC
  8
0
  6
CONTINUOUS
 62
     7
 10
615
 20
-287.8999938964844
 40
23.00000000000002
 50
90.00000250447805
 51
180.0000050089564
  0
ARC
  8
0
  6
CONTINUOUS
 62
     7
 10
604
 20
-286.5
 40
20.49999999999999
 50
80.95569823197921
 51
241.073084038731
  0
CIRCLE
  8
0
  6
CONTINUOUS
 62
     7
 10
0
 20
-425
 40
150
  0
ARC
  8
0
  6
CONTINUOUS
 62
     7
 10
0
 20
-425
 40
32.49999999999998
 50
106.0766695464224
 51
73.92333865025743
  0
ARC
  8
0
  6
CONTINUOUS
 62
     3
 10
0
 20
-425
 40
132.5
 50
333.1091217659313
 51
342.2186338544365
  0
CIRCLE
  8
0
  6
CONTINUOUS
 62
     7
 10
122.4140625
 20
-475.70556640625
 40
7.5
  0
CIRCLE
  8
0
  6
CONTINUOUS
 62
     7
 10
122.4140625
 20
-374.2944641113281
 40
7.5
  0
ARC
  8
0
  6
CONTINUOUS
 62
     3
 10
0
 20
-425
 40
132.5
 50
18.10912301817034
 51
27.21863510667556
  0
CIRCLE
  8
0
  6
CONTINUOUS
 62
     7
 10
50.70556640625
 20
-302.5859680175781
 40
7.5
  0
ARC
  8
0
  6
CONTINUOUS
 62
     3
 10
0
 20
-425
 40
132.5
 50
63.10911744022025
 51
72.21863635891464
  0
CIRCLE
  8
0
  6
CONTINUOUS
 62
     7
 10
-50.70556640625
 20
-302.5859680175781
 40
7.5
  0
ARC
  8
0
  6
CONTINUOUS
 62
     3
 10
0
 20
-425
 40
132.5
 50
108.1091152773648
 51
117.2186410262483
  0
CIRCLE
  8
0
  6
CONTINUOUS
 62
     7
 10
-122.4140625
 20
-374.2944641113281
 40
7.5
  0
ARC
  8
0
  6
CONTINUOUS
 62
     3
 10
0
 20
-425
 40
132.5
 50
153.1091131145093
 51
162.2186320332036
  0
CIRCLE
  8
0
  6
CONTINUOUS
 62
     7
 10
-122.4140625
 20
-475.70556640625
 40
7.5
  0
ARC
  8
0
  6
CONTINUOUS
 62
     3
 10
0
 20
-425
 40
132.5
 50
198.1091350846869
 51
207.218640343003
  0
CIRCLE
  8
0
  6
CONTINUOUS
 62
     7
 10
-50.70556640625
 20
-547.4140625
 40
7.5
  0
ARC
  8
0
  6
CONTINUOUS
 62
     3
 10
0
 20
-425
 40
132.5
 50
243.1091260916423
 51
252.2186381801475
  0
CIRCLE
  8
0
  6
CONTINUOUS
 62
     7
 10
50.70556640625
 20
-547.4140625
 40
7.5
  0
ARC
  8
0
  6
CONTINUOUS
 62
     3
 10
0
 20
-425
 40
132.5
 50
288.1091239287867
 51
297.218636017292
  0
CIRCLE
  8
0
  6
CONTINUOUS
 62
     7
 10
0
 20
-425
 40
55
  0
CIRCLE
  8
0
  6
CONTINUOUS
 62
     7
 10
0
 20
-425
 40
87.5
  0
ARC
  8
0
  6
CONTINUOUS
 62
     3
 10
0
 20
-425
 40
75
 50
323.8767994610546
 51
336.1231988692933
  0
ARC
  8
0
  6
CONTINUOUS
 62
     3
 10
0
 20
-425
 40
74.99999999999999
 50
23.87680113070673
 51
36.12320053894538
  0
ARC
  8
0
  6
CONTINUOUS
 62
     3
 10
0
 20
-425
 40
75
 50
83.87679938526426
 51
96.12319879350289
  0
ARC
  8
0
  6
CONTINUOUS
 62
     3
 10
0
 20
-425
 40
74.99999999999999
 50
143.8768010549164
 51
156.1231936329658
  0
ARC
  8
0
  6
CONTINUOUS
 62
     3
 10
0
 20
-425
 40
74.99999999999999
 50
203.8768063670341
 51
216.1231989450836
  0
ARC
  8
0
  6
CONTINUOUS
 62
     3
 10
0
 20
-425
 40
75
 50
263.8768012064971
 51
276.1232006147357
  0
ARC
  8
0
  6
CONTINUOUS
 62
     7
 10
0
 20
-425
 40
107.5
 50
19.35118096590611
 51
0.6488233475505203
  0
ARC
  8
0
  6
CONTINUOUS
 62
     7
 10
0
 20
-425
 40
115
 50
17.4935163607298
 51
2.506470877253908
  0
CIRCLE
  8
0
  6
CONTINUOUS
 62
     7
 10
103.40478515625
 20
-406.7669372558594
 40
17.5
  0
ARC
  8
0
  6
CONTINUOUS
 62
     7
 10
34.19256210327148
 20
-276.895751953125
 40
12
 50
347.0000002074245
 51
166.9999966786442
  0
ARC
  8
0
  6
CONTINUOUS
 62
     7
 10
766
 20
-9.361740012536757E-06
 40
3
 50
90.0000229950449
 51
270.0000006832452
  0
ARC
  8
0
  6
CONTINUOUS
 62
     7
 10
617
 20
77.49996948242187
 40
5
 50
0
 51
89.99998201391031
  0
ARC
  8
0
  6
CONTINUOUS
 62
     7
 10
617
 20
-77.5
 40
5.000000000000004
 50
270.0000179860897
 51
0
  0
ARC
  8
0
  6
CONTINUOUS
 62
     7
 10
612
 20
-87.5
 40
5.000000000000004
 50
89.99998201391031
 51
179.9999640278213
  0
ARC
  8
0
  6
CONTINUOUS
 62
     7
 10
612
 20
87.49996948242188
 40
5.000000000000038
 50
179.9999776881996
 51
270.0000280040023
  0
ARC
  8
0
  6
CONTINUOUS
 62
     7
 10
604
 20
0
 40
9.999999999999986
 50
23.57817672245736
 51
156.4218368242355
  0
ARC
  8
0
  6
CONTINUOUS
 62
     7
 10
587.5
 20
0
 40
4
 50
89.99998201391097
 51
270.0000006832446
  0
ARC
  8
0
  6
CONTINUOUS
 62
     7
 10
620.5
 20
0
 40
4
 50
270.0000179860891
 51
89.99998201391097
  0
ARC
  8
0
  6
CONTINUOUS
 62
     7
 10
604
 20
0
 40
10.00000000000001
 50
203.5781631757645
 51
336.4218232775426
  0
ARC
  8
0
  6
CONTINUOUS
 62
     7
 10
472
 20
70.84539794921875
 40
5
 50
179.999991348578
 51
247.6128808859913
  0
ARC
  8
0
  6
CONTINUOUS
 62
     7
 10
472
 20
-70.84539794921875
 40
4.999999999999996
 50
112.3871086413539
 51
180.0000050089563
  0
ARC
  8
0
  6
CONTINUOUS
 62
     7
 10
514
 20
56.9927978515625
 40
4.999999999999997
 50
269.9999974955222
 51
0
  0
ARC
  8
0
  6
CONTINUOUS
 62
     7
 10
514
 20
-56.9927978515625
 40
5
 50
0
 51
90.00000250447782
  0
ARC
  8
0
  6
CONTINUOUS
 62
     7
 10
431
 20
0
 40
9
 50
270.0000179860894
 51
89.99998201391061
  0
CIRCLE
  8
0
  6
CONTINUOUS
 62
     7
 10
493
 20
0
 40
13.5
  0
ARC
  8
0
  6
CONTINUOUS
 62
     7
 10
615.9979858398437
 20
-17.1929931640625
 40
4.999999999999965
 50
225.6327620434661
 51
269.9999974955222
  0
POLYLINE
  8
0
  6
CONTINUOUS
 62
     7
 66
     1
 10
0
 20
0
  0
VERTEX
  8
0
  6
CONTINUOUS
 62
     7
 10
440.0004540503202
 20
-327.4781153295513
 42
-0.1753072793236038
  0
VERTEX
  8
0
  6
CONTINUOUS
 62
     7
 10
449.3538550645815
 20
-340.9189629110976
 42
-0.07487186127778796
  0
VERTEX
  8
0
  6
CONTINUOUS
 62
     7
 10
450.7736177968472
 20
-357.4921809665126
 42
-0.009977953791338461
  0
VERTEX
  8
0
  6
CONTINUOUS
 62
     7
 10
449.7578025987676
 20
-374.1587913258053
 42
0.00632130194871385
  0
VERTEX
  8
0
  6
CONTINUOUS
 62
     7
 10
448.6107851957352
 20
-390.8186792952106
 42
0.02428263942032013
  0
VERTEX
  8
0
  6
CONTINUOUS
 62
     7
 10
448.4855568763517
 20
-407.5100230157608
 42
0.02735410039433634
  0
VERTEX
  8
0
  6
CONTINUOUS
 62
     7
 10
450.2937953957154
 20
-424.1019051783089
 42
-0.02458783902599182
  0
VERTEX
  8
0
  6
CONTINUOUS
 62
     7
 10
452.2208585195888
 20
-440.6824766313729
 42
-0.08166882041332872
  0
VERTEX
  8
0
  6
CONTINUOUS
 62
     7
 10
450.6054733032208
 20
-457.2299556575409
 42
0.06572794610590166
  0
VERTEX
  8
0
  6
CONTINUOUS
 62
     7
 10
447.3678425907351
 20
-473.5579440879225
 42
-0.03410794474086025
  0
VERTEX
  8
0
  6
CONTINUOUS
 62
     7
 10
446.9893793564025
 20
-490.2302382802545
 42
-0.1191276267384047
  0
VERTEX
  8
0
  6
CONTINUOUS
 62
     7
 10
439.999409425121
 20
-505.2209307315112
 42
0
  0
SEQEND
  8
0
  0
POLYLINE
  8
0
  6
CONTINUOUS
 62
     7
 66
     1
 10
0
 20
0
  0
VERTEX
  8
0
  6
CONTINUOUS
 62
     7
 10
592
 20
-299.3105087280273
 42
0.2480810014125649
  0
VERTEX
  8
0
  6
CONTINUOUS
 62
     7
 10
593.04477288084
 20
-300.4121496707896
 42
0.04461259064944132
  0
VERTEX
  8
0
  6
CONTINUOUS
 62
     7
 10
594.5322121757047
 20
-300.9690724487454
 42
0.02126257413966208
  0
VERTEX
  8
0
  6
CONTINUOUS
 62
     7
 10
596.0788176569829
 20
-301.3382533670614
 42
0.0138551966149231
  0
VERTEX
  8
0
  6
CONTINUOUS
 62
     7
 10
597.6478515879068
 20
-301.6007103813388
 42
0.01053218383445689
  0
VERTEX
  8
0
  6
CONTINUOUS
 62
     7
 10
599.2278908877701
 20
-301.7872937596724
 42
0.008816749579941555
  0
VERTEX
  8
0
  6
CONTINUOUS
 62
     7
 10
600.8143829133038
 20
-301.9130696068423
 42
0.007912410063006395
  0
VERTEX
  8
0
  6
CONTINUOUS
 62
     7
 10
602.4043499256231
 20
-301.9859548303652
 42
0.007515242933825033
  0
VERTEX
  8
0
  6
CONTINUOUS
 62
     7
 10
603.9958281720379
 20
-302.0099256791561
 42
0.007513542296188783
  0
VERTEX
  8
0
  6
CONTINUOUS
 62
     7
 10
605.5871629041961
 20
-301.9862102801339
 42
0.0079069473185223
  0
VERTEX
  8
0
  6
CONTINUOUS
 62
     7
 10
607.1767232135753
 20
-301.9136196658602
 42
0.008810194487994567
  0
VERTEX
  8
0
  6
CONTINUOUS
 62
     7
 10
608.7633000532842
 20
-301.7881516927235
 42
0.0105239753064281
  0
VERTEX
  8
0
  6
CONTINUOUS
 62
     7
 10
610.3440258854823
 20
-301.6018493982897
 42
0.0138440763577828
  0
VERTEX
  8
0
  6
CONTINUOUS
 62
     7
 10
611.9144000311056
 20
-301.3395930522042
 42
0.02124645949810266
  0
VERTEX
  8
0
  6
CONTINUOUS
 62
     7
 10
613.4630236244653
 20
-300.9704477390254
 42
0.04455016669393268
  0
VERTEX
  8
0
  6
CONTINUOUS
 62
     7
 10
614.9523872245423
 20
-300.4135776530297
 42
0.2479903681182697
  0
VERTEX
  8
0
  6
CONTINUOUS
 62
     7
 10
616
 20
-299.3105087280273
 42
0
  0
SEQEND
  8
0
  0
POLYLINE
  8
0
  6
CONTINUOUS
 62
     7
 66
     1
 10
0
 20
0
  0
VERTEX
  8
0
  6
CONTINUOUS
 62
     7
 10
595.5
 20
-313.241340637207
 42
0.2478644677252538
  0
VERTEX
  8
0
  6
CONTINUOUS
 62
     7
 10
596.24808736943
 20
-314.0092285495944
 42
0.04354526513341583
  0
VERTEX
  8
0
  6
CONTINUOUS
 62
     7
 10
597.3024657153311
 20
-314.3939696834722
 42
0.02075779906473917
  0
VERTEX
  8
0
  6
CONTINUOUS
 62
     7
 10
598.3972754596798
 20
-314.6490595004689
 42
0.01353032140017747
  0
VERTEX
  8
0
  6
CONTINUOUS
 62
     7
 10
599.5072300706101
 20
-314.8304089402438
 42
0.01028810063568799
  0
VERTEX
  8
0
  6
CONTINUOUS
 62
     7
 10
600.6246142174716
 20
-314.9593440596876
 42
0.008614041801573581
  0
VERTEX
  8
0
  6
CONTINUOUS
 62
     7
 10
601.7463669473132
 20
-315.0462730371391
 42
0.007731261929407694
  0
VERTEX
  8
0
  6
CONTINUOUS
 62
     7
 10
602.8704709375584
 20
-315.0966645429173
 42
0.007343427992826578
  0
VERTEX
  8
0
  6
CONTINUOUS
 62
     7
 10
603.9956150097113
 20
-315.1132657421197
 42
0.0073411756817403
  0
VERTEX
  8
0
  6
CONTINUOUS
 62
     7
 10
605.1206407389008
 20
-315.0969259361809
 42
0.007724350581942712
  0
VERTEX
  8
0
  6
CONTINUOUS
 62
     7
 10
606.2444568756152
 20
-315.0468274991381
 42
0.00861216307450571
  0
VERTEX
  8
0
  6
CONTINUOUS
 62
     7
 10
607.3671795580464
 20
-314.9601248875217
 42
0.01027610846369988
  0
VERTEX
  8
0
  6
CONTINUOUS
 62
     7
 10
608.4850564058278
 20
-314.8314653841956
 42
0.01351145619503717
  0
VERTEX
  8
0
  6
CONTINUOUS
 62
     7
 10
609.595974496771
 20
-314.6503610681415
 42
0.02072228547928481
  0
VERTEX
  8
0
  6
CONTINUOUS
 62
     7
 10
610.6922472868703
 20
-314.3954580911244
 42
0.04343645848772647
  0
VERTEX
  8
0
  6
CONTINUOUS
 62
     7
 10
611.7486134439461
 20
-314.0108418249537
 42
0.2478621101723349
  0
VERTEX
  8
0
  6
CONTINUOUS
 62
     7
 10
612.5
 20
-313.241340637207
 42
0
  0
SEQEND
  8
0
  0
POLYLINE
  8
0
  6
CONTINUOUS
 62
     7
 66
     1
 10
0
 20
0
  0
VERTEX
  8
0
  6
CONTINUOUS
 62
     7
 10
440.000104794816
 20
74.63409754682024
 42
-0.04592299410830997
  0
VERTEX
  8
0
  6
CONTINUOUS
 62
     7
 10
446.5300618671724
 20
59.13235218086452
 42
-0.04744122615089172
  0
VERTEX
  8
0
  6
CONTINUOUS
 62
     7
 10
449.931953638551
 20
42.66128151384837
 42
-0.02920960640588358
  0
VERTEX
  8
0
  6
CONTINUOUS
 62
     7
 10
450.7813198232539
 20
25.84789205000698
 42
-0.01262769604238
  0
VERTEX
  8
0
  6
CONTINUOUS
 62
     7
 10
450.2338355003682
 20
9.01394995260444
 42
0.001318480003096598
  0
VERTEX
  8
0
  6
CONTINUOUS
 62
     7
 10
449.3069455064159
 20
-7.805312976159762
 42
0.01585887023864238
  0
VERTEX
  8
0
  6
CONTINUOUS
 62
     7
 10
448.9537152058117
 20
-24.6432378379936
 42
0.005745509047635718
  0
VERTEX
  8
0
  6
CONTINUOUS
 62
     7
 10
449.5866344633367
 20
-41.47531565138327
 42
-0.04443778082386027
  0
VERTEX
  8
0
  6
CONTINUOUS
 62
     7
 10
449.2611890960507
 20
-58.28861819833459
 42
-0.2293747543283158
  0
VERTEX
  8
0
  6
CONTINUOUS
 62
     7
 10
439.99859292398
 20
-71.69774480316303
 42
0
  0
SEQEND
  8
0
  0
POLYLINE
  8
0
  6
CONTINUOUS
 62
     7
 66
     1
 10
0
 20
0
  0
VERTEX
  8
0
  6
CONTINUOUS
 62
     7
 10
592
 20
-31.71853828430176
 42
0.05059491804565653
  0
VERTEX
  8
0
  6
CONTINUOUS
 62
     7
 10
592.1884986650218
 20
-33.56787502799612
 42
0.04716348060100473
  0
VERTEX
  8
0
  6
CONTINUOUS
 62
     7
 10
592.7339920471408
 20
-35.34602953738992
 42
0.04170062768883802
  0
VERTEX
  8
0
  6
CONTINUOUS
 62
     7
 10
593.585551384153
 20
-36.99966877999796
 42
0.03588152117352139
  0
VERTEX
  8
0
  6
CONTINUOUS
 62
     7
 10
594.6825572159941
 20
-38.50245495429014
 42
0.03066398704874478
  0
VERTEX
  8
0
  6
CONTINUOUS
 62
     7
 10
595.9694646079987
 20
-39.84727452742634
 42
0.02635005710650333
  0
VERTEX
  8
0
  6
CONTINUOUS
 62
     7
 10
597.4008290281437
 20
-41.03741148341581
 42
0.02293336125982269
  0
VERTEX
  8
0
  6
CONTINUOUS
 62
     7
 10
598.9425717768778
 20
-42.0815649798125
 42
0.0202682188355918
  0
VERTEX
  8
0
  6
CONTINUOUS
 62
     7
 10
600.5691225385541
 20
-42.98941728767588
 42
0.01819160847443726
  0
VERTEX
  8
0
  6
CONTINUOUS
 62
     7
 10
602.260216887728
 20
-43.76969778534058
 42
0.0165947795422545
  0
VERTEX
  8
0
  6
CONTINUOUS
 62
     7
 10
604.0019691703764
 20
-44.43094395153871
 42
0.01536230671644127
  0
VERTEX
  8
0
  6
CONTINUOUS
 62
     7
 10
605.7823600005315
 20
-44.97975174075737
 42
0.01442614238287006
  0
VERTEX
  8
0
  6
CONTINUOUS
 62
     7
 10
607.5923226127653
 20
-45.42172702329901
 42
0.0137315782995182
  0
VERTEX
  8
0
  6
CONTINUOUS
 62
     7
 10
609.4243874284953
 20
-45.76125527333419
 42
0.01323990660456937
  0
VERTEX
  8
0
  6
CONTINUOUS
 62
     7
 10
611.2721711596353
 20
-46.00161511430872
 42
0.01292485919280855
  0
VERTEX
  8
0
  6
CONTINUOUS
 62
     7
 10
613.1300043523247
 20
-46.14508071948389
 42
0.0127704665830092
  0
VERTEX
  8
0
  6
CONTINUOUS
 62
     7
 10
614.9926973588367
 20
-46.19300006387064
 42
0
  0
SEQEND
  8
0
  0
POLYLINE
  8
0
  6
CONTINUOUS
 62
     7
 66
     1
 10
0
 20
0
  0
VERTEX
  8
0
  6
CONTINUOUS
 62
     7
 10
612.5019989453006
 20
-20.76764258091871
 42
0.03674702795451849
  0
VERTEX
  8
0
  6
CONTINUOUS
 62
     7
 10
611.1649333270993
 20
-19.63964425015092
 42
0.03635561614823001
  0
VERTEX
  8
0
  6
CONTINUOUS
 62
     7
 10
609.6776214385787
 20
-18.7182037072358
 42
0.03602153408045245
  0
VERTEX
  8
0
  6
CONTINUOUS
 62
     7
 10
608.072779330156
 20
-18.02071587591295
 42
0.03576746137080639
  0
VERTEX
  8
0
  6
CONTINUOUS
 62
     7
 10
606.3846184140033
 20
-17.55987114237666
 42
0.03560862896497337
  0
VERTEX
  8
0
  6
CONTINUOUS
 62
     7
 10
604.6483123564419
 20
-17.34376143832108
 42
0.03555213439227278
  0
VERTEX
  8
0
  6
CONTINUOUS
 62
     7
 10
602.8995938478058
 20
-17.37594950785639
 42
0.03561922393191932
  0
VERTEX
  8
0
  6
CONTINUOUS
 62
     7
 10
601.1733335211638
 20
-17.65569982062436
 42
0.03581097405834167
  0
VERTEX
  8
0
  6
CONTINUOUS
 62
     7
 10
599.5039631798609
 20
-18.17838167847321
 42
0.03608618917564263
  0
VERTEX
  8
0
  6
CONTINUOUS
 62
     7
 10
597.9268209295735
 20
-18.93467806934056
 42
0.03644317208884772
  0
VERTEX
  8
0
  6
CONTINUOUS
 62
     7
 10
596.4754749175041
 20
-19.91090085209937
 42
0.03685493945738864
  0
VERTEX
  8
0
  6
CONTINUOUS
 62
     7
 10
595.1820597856583
 20
-21.08869102982046
 42
0.03728605978607549
  0
VERTEX
  8
0
  6
CONTINUOUS
 62
     7
 10
594.0765837151671
 20
-22.44477613840527
 42
0.03769688599420863
  0
VERTEX
  8
0
  6
CONTINUOUS
 62
     7
 10
593.1859139161265
 20
-23.95094499824237
 42
0.03804676710956057
  0
VERTEX
  8
0
  6
CONTINUOUS
 62
     7
 10
592.5326187776599
 20
-25.57432142161662
 42
0.038298390088541
  0
VERTEX
  8
0
  6
CONTINUOUS
 62
     7
 10
592.1337891071573
 20
-27.27801571561323
 42
0.03841513735345704
  0
VERTEX
  8
0
  6
CONTINUOUS
 62
     7
 10
592.0000003223651
 20
-29.02183519809993
 42
0
  0
SEQEND
  8
0
  0
TEXT
  8
0
  6
CONTINUOUS
 62
     7
 10
-96.42857551574707
 20
-12.5
 40
25
 41
0.8455556493890867
  1
ＥＲＶ－＿ＮＢＤ
  0
ENDSEC
  0
EOF
