  0
SECTION
  2
HEADER
  0
ENDSEC
  0
SECTION
  2
TABLES
  0
TABLE
  2
LTYPE
 70
    22
  0
LTYPE
  2
CONTINUOUS
 70
    64
  3
Solid line
 72
    65
 73
     0
 40
0.000000
  0
LTYPE
  2
DASHED
 70
    64
  3
__ __ __ __ __ __ __ __ __ __ __ __ __ __ __
 72
    65
 73
     2
 40
3.500000
 49
2.000000
 49
-1.500000
  0
LTYPE
  2
CENTER
 70
    64
  3
____ _ ____ _ ____ _ ____ _ ____ _ ____ _ ____
 72
    65
 73
     4
 40
17.500000
 49
13.000000
 49
-1.500000
 49
1.500000
 49
-1.500000
  0
LTYPE
  2
PHANTOM
 70
    64
  3
_____ _ _ _____ _ _ _____ _ _ _____ _ _ ____  
 72
    65
 73
     6
 40
15.500000
 49
8.000000
 49
-1.500000
 49
1.500000
 49
-1.500000
 49
1.500000
 49
-1.500000
  0
LTYPE
  2
DOT
 70
    64
  3
. . . . . . . . . . . . . . . . . . . . . . . .
 72
    65
 73
     2
 40
0.25
 49
0.0
 49
-0.25
  0
ENDTAB
  0
TABLE
  2
LAYER
 70
     1
  0
LAYER
  2
0
 70
     0
 62
     7
  6
CONTINUOUS
  0
ENDTAB
  0
TABLE
  2
STYLE
 70
     1
  0
STYLE
  2
STANDARD
 70
     0
 40
0.000000
 41
1.000000
 50
0.000000
 71
     0
 42
0.200000
  3
txt
  4
BIGFONT
  0
ENDTAB
  0
TABLE
  2
VIEW
 70
     0
  0
ENDTAB
  0
ENDSEC
  0
SECTION
  2
BLOCKS
  0
ENDSEC
  0
SECTION
  2
ENTITIES
  0
LINE
  8
0
  6
CONTINUOUS
 62
     3
 10
551.0325927734375
 20
-300
 11
290.1666870117187
 21
-300
  0
LINE
  8
0
  6
CONTINUOUS
 62
     7
 10
506
 20
-280
 11
506
 21
-320
  0
LINE
  8
0
  6
CONTINUOUS
 62
     7
 10
463
 20
-227.5
 11
453
 21
-227.5
  0
LINE
  8
0
  6
CONTINUOUS
 62
     7
 10
468
 20
-248
 11
463
 21
-248
  0
LINE
  8
0
  6
CONTINUOUS
 62
     7
 10
463
 20
-227.5
 11
463
 21
-372.5
  0
LINE
  8
0
  6
CONTINUOUS
 62
     7
 10
499
 20
-271.5
 11
499
 21
-328.5
  0
LINE
  8
0
  6
CONTINUOUS
 62
     7
 10
506
 20
-279.9999694824219
 11
499.0000305175781
 21
-275.9585266113281
  0
LINE
  8
0
  6
CONTINUOUS
 62
     7
 10
499
 20
-271.5
 11
486.8580322265625
 21
-271.5
  0
LINE
  8
0
  6
CONTINUOUS
 62
     7
 10
506.0000305175781
 20
-320
 11
499.0000610351563
 21
-324.0414428710937
  0
LINE
  8
0
  6
CONTINUOUS
 62
     7
 10
468
 20
-352
 11
468
 21
-248
  0
LINE
  8
0
  6
CONTINUOUS
 62
     7
 10
468
 20
-352
 11
463
 21
-352
  0
LINE
  8
0
  6
CONTINUOUS
 62
     7
 10
463
 20
-372.5
 11
453
 21
-372.5
  0
LINE
  8
0
  6
CONTINUOUS
 62
     7
 10
540
 20
-288
 11
515
 21
-288
  0
LINE
  8
0
  6
CONTINUOUS
 62
     7
 10
540
 20
-288
 11
540
 21
-309.5
  0
LINE
  8
0
  6
CONTINUOUS
 62
     7
 10
540
 20
-309.5
 11
510
 21
-309.5
  0
LINE
  8
0
  6
CONTINUOUS
 62
     7
 10
540
 20
-290.5
 11
510
 21
-290.5
  0
LINE
  8
0
  6
CONTINUOUS
 62
     7
 10
510
 20
-287.5
 11
510
 21
-312.5
  0
LINE
  8
0
  6
CONTINUOUS
 62
     7
 10
510
 20
-312.5
 11
506
 21
-312.5
  0
LINE
  8
0
  6
CONTINUOUS
 62
     7
 10
510
 20
-287.5
 11
506
 21
-287.5
  0
LINE
  8
0
  6
CONTINUOUS
 62
     7
 10
515
 20
-288
 11
515
 21
-290.5
  0
LINE
  8
0
  6
CONTINUOUS
 62
     7
 10
499
 20
-328.5
 11
486.8580322265625
 21
-328.5
  0
LINE
  8
0
  6
CONTINUOUS
 62
     7
 10
487.4999694824219
 20
-294.0823974609375
 11
468.0000305175781
 21
-289.03125
  0
LINE
  8
0
  6
CONTINUOUS
 62
     7
 10
487.4999694824219
 20
-280.935302734375
 11
468
 21
-267.1353149414062
  0
LINE
  8
0
  6
CONTINUOUS
 62
     7
 10
468
 20
-253.2694549560547
 11
487.4999694824219
 21
-272.1205444335938
  0
LINE
  8
0
  6
CONTINUOUS
 62
     7
 10
487.5
 20
-308.8154602050781
 11
468
 21
-313.8665771484375
  0
LINE
  8
0
  6
CONTINUOUS
 62
     7
 10
468.0000305175781
 20
-334.9861145019531
 11
487.4999694824219
 21
-321.1861572265625
  0
LINE
  8
0
  6
CONTINUOUS
 62
     7
 10
468
 20
-346.7305297851562
 11
487.4999694824219
 21
-327.8794555664062
  0
LINE
  8
0
  6
CONTINUOUS
 62
     7
 10
416.5
 20
-375
 11
449.5
 21
-375
  0
LINE
  8
0
  6
CONTINUOUS
 62
     7
 10
413
 20
-227.5
 11
413
 21
-372.5
  0
LINE
  8
0
  6
CONTINUOUS
 62
     7
 10
416.5
 20
-225
 11
449.5
 21
-225
  0
LINE
  8
0
  6
CONTINUOUS
 62
     7
 10
416.5
 20
-224.9999847412109
 11
413
 21
-229.160888671875
  0
LINE
  8
0
  6
CONTINUOUS
 62
     7
 10
449.4999694824219
 20
-225
 11
453
 21
-229.160888671875
  0
LINE
  8
0
  6
CONTINUOUS
 62
     7
 10
453
 20
-227.5
 11
453
 21
-372.5
  0
LINE
  8
0
  6
CONTINUOUS
 62
     7
 10
416.5
 20
-375
 11
413
 21
-370.839111328125
  0
LINE
  8
0
  6
CONTINUOUS
 62
     7
 10
449.5
 20
-375
 11
453
 21
-370.8390808105469
  0
LINE
  8
0
  6
CONTINUOUS
 62
     7
 10
416.5
 20
-270.5653076171875
 11
449.5
 21
-270.5653076171875
  0
LINE
  8
0
  6
CONTINUOUS
 62
     7
 10
416.5
 20
-279.2552795410156
 11
449.5
 21
-279.2552795410156
  0
LINE
  8
0
  6
CONTINUOUS
 62
     7
 10
416.5
 20
-287.0502319335937
 11
449.5
 21
-287.0502319335937
  0
LINE
  8
0
  6
CONTINUOUS
 62
     7
 10
416.5
 20
-296.0000610351562
 11
449.5
 21
-296.0000610351562
  0
LINE
  8
0
  6
CONTINUOUS
 62
     7
 10
416.5
 20
-304.0000915527344
 11
449.5
 21
-304.0000915527344
  0
LINE
  8
0
  6
CONTINUOUS
 62
     7
 10
416.5
 20
-312.9499206542969
 11
449.5
 21
-312.9499206542969
  0
LINE
  8
0
  6
CONTINUOUS
 62
     7
 10
416.5
 20
-320.744873046875
 11
449.5
 21
-320.744873046875
  0
LINE
  8
0
  6
CONTINUOUS
 62
     7
 10
416.5
 20
-329.4347839355469
 11
449.5
 21
-329.4347839355469
  0
LINE
  8
0
  6
CONTINUOUS
 62
     7
 10
416.5
 20
-345.0232543945312
 11
449.5
 21
-345.0232543945312
  0
LINE
  8
0
  6
CONTINUOUS
 62
     7
 10
416.5
 20
-352.0454406738281
 11
449.5
 21
-352.0454406738281
  0
LINE
  8
0
  6
CONTINUOUS
 62
     7
 10
416.5
 20
-357.5014343261719
 11
449.5
 21
-357.5014343261719
  0
LINE
  8
0
  6
CONTINUOUS
 62
     7
 10
416.5
 20
-362.8594360351563
 11
449.5
 21
-362.8594360351563
  0
LINE
  8
0
  6
CONTINUOUS
 62
     7
 10
416.5
 20
-366.8594360351563
 11
449.5
 21
-366.8594360351563
  0
LINE
  8
0
  6
CONTINUOUS
 62
     7
 10
416.5
 20
-370.4512939453125
 11
449.5
 21
-370.4512939453125
  0
LINE
  8
0
  6
CONTINUOUS
 62
     7
 10
340
 20
-200.0000152587891
 11
340
 21
-251.5444488525391
  0
LINE
  8
0
  6
CONTINUOUS
 62
     7
 10
340
 20
-200.0000152587891
 11
354
 21
-200.0000152587891
  0
LINE
  8
0
  6
CONTINUOUS
 62
     7
 10
340
 20
-400
 11
354
 21
-400
  0
LINE
  8
0
  6
CONTINUOUS
 62
     7
 10
354
 20
-200.0000152587891
 11
354
 21
-400
  0
LINE
  8
0
  6
CONTINUOUS
 62
     7
 10
401
 20
-227.5
 11
401
 21
-232.0078735351563
  0
LINE
  8
0
  6
CONTINUOUS
 62
     7
 10
401
 20
-227.5
 11
413
 21
-227.5
  0
LINE
  8
0
  6
CONTINUOUS
 62
     7
 10
401
 20
-372.5
 11
413
 21
-372.5
  0
LINE
  8
0
  6
CONTINUOUS
 62
     7
 10
364
 20
-332.21142578125
 11
393
 21
-332.21142578125
  0
LINE
  8
0
  6
CONTINUOUS
 62
     7
 10
364
 20
-269.5326843261719
 11
393
 21
-269.5326843261719
  0
LINE
  8
0
  6
CONTINUOUS
 62
     7
 10
336
 20
-235
 11
340
 21
-235
  0
LINE
  8
0
  6
CONTINUOUS
 62
     7
 10
336
 20
-365
 11
340
 21
-365
  0
LINE
  8
0
  6
CONTINUOUS
 62
     7
 10
300
 20
-283
 11
300
 21
-314
  0
LINE
  8
0
  6
CONTINUOUS
 62
     7
 10
300
 20
-286
 11
340
 21
-286
  0
LINE
  8
0
  6
CONTINUOUS
 62
     7
 10
300
 20
-314
 11
340
 21
-314
  0
LINE
  8
0
  6
CONTINUOUS
 62
     7
 10
340
 20
-282.5
 11
340
 21
-317.5
  0
LINE
  8
0
  6
CONTINUOUS
 62
     7
 10
340
 20
-282.5
 11
343.6128234863281
 21
-282.5
  0
LINE
  8
0
  6
CONTINUOUS
 62
     7
 10
340
 20
-317.5
 11
344.1535034179687
 21
-317.5
  0
LINE
  8
0
  6
CONTINUOUS
 62
     7
 10
340
 20
-328.056884765625
 11
340
 21
-400
  0
LINE
  8
0
  6
CONTINUOUS
 62
     7
 10
336
 20
-235
 11
336
 21
-247.154541015625
  0
LINE
  8
0
  6
CONTINUOUS
 62
     7
 10
336
 20
-332.5
 11
336
 21
-365
  0
LINE
  8
0
  6
CONTINUOUS
 62
     7
 10
300
 20
-283
 11
332
 21
-283
  0
LINE
  8
0
  6
CONTINUOUS
 62
     7
 10
332
 20
-283
 11
332
 21
-286
  0
LINE
  8
0
  6
CONTINUOUS
 62
     7
 10
354
 20
-361.5646362304688
 11
401
 21
-348.3831176757812
  0
LINE
  8
0
  6
CONTINUOUS
 62
     7
 10
354
 20
-367.0206604003906
 11
401
 21
-353.8391723632813
  0
LINE
  8
0
  6
CONTINUOUS
 62
     7
 10
383
 20
-251.6168518066406
 11
401
 21
-251.6168518066406
  0
LINE
  8
0
  6
CONTINUOUS
 62
     7
 10
354
 20
-232.9793395996094
 11
379.2749633789063
 21
-244.4676971435547
  0
LINE
  8
0
  6
CONTINUOUS
 62
     7
 10
354
 20
-238.4353485107422
 11
383
 21
-251.6168518066406
  0
LINE
  8
0
  6
CONTINUOUS
 62
     7
 10
398
 20
-232.0078735351563
 11
401
 21
-232.0078735351563
  0
LINE
  8
0
  6
CONTINUOUS
 62
     7
 10
401
 20
-251.6168518066406
 11
401
 21
-372.5
  0
LINE
  8
0
  6
CONTINUOUS
 62
     7
 10
381.9745178222656
 20
-243.3510894775391
 11
383.4338684082031
 21
-239.4714660644531
  0
LINE
  8
0
  6
CONTINUOUS
 62
     3
 10
-111.5
 20
-300
 11
110.8333358764648
 21
-300
  0
LINE
  8
0
  6
CONTINUOUS
 62
     3
 10
0
 20
-192
 11
0
 21
-410
  0
LINE
  8
0
  6
CONTINUOUS
 62
     7
 10
-4
 20
-283
 11
-4
 21
-290
  0
LINE
  8
0
  6
CONTINUOUS
 62
     7
 10
4
 20
-283
 11
4
 21
-290
  0
LINE
  8
0
  6
CONTINUOUS
 62
     7
 10
-4
 20
-290
 11
4
 21
-290
  0
LINE
  8
0
  6
CONTINUOUS
 62
     7
 10
-4
 20
-283
 11
4
 21
-283
  0
LINE
  8
0
  6
CONTINUOUS
 62
     3
 10
547.8333740234375
 20
0
 11
292.8333129882812
 21
0
  0
LINE
  8
0
  6
CONTINUOUS
 62
     7
 10
506
 20
20
 11
506
 21
-20
  0
LINE
  8
0
  6
CONTINUOUS
 62
     7
 10
460
 20
72.5
 11
453
 21
72.5
  0
LINE
  8
0
  6
CONTINUOUS
 62
     7
 10
468
 20
52
 11
463
 21
52
  0
LINE
  8
0
  6
CONTINUOUS
 62
     7
 10
460
 20
72.5
 11
460
 21
63.92559814453125
  0
LINE
  8
0
  6
CONTINUOUS
 62
     7
 10
463
 20
63.92559814453125
 11
463
 21
-63.92559814453125
  0
LINE
  8
0
  6
CONTINUOUS
 62
     7
 10
499
 20
28.5
 11
499
 21
-28.5
  0
LINE
  8
0
  6
CONTINUOUS
 62
     7
 10
505.9999694824219
 20
20.00008392333984
 11
499
 21
24.04152488708496
  0
LINE
  8
0
  6
CONTINUOUS
 62
     7
 10
499
 20
28.5
 11
486.8580322265625
 21
28.5
  0
LINE
  8
0
  6
CONTINUOUS
 62
     7
 10
506
 20
-19.99993133544922
 11
499.0000305175781
 21
-24.04137420654297
  0
LINE
  8
0
  6
CONTINUOUS
 62
     7
 10
499
 20
-28.5
 11
486.8580322265625
 21
-28.5
  0
LINE
  8
0
  6
CONTINUOUS
 62
     7
 10
468
 20
-52
 11
468
 21
52
  0
LINE
  8
0
  6
CONTINUOUS
 62
     7
 10
468
 20
-52
 11
463
 21
-52
  0
LINE
  8
0
  6
CONTINUOUS
 62
     7
 10
460
 20
-72.5
 11
453
 21
-72.5
  0
LINE
  8
0
  6
CONTINUOUS
 62
     7
 10
463
 20
63.92559814453125
 11
460
 21
63.92559814453125
  0
LINE
  8
0
  6
CONTINUOUS
 62
     7
 10
463
 20
-63.92559814453125
 11
460
 21
-63.92559814453125
  0
LINE
  8
0
  6
CONTINUOUS
 62
     7
 10
540
 20
9.5
 11
540
 21
-9.5
  0
LINE
  8
0
  6
CONTINUOUS
 62
     7
 10
540
 20
-9.5
 11
510
 21
-9.5
  0
LINE
  8
0
  6
CONTINUOUS
 62
     7
 10
540
 20
9.5
 11
510
 21
9.5
  0
LINE
  8
0
  6
CONTINUOUS
 62
     7
 10
510
 20
12.5
 11
510
 21
-12.5
  0
LINE
  8
0
  6
CONTINUOUS
 62
     7
 10
510
 20
-12.5
 11
506
 21
-12.5
  0
LINE
  8
0
  6
CONTINUOUS
 62
     7
 10
510
 20
12.5
 11
506
 21
12.5
  0
LINE
  8
0
  6
CONTINUOUS
 62
     7
 10
540
 20
3
 11
515
 21
3
  0
LINE
  8
0
  6
CONTINUOUS
 62
     7
 10
540
 20
-3
 11
515
 21
-3
  0
LINE
  8
0
  6
CONTINUOUS
 62
     7
 10
515
 20
3
 11
515
 21
-3
  0
LINE
  8
0
  6
CONTINUOUS
 62
     7
 10
487.4999694824219
 20
5.917618751525879
 11
468
 21
10.96874809265137
  0
LINE
  8
0
  6
CONTINUOUS
 62
     7
 10
487.4999389648438
 20
19.06470108032227
 11
468
 21
32.86467361450195
  0
LINE
  8
0
  6
CONTINUOUS
 62
     7
 10
468
 20
46.73052978515625
 11
487.4999694824219
 21
27.87942886352539
  0
LINE
  8
0
  6
CONTINUOUS
 62
     7
 10
487.5
 20
-5.917585372924805
 11
468
 21
-10.96872234344482
  0
LINE
  8
0
  6
CONTINUOUS
 62
     7
 10
487.4999694824219
 20
-19.06471061706543
 11
468
 21
-32.86469268798828
  0
LINE
  8
0
  6
CONTINUOUS
 62
     7
 10
468
 20
-46.73052978515625
 11
487.4999389648438
 21
-27.87945556640625
  0
LINE
  8
0
  6
CONTINUOUS
 62
     7
 10
460
 20
-63.92559814453125
 11
460
 21
-72.5
  0
LINE
  8
0
  6
CONTINUOUS
 62
     7
 10
453
 20
72.5
 11
453
 21
-72.5
  0
LINE
  8
0
  6
CONTINUOUS
 62
     7
 10
413
 20
72.49996948242187
 11
413
 21
-72.5
  0
LINE
  8
0
  6
CONTINUOUS
 62
     7
 10
416.5
 20
75
 11
449.5
 21
75
  0
LINE
  8
0
  6
CONTINUOUS
 62
     7
 10
416.4999694824219
 20
74.99998474121094
 11
412.9999694824219
 21
70.83910369873047
  0
LINE
  8
0
  6
CONTINUOUS
 62
     7
 10
449.5
 20
74.99999237060547
 11
453.0000305175781
 21
70.83909606933594
  0
LINE
  8
0
  6
CONTINUOUS
 62
     7
 10
449.5
 20
-74.99999237060547
 11
453
 21
-70.83910369873047
  0
LINE
  8
0
  6
CONTINUOUS
 62
     7
 10
416.5
 20
-75
 11
449.5
 21
-75
  0
LINE
  8
0
  6
CONTINUOUS
 62
     7
 10
416.5000305175781
 20
-75
 11
413.0000305175781
 21
-70.83912658691406
  0
LINE
  8
0
  6
CONTINUOUS
 62
     7
 10
416.5
 20
72.07391357421875
 11
449.5
 21
72.07391357421875
  0
LINE
  8
0
  6
CONTINUOUS
 62
     7
 10
416.5
 20
68.98251342773437
 11
449.5
 21
68.98251342773437
  0
LINE
  8
0
  6
CONTINUOUS
 62
     7
 10
416.5
 20
59.98248291015625
 11
449.5
 21
59.98248291015625
  0
LINE
  8
0
  6
CONTINUOUS
 62
     7
 10
416.5
 20
54.0025634765625
 11
449.5
 21
54.0025634765625
  0
LINE
  8
0
  6
CONTINUOUS
 62
     7
 10
416.5
 20
40.91079711914063
 11
449.5
 21
40.91079711914063
  0
LINE
  8
0
  6
CONTINUOUS
 62
     7
 10
416.5
 20
48.15170288085938
 11
449.5
 21
48.15170288085938
  0
LINE
  8
0
  6
CONTINUOUS
 62
     7
 10
416.5
 20
33.98257446289063
 11
449.5
 21
33.98257446289063
  0
LINE
  8
0
  6
CONTINUOUS
 62
     7
 10
416.5
 20
25.72195434570313
 11
449.5
 21
25.72195434570313
  0
LINE
  8
0
  6
CONTINUOUS
 62
     7
 10
416.5
 20
18.07150268554688
 11
449.5
 21
18.07150268554688
  0
LINE
  8
0
  6
CONTINUOUS
 62
     7
 10
416.5
 20
9.00006103515625
 11
449.5
 21
9.00006103515625
  0
LINE
  8
0
  6
CONTINUOUS
 62
     7
 10
416.5
 20
-68.98260498046875
 11
449.5
 21
-68.98260498046875
  0
LINE
  8
0
  6
CONTINUOUS
 62
     7
 10
416.5
 20
-72.07395935058594
 11
449.5
 21
-72.07395935058594
  0
LINE
  8
0
  6
CONTINUOUS
 62
     7
 10
340
 20
-99.99996948242188
 11
340
 21
-29.16082763671875
  0
LINE
  8
0
  6
CONTINUOUS
 62
     7
 10
340
 20
-99.99996948242188
 11
354
 21
-99.99996948242188
  0
LINE
  8
0
  6
CONTINUOUS
 62
     7
 10
340
 20
99.99996948242188
 11
354
 21
99.99996948242188
  0
LINE
  8
0
  6
CONTINUOUS
 62
     7
 10
354
 20
-99.99996948242188
 11
354
 21
99.99996948242188
  0
LINE
  8
0
  6
CONTINUOUS
 62
     7
 10
401
 20
-72.5
 11
413
 21
-72.5
  0
LINE
  8
0
  6
CONTINUOUS
 62
     7
 10
401
 20
72.49996948242187
 11
413
 21
72.49996948242187
  0
LINE
  8
0
  6
CONTINUOUS
 62
     7
 10
401
 20
-72.5
 11
401
 21
-53.84616088867187
  0
LINE
  8
0
  6
CONTINUOUS
 62
     7
 10
300
 20
-14
 11
300
 21
14
  0
LINE
  8
0
  6
CONTINUOUS
 62
     7
 10
336
 20
-65
 11
336
 21
-32.5
  0
LINE
  8
0
  6
CONTINUOUS
 62
     7
 10
336
 20
65
 11
340
 21
65
  0
LINE
  8
0
  6
CONTINUOUS
 62
     7
 10
336
 20
-65
 11
340
 21
-65
  0
LINE
  8
0
  6
CONTINUOUS
 62
     7
 10
300
 20
14
 11
340
 21
14
  0
LINE
  8
0
  6
CONTINUOUS
 62
     7
 10
300
 20
-14
 11
340
 21
-14
  0
LINE
  8
0
  6
CONTINUOUS
 62
     7
 10
340
 20
-17.5
 11
340
 21
17.5
  0
LINE
  8
0
  6
CONTINUOUS
 62
     7
 10
340
 20
17.5
 11
343.8111572265625
 21
17.5
  0
LINE
  8
0
  6
CONTINUOUS
 62
     7
 10
340
 20
-17.5
 11
344.3988342285156
 21
-17.5
  0
LINE
  8
0
  6
CONTINUOUS
 62
     7
 10
340
 20
29.3243408203125
 11
340
 21
99.99996948242188
  0
LINE
  8
0
  6
CONTINUOUS
 62
     7
 10
336
 20
32.5
 11
336
 21
65
  0
LINE
  8
0
  6
CONTINUOUS
 62
     7
 10
300
 20
4
 11
334
 21
4
  0
LINE
  8
0
  6
CONTINUOUS
 62
     7
 10
300
 20
-4
 11
334
 21
-4
  0
LINE
  8
0
  6
CONTINUOUS
 62
     7
 10
332
 20
-4
 11
332
 21
4
  0
LINE
  8
0
  6
CONTINUOUS
 62
     7
 10
364
 20
-29.46542358398437
 11
379.3217163085938
 21
-29.46542358398437
  0
LINE
  8
0
  6
CONTINUOUS
 62
     7
 10
383.4472961425781
 20
-44.54686737060547
 11
354
 21
-57.02845764160156
  0
LINE
  8
0
  6
CONTINUOUS
 62
     7
 10
386.2557983398437
 20
-49.20726776123047
 11
354
 21
-62.8792839050293
  0
LINE
  8
0
  6
CONTINUOUS
 62
     7
 10
354
 20
62.87928771972656
 11
401.0000305175781
 21
50.5872802734375
  0
LINE
  8
0
  6
CONTINUOUS
 62
     7
 10
353.9999694824219
 20
57.02841567993164
 11
401
 21
44.73641204833984
  0
LINE
  8
0
  6
CONTINUOUS
 62
     7
 10
359
 20
33.11074829101562
 11
396
 21
33.11074829101562
  0
LINE
  8
0
  6
CONTINUOUS
 62
     7
 10
359
 20
9.1007080078125
 11
396
 21
9.1007080078125
  0
LINE
  8
0
  6
CONTINUOUS
 62
     7
 10
394.4734497070313
 20
-16.39053344726563
 11
401
 21
-16.39053344726563
  0
LINE
  8
0
  6
CONTINUOUS
 62
     7
 10
398
 20
-29.29693603515625
 11
401
 21
-29.29693603515625
  0
LINE
  8
0
  6
CONTINUOUS
 62
     7
 10
398
 20
-53.84616088867187
 11
401
 21
-53.84616088867187
  0
LINE
  8
0
  6
CONTINUOUS
 62
     7
 10
379.8348999023437
 20
-31.34348487854004
 11
383.3614501953125
 21
-44.24993515014648
  0
LINE
  8
0
  6
CONTINUOUS
 62
     7
 10
401
 20
-29.29693603515625
 11
401
 21
72.49996948242187
  0
ARC
  8
0
  6
CONTINUOUS
 62
     7
 10
364
 20
-259.5326843261719
 40
10
 50
179.999991348578
 51
270.0000006832453
  0
ARC
  8
0
  6
CONTINUOUS
 62
     7
 10
364
 20
-342.21142578125
 40
10.00000000000001
 50
90.00000250447815
 51
180.0000050089563
  0
ARC
  8
0
  6
CONTINUOUS
 62
     7
 10
393
 20
-261.5326843261719
 40
8.000000000000007
 50
269.9999974955219
 51
0
  0
ARC
  8
0
  6
CONTINUOUS
 62
     7
 10
393
 20
-340.21142578125
 40
8
 50
0
 51
90.00000250447806
  0
ARC
  8
0
  6
CONTINUOUS
 62
     7
 10
380.1025390625
 20
-242.6469573974609
 40
1.999999999999998
 50
245.5565672863648
 51
339.3860007263758
  0
CIRCLE
  8
0
  6
CONTINUOUS
 62
     7
 10
6.103515625E-05
 20
-300
 40
100
  0
CIRCLE
  8
0
  6
CONTINUOUS
 62
     7
 10
6.103515625E-05
 20
-300
 40
65
  0
ARC
  8
0
  6
CONTINUOUS
 62
     3
 10
0
 20
-300.0000610351563
 40
82.5
 50
351.6364410452822
 51
8.363644332082398
  0
ARC
  8
0
  6
CONTINUOUS
 62
     7
 10
0
 20
-300
 40
13.99999999999999
 50
106.6015627539487
 51
73.3984522729203
  0
CIRCLE
  8
0
  6
CONTINUOUS
 62
     7
 10
82.5
 20
-300
 40
6
  0
CIRCLE
  8
0
  6
CONTINUOUS
 62
     7
 10
0
 20
-217.5
 40
6
  0
ARC
  8
0
  6
CONTINUOUS
 62
     3
 10
6.103515625E-05
 20
-300
 40
82.5
 50
81.63644269598673
 51
98.36364427523965
  0
CIRCLE
  8
0
  6
CONTINUOUS
 62
     7
 10
-82.5
 20
-300
 40
6
  0
ARC
  8
0
  6
CONTINUOUS
 62
     3
 10
0
 20
-299.9999389648437
 40
82.5
 50
171.6364383702757
 51
188.3636399495286
  0
CIRCLE
  8
0
  6
CONTINUOUS
 62
     7
 10
0
 20
-382.5
 40
6
  0
ARC
  8
0
  6
CONTINUOUS
 62
     3
 10
-6.103515625E-05
 20
-300
 40
82.5
 50
261.6364376870304
 51
278.3636460964725
  0
CIRCLE
  8
0
  6
CONTINUOUS
 62
     7
 10
6.103515625E-05
 20
-300
 40
60
  0
ARC
  8
0
  6
CONTINUOUS
 62
     7
 10
515
 20
0
 40
3
 50
89.99998201390989
 51
269.9999460417318
  0
ARC
  8
0
  6
CONTINUOUS
 62
     7
 10
334
 20
0
 40
4
 50
270.0000179860891
 51
89.99998201391097
  0
ARC
  8
0
  6
CONTINUOUS
 62
     7
 10
359
 20
38.11074829101562
 40
5
 50
179.999991348578
 51
270.0000006832456
  0
ARC
  8
0
  6
CONTINUOUS
 62
     7
 10
396
 20
38.11074829101562
 40
4.999999999999997
 50
269.9999974955215
 51
0
  0
ARC
  8
0
  6
CONTINUOUS
 62
     7
 10
359
 20
14.1007080078125
 40
5
 50
179.999991348578
 51
270.0000006832456
  0
ARC
  8
0
  6
CONTINUOUS
 62
     7
 10
396
 20
14.1007080078125
 40
4.999999999999999
 50
269.9999974955215
 51
360
  0
ARC
  8
0
  6
CONTINUOUS
 62
     7
 10
364
 20
-39.46542358398437
 40
9.999999999999998
 50
90.00000250447815
 51
180.0000050089563
  0
POLYLINE
  8
0
  6
CONTINUOUS
 62
     7
 66
     1
 10
0
 20
0
  0
VERTEX
  8
0
  6
CONTINUOUS
 62
     7
 10
398
 20
-232.0078582763672
 42
0.02700914029689846
  0
VERTEX
  8
0
  6
CONTINUOUS
 62
     7
 10
395.5428081230422
 20
-232.1403029592243
 42
0.02829818573629786
  0
VERTEX
  8
0
  6
CONTINUOUS
 62
     7
 10
393.1158662838305
 20
-232.5421592105309
 42
0.03115745527394224
  0
VERTEX
  8
0
  6
CONTINUOUS
 62
     7
 10
390.7527861810157
 20
-233.2281373537219
 42
0.03614903527390308
  0
VERTEX
  8
0
  6
CONTINUOUS
 62
     7
 10
388.5031374135974
 20
-234.2231835150246
 42
0.04437696134109294
  0
VERTEX
  8
0
  6
CONTINUOUS
 62
     7
 10
386.4415183962959
 20
-235.5633548857704
 42
0.05742353803497909
  0
VERTEX
  8
0
  6
CONTINUOUS
 62
     7
 10
384.69219032565
 20
-237.2884716047741
 42
0.07586196959417423
  0
VERTEX
  8
0
  6
CONTINUOUS
 62
     7
 10
383.4579819326826
 20
-239.4081180171928
 42
0.09296661573379543
  0
VERTEX
  8
0
  6
CONTINUOUS
 62
     7
 10
383
 20
-241.8123626708984
 42
0.09295315659622379
  0
VERTEX
  8
0
  6
CONTINUOUS
 62
     7
 10
383.4578466445865
 20
-244.2162576951497
 42
0.07584136268306671
  0
VERTEX
  8
0
  6
CONTINUOUS
 62
     7
 10
384.6914004523779
 20
-246.3352608926017
 42
0.0574167994163466
  0
VERTEX
  8
0
  6
CONTINUOUS
 62
     7
 10
386.4399321374211
 20
-248.0601167205019
 42
0.04437739112698195
  0
VERTEX
  8
0
  6
CONTINUOUS
 62
     7
 10
388.5008999521302
 20
-249.4003453753446
 42
0.03615273806822102
  0
VERTEX
  8
0
  6
CONTINUOUS
 62
     7
 10
390.75019496559
 20
-250.3956531346477
 42
0.03115788413228423
  0
VERTEX
  8
0
  6
CONTINUOUS
 62
     7
 10
393.1128709124185
 20
-251.0818916550228
 42
0.02831181824421237
  0
VERTEX
  8
0
  6
CONTINUOUS
 62
     7
 10
395.5407575280488
 20
-251.4841997160608
 42
0.02703215926526522
  0
VERTEX
  8
0
  6
CONTINUOUS
 62
     7
 10
398
 20
-251.6168670654297
 42
0
  0
SEQEND
  8
0
  0
POLYLINE
  8
0
  6
CONTINUOUS
 62
     7
 66
     1
 10
0
 20
0
  0
VERTEX
  8
0
  6
CONTINUOUS
 62
     7
 10
336.0002538514692
 20
-247.15437343858
 42
-0.09073998089963874
  0
VERTEX
  8
0
  6
CONTINUOUS
 62
     7
 10
342.1550958612908
 20
-255.0321190974295
 42
-0.09679843204588354
  0
VERTEX
  8
0
  6
CONTINUOUS
 62
     7
 10
344.5729362092959
 20
-264.7238302261381
 42
-0.03882976278170207
  0
VERTEX
  8
0
  6
CONTINUOUS
 62
     7
 10
344.3552913845741
 20
-274.7634137186104
 42
0.001893327523117763
  0
VERTEX
  8
0
  6
CONTINUOUS
 62
     7
 10
343.4195916787438
 20
-284.7719439797879
 42
0.02723240053626586
  0
VERTEX
  8
0
  6
CONTINUOUS
 62
     7
 10
343.1688948933662
 20
-294.8169446005858
 42
0.02242831470871678
  0
VERTEX
  8
0
  6
CONTINUOUS
 62
     7
 10
344.0375378732026
 20
-304.8280305751225
 42
-0.04625973487191449
  0
VERTEX
  8
0
  6
CONTINUOUS
 62
     7
 10
344.4451161103846
 20
-314.8573585769167
 42
-0.09276739505045049
  0
VERTEX
  8
0
  6
CONTINUOUS
 62
     7
 10
342.0636438936211
 20
-324.5649131882236
 42
-0.09852521259667144
  0
VERTEX
  8
0
  6
CONTINUOUS
 62
     7
 10
336
 20
-332.5
 42
0
  0
SEQEND
  8
0
  0
POLYLINE
  8
0
  6
CONTINUOUS
 62
     7
 66
     1
 10
0
 20
0
  0
VERTEX
  8
0
  6
CONTINUOUS
 62
     7
 10
336
 20
32.5
 42
-0.1024472443600404
  0
VERTEX
  8
0
  6
CONTINUOUS
 62
     7
 10
341.7655513845111
 20
27.1816514770152
 42
-0.1588161383817385
  0
VERTEX
  8
0
  6
CONTINUOUS
 62
     7
 10
343.8562584329557
 20
19.69759862650829
 42
-0.001608493011944753
  0
VERTEX
  8
0
  6
CONTINUOUS
 62
     7
 10
343.5679958098529
 20
11.80477475820215
 42
0.007942389885639075
  0
VERTEX
  8
0
  6
CONTINUOUS
 62
     7
 10
343.6333822128619
 20
3.906317111186381
 42
-0.0006793650976008346
  0
VERTEX
  8
0
  6
CONTINUOUS
 62
     7
 10
343.7029526888744
 20
-3.99118204145546
 42
0.01802710157564312
  0
VERTEX
  8
0
  6
CONTINUOUS
 62
     7
 10
344.0564277173219
 20
-11.8802545091165
 42
-0.03918571129375748
  0
VERTEX
  8
0
  6
CONTINUOUS
 62
     7
 10
344.3264500077655
 20
-19.76620678069638
 42
-0.146440458931492
  0
VERTEX
  8
0
  6
CONTINUOUS
 62
     7
 10
341.7193594254302
 20
-27.10744787291966
 42
-0.08656602170379131
  0
VERTEX
  8
0
  6
CONTINUOUS
 62
     7
 10
336
 20
-32.5
 42
0
  0
SEQEND
  8
0
  0
POLYLINE
  8
0
  6
CONTINUOUS
 62
     7
 66
     1
 10
0
 20
0
  0
VERTEX
  8
0
  6
CONTINUOUS
 62
     7
 10
394.4734497070313
 20
-16.39053344726562
 42
0.02064769961714751
  0
VERTEX
  8
0
  6
CONTINUOUS
 62
     7
 10
392.9636658096835
 20
-16.45286789925083
 42
0.02085167514558172
  0
VERTEX
  8
0
  6
CONTINUOUS
 62
     7
 10
391.4645763212294
 20
-16.64001496273704
 42
0.02127242220557122
  0
VERTEX
  8
0
  6
CONTINUOUS
 62
     7
 10
389.9866155642281
 20
-16.9525281166243
 42
0.02191820987195626
  0
VERTEX
  8
0
  6
CONTINUOUS
 62
     7
 10
388.5409885948194
 20
-17.39131646617878
 42
0.02280051108107757
  0
VERTEX
  8
0
  6
CONTINUOUS
 62
     7
 10
387.1400591879997
 20
-17.95745950481746
 42
0.02393161217597356
  0
VERTEX
  8
0
  6
CONTINUOUS
 62
     7
 10
385.7977438865165
 20
-18.65191577149083
 42
0.02532018961276962
  0
VERTEX
  8
0
  6
CONTINUOUS
 62
     7
 10
384.5298938785507
 20
-19.47508132265252
 42
0.02696380098734455
  0
VERTEX
  8
0
  6
CONTINUOUS
 62
     7
 10
383.3546091023564
 20
-20.42614481245308
 42
0.0288371996643707
  0
VERTEX
  8
0
  6
CONTINUOUS
 62
     7
 10
382.2923768219164
 20
-21.50219070773709
 42
0.03087638979189776
  0
VERTEX
  8
0
  6
CONTINUOUS
 62
     7
 10
381.3658581837539
 20
-22.69704056636959
 42
0.03296143385378662
  0
VERTEX
  8
0
  6
CONTINUOUS
 62
     7
 10
380.5990840952986
 20
-23.9999223735644
 42
0.03490685368851975
  0
VERTEX
  8
0
  6
CONTINUOUS
 62
     7
 10
380.0158285657556
 20
-25.39423735485977
 42
0.03647455699771198
  0
VERTEX
  8
0
  6
CONTINUOUS
 62
     7
 10
379.637102772071
 20
-26.8569113777054
 42
0.03742210320738137
  0
VERTEX
  8
0
  6
CONTINUOUS
 62
     7
 10
379.4781180126059
 20
-28.35891827039319
 42
0.03755699268244266
  0
VERTEX
  8
0
  6
CONTINUOUS
 62
     7
 10
379.5454593514453
 20
-29.86642739607544
 42
0.03691642979372534
  0
VERTEX
  8
0
  6
CONTINUOUS
 62
     7
 10
379.8360410322167
 20
-31.34766310288305
 42
0
  0
SEQEND
  8
0
  0
POLYLINE
  8
0
  6
CONTINUOUS
 62
     7
 66
     1
 10
0
 20
0
  0
VERTEX
  8
0
  6
CONTINUOUS
 62
     7
 10
398
 20
-29.29693603515625
 42
0.03678719796213232
  0
VERTEX
  8
0
  6
CONTINUOUS
 62
     7
 10
395.3259990624776
 20
-29.49354901744888
 42
0.03795873121333576
  0
VERTEX
  8
0
  6
CONTINUOUS
 62
     7
 10
392.7117148318123
 20
-30.0850658072012
 42
0.04041676273807976
  0
VERTEX
  8
0
  6
CONTINUOUS
 62
     7
 10
390.2205842623649
 20
-31.07675809282697
 42
0.04424937309203791
  0
VERTEX
  8
0
  6
CONTINUOUS
 62
     7
 10
387.9313277158824
 20
-32.47317582776283
 42
0.04947423488922348
  0
VERTEX
  8
0
  6
CONTINUOUS
 62
     7
 10
385.9426569045639
 20
-34.26977729224822
 42
0.05580557598189724
  0
VERTEX
  8
0
  6
CONTINUOUS
 62
     7
 10
384.3732731627428
 20
-36.44081302139379
 42
0.06209597433561469
  0
VERTEX
  8
0
  6
CONTINUOUS
 62
     7
 10
383.3549371780063
 20
-38.91715151460552
 42
0.06627157803351114
  0
VERTEX
  8
0
  6
CONTINUOUS
 62
     7
 10
383
 20
-41.57156372070313
 42
0.06621701838528539
  0
VERTEX
  8
0
  6
CONTINUOUS
 62
     7
 10
383.3543490920823
 20
-44.22380071883993
 42
0.06209228138197733
  0
VERTEX
  8
0
  6
CONTINUOUS
 62
     7
 10
384.3719788808481
 20
-46.70000634686925
 42
0.05580225696070055
  0
VERTEX
  8
0
  6
CONTINUOUS
 62
     7
 10
385.940541655138
 20
-48.8709996622616
 42
0.04947230042059307
  0
VERTEX
  8
0
  6
CONTINUOUS
 62
     7
 10
387.9283724826313
 20
-50.66774438534497
 42
0.04424205645359376
  0
VERTEX
  8
0
  6
CONTINUOUS
 62
     7
 10
390.2165274836198
 20
-52.06433291566373
 42
0.04042718769835107
  0
VERTEX
  8
0
  6
CONTINUOUS
 62
     7
 10
392.7077247304894
 20
-53.05680454360398
 42
0.03799002793352858
  0
VERTEX
  8
0
  6
CONTINUOUS
 62
     7
 10
395.3239135975213
 20
-53.64923970421816
 42
0.03681620906931889
  0
VERTEX
  8
0
  6
CONTINUOUS
 62
     7
 10
398
 20
-53.84616088867187
 42
0
  0
SEQEND
  8
0
  0
TEXT
  8
0
  6
CONTINUOUS
 62
     7
 10
-57.14286041259766
 20
-10
 40
20
 41
0.847397831130959
  1
ＥＲＶ－＿Ｂ
  0
ENDSEC
  0
EOF
