  0
SECTION
  2
HEADER
  0
ENDSEC
  0
SECTION
  2
TABLES
  0
TABLE
  2
LTYPE
 70
    22
  0
LTYPE
  2
CONTINUOUS
 70
    64
  3
Solid line
 72
    65
 73
     0
 40
0.000000
  0
LTYPE
  2
DASHED
 70
    64
  3
__ __ __ __ __ __ __ __ __ __ __ __ __ __ __
 72
    65
 73
     2
 40
3.500000
 49
2.000000
 49
-1.500000
  0
LTYPE
  2
CENTER
 70
    64
  3
____ _ ____ _ ____ _ ____ _ ____ _ ____ _ ____
 72
    65
 73
     4
 40
17.500000
 49
13.000000
 49
-1.500000
 49
1.500000
 49
-1.500000
  0
LTYPE
  2
PHANTOM
 70
    64
  3
_____ _ _ _____ _ _ _____ _ _ _____ _ _ ____  
 72
    65
 73
     6
 40
15.500000
 49
8.000000
 49
-1.500000
 49
1.500000
 49
-1.500000
 49
1.500000
 49
-1.500000
  0
LTYPE
  2
DOT
 70
    64
  3
. . . . . . . . . . . . . . . . . . . . . . . .
 72
    65
 73
     2
 40
0.25
 49
0.0
 49
-0.25
  0
ENDTAB
  0
TABLE
  2
LAYER
 70
     1
  0
LAYER
  2
0
 70
     0
 62
     7
  6
CONTINUOUS
  0
ENDTAB
  0
TABLE
  2
STYLE
 70
     1
  0
STYLE
  2
STANDARD
 70
     0
 40
0.000000
 41
1.000000
 50
0.000000
 71
     0
 42
0.200000
  3
txt
  4
BIGFONT
  0
ENDTAB
  0
TABLE
  2
VIEW
 70
     0
  0
ENDTAB
  0
ENDSEC
  0
SECTION
  2
BLOCKS
  0
ENDSEC
  0
SECTION
  2
ENTITIES
  0
LINE
  8
0
  6
CONTINUOUS
 62
     3
 10
330
 20
-455
 11
784.5325927734375
 21
-455
  0
LINE
  8
0
  6
CONTINUOUS
 62
     7
 10
589
 20
-340
 11
589
 21
-570
  0
LINE
  8
0
  6
CONTINUOUS
 62
     7
 10
589
 20
-570
 11
616
 21
-570
  0
LINE
  8
0
  6
CONTINUOUS
 62
     7
 10
607
 20
-351.816650390625
 11
607
 21
-570
  0
LINE
  8
0
  6
CONTINUOUS
 62
     7
 10
664
 20
-381.5
 11
664
 21
-528.5
  0
LINE
  8
0
  6
CONTINUOUS
 62
     7
 10
654
 20
-382.5
 11
654
 21
-527.5
  0
LINE
  8
0
  6
CONTINUOUS
 62
     7
 10
654
 20
-527.5
 11
664
 21
-527.5
  0
LINE
  8
0
  6
CONTINUOUS
 62
     7
 10
654
 20
-382.5
 11
664
 21
-382.5
  0
LINE
  8
0
  6
CONTINUOUS
 62
     7
 10
622
 20
-377.5
 11
622
 21
-532.5
  0
LINE
  8
0
  6
CONTINUOUS
 62
     7
 10
612
 20
-537.5
 11
617
 21
-537.5
  0
LINE
  8
0
  6
CONTINUOUS
 62
     7
 10
616
 20
-340
 11
616
 21
-370.5
  0
LINE
  8
0
  6
CONTINUOUS
 62
     7
 10
612
 20
-372.5
 11
617
 21
-372.5
  0
LINE
  8
0
  6
CONTINUOUS
 62
     7
 10
616
 20
-570
 11
616
 21
-539.5
  0
LINE
  8
0
  6
CONTINUOUS
 62
     7
 10
621.9999389648438
 20
-394.2030334472656
 11
653.9999389648437
 21
-401.5271911621094
  0
LINE
  8
0
  6
CONTINUOUS
 62
     7
 10
622
 20
-420.947509765625
 11
654
 21
-420.947509765625
  0
LINE
  8
0
  6
CONTINUOUS
 62
     7
 10
622
 20
-515.7969970703125
 11
654
 21
-508.4728088378906
  0
LINE
  8
0
  6
CONTINUOUS
 62
     7
 10
622
 20
-489.052490234375
 11
654
 21
-489.052490234375
  0
LINE
  8
0
  6
CONTINUOUS
 62
     7
 10
606.9999389648437
 20
-351.8166809082031
 11
615.9999389648437
 21
-350.7745971679688
  0
LINE
  8
0
  6
CONTINUOUS
 62
     7
 10
664
 20
-381.5
 11
686.5
 21
-381.5
  0
LINE
  8
0
  6
CONTINUOUS
 62
     7
 10
664
 20
-528.5
 11
686.5
 21
-528.5
  0
LINE
  8
0
  6
CONTINUOUS
 62
     7
 10
686.5
 20
-381.5
 11
686.5
 21
-528.5
  0
LINE
  8
0
  6
CONTINUOUS
 62
     7
 10
541
 20
-337.5
 11
585
 21
-337.5
  0
LINE
  8
0
  6
CONTINUOUS
 62
     7
 10
541
 20
-572.5
 11
585
 21
-572.5
  0
LINE
  8
0
  6
CONTINUOUS
 62
     7
 10
537
 20
-340
 11
537
 21
-570
  0
LINE
  8
0
  6
CONTINUOUS
 62
     7
 10
537
 20
-341.5000305175781
 11
541.0000610351563
 21
-337.5
  0
LINE
  8
0
  6
CONTINUOUS
 62
     7
 10
585
 20
-337.5
 11
589
 21
-341.5
  0
LINE
  8
0
  6
CONTINUOUS
 62
     7
 10
589
 20
-568.5
 11
585
 21
-572.5
  0
LINE
  8
0
  6
CONTINUOUS
 62
     7
 10
541
 20
-572.5
 11
537
 21
-568.5
  0
LINE
  8
0
  6
CONTINUOUS
 62
     7
 10
541
 20
-380.0578002929688
 11
585
 21
-380.0578002929688
  0
LINE
  8
0
  6
CONTINUOUS
 62
     7
 10
541
 20
-393.7132568359375
 11
585
 21
-393.7132568359375
  0
LINE
  8
0
  6
CONTINUOUS
 62
     7
 10
541
 20
-402.4596557617188
 11
585
 21
-402.4596557617188
  0
LINE
  8
0
  6
CONTINUOUS
 62
     7
 10
541
 20
-417.8352966308594
 11
585
 21
-417.8352966308594
  0
LINE
  8
0
  6
CONTINUOUS
 62
     7
 10
541
 20
-427.447998046875
 11
585
 21
-427.447998046875
  0
LINE
  8
0
  6
CONTINUOUS
 62
     7
 10
541
 20
-444.00048828125
 11
585
 21
-444.00048828125
  0
LINE
  8
0
  6
CONTINUOUS
 62
     7
 10
541
 20
-466.0003051757813
 11
585
 21
-466.0003051757813
  0
LINE
  8
0
  6
CONTINUOUS
 62
     7
 10
541
 20
-482.5516662597656
 11
585
 21
-482.5516662597656
  0
LINE
  8
0
  6
CONTINUOUS
 62
     7
 10
541
 20
-492.1639404296875
 11
585
 21
-492.1639404296875
  0
LINE
  8
0
  6
CONTINUOUS
 62
     7
 10
541
 20
-507.5404357910156
 11
585
 21
-507.5404357910156
  0
LINE
  8
0
  6
CONTINUOUS
 62
     7
 10
541
 20
-516.2864379882812
 11
585
 21
-516.2864379882812
  0
LINE
  8
0
  6
CONTINUOUS
 62
     7
 10
541
 20
-529.94091796875
 11
585
 21
-529.94091796875
  0
LINE
  8
0
  6
CONTINUOUS
 62
     7
 10
541
 20
-545.4974365234375
 11
585
 21
-545.4974365234375
  0
LINE
  8
0
  6
CONTINUOUS
 62
     7
 10
541
 20
-555.2504272460937
 11
585
 21
-555.2504272460937
  0
LINE
  8
0
  6
CONTINUOUS
 62
     7
 10
541
 20
-560.0982055664063
 11
585
 21
-560.0982055664063
  0
LINE
  8
0
  6
CONTINUOUS
 62
     7
 10
541
 20
-566.4676513671875
 11
585
 21
-566.4676513671875
  0
LINE
  8
0
  6
CONTINUOUS
 62
     7
 10
739.5
 20
-435
 11
739.5
 21
-475
  0
LINE
  8
0
  6
CONTINUOUS
 62
     7
 10
696.5
 20
-382.5
 11
686.5
 21
-382.5
  0
LINE
  8
0
  6
CONTINUOUS
 62
     7
 10
701.5
 20
-403
 11
696.5
 21
-403
  0
LINE
  8
0
  6
CONTINUOUS
 62
     7
 10
696.5
 20
-382.5
 11
696.5
 21
-527.5
  0
LINE
  8
0
  6
CONTINUOUS
 62
     7
 10
732.5
 20
-426.5
 11
732.5
 21
-483.5
  0
LINE
  8
0
  6
CONTINUOUS
 62
     7
 10
739.5
 20
-434.9999389648438
 11
732.5000610351562
 21
-430.95849609375
  0
LINE
  8
0
  6
CONTINUOUS
 62
     7
 10
732.5
 20
-426.5
 11
720.3580322265625
 21
-426.5
  0
LINE
  8
0
  6
CONTINUOUS
 62
     7
 10
739.5000610351563
 20
-475.0000305175781
 11
732.5000610351562
 21
-479.0414733886719
  0
LINE
  8
0
  6
CONTINUOUS
 62
     7
 10
701.5
 20
-507
 11
701.5
 21
-403
  0
LINE
  8
0
  6
CONTINUOUS
 62
     7
 10
701.5
 20
-507
 11
696.5
 21
-507
  0
LINE
  8
0
  6
CONTINUOUS
 62
     7
 10
696.5
 20
-527.5
 11
686.5
 21
-527.5
  0
LINE
  8
0
  6
CONTINUOUS
 62
     7
 10
773.5
 20
-443
 11
748.5
 21
-443
  0
LINE
  8
0
  6
CONTINUOUS
 62
     7
 10
773.5
 20
-443
 11
773.5
 21
-464.5
  0
LINE
  8
0
  6
CONTINUOUS
 62
     7
 10
773.5
 20
-464.5
 11
743.5
 21
-464.5
  0
LINE
  8
0
  6
CONTINUOUS
 62
     7
 10
773.5
 20
-445.5
 11
743.5
 21
-445.5
  0
LINE
  8
0
  6
CONTINUOUS
 62
     7
 10
743.5
 20
-442.5
 11
743.5
 21
-467.5
  0
LINE
  8
0
  6
CONTINUOUS
 62
     7
 10
743.5
 20
-467.5
 11
739.5
 21
-467.5
  0
LINE
  8
0
  6
CONTINUOUS
 62
     7
 10
743.5
 20
-442.5
 11
739.5
 21
-442.5
  0
LINE
  8
0
  6
CONTINUOUS
 62
     7
 10
748.5
 20
-443
 11
748.5
 21
-445.5
  0
LINE
  8
0
  6
CONTINUOUS
 62
     7
 10
732.5
 20
-483.5
 11
720.3580322265625
 21
-483.5
  0
LINE
  8
0
  6
CONTINUOUS
 62
     7
 10
720.9999389648438
 20
-449.0823669433594
 11
701.5
 21
-444.03125
  0
LINE
  8
0
  6
CONTINUOUS
 62
     7
 10
721
 20
-435.935302734375
 11
701.5000610351562
 21
-422.1353149414062
  0
LINE
  8
0
  6
CONTINUOUS
 62
     7
 10
701.5
 20
-408.2694702148437
 11
721
 21
-427.1205749511719
  0
LINE
  8
0
  6
CONTINUOUS
 62
     7
 10
721
 20
-463.8154602050781
 11
701.5
 21
-468.8665771484375
  0
LINE
  8
0
  6
CONTINUOUS
 62
     7
 10
701.5
 20
-489.9861450195312
 11
720.9999389648438
 21
-476.1861877441406
  0
LINE
  8
0
  6
CONTINUOUS
 62
     7
 10
701.5
 20
-501.7305297851563
 11
721
 21
-482.8794250488281
  0
LINE
  8
0
  6
CONTINUOUS
 62
     7
 10
445
 20
-305
 11
467
 21
-305
  0
LINE
  8
0
  6
CONTINUOUS
 62
     7
 10
445
 20
-605
 11
467
 21
-605
  0
LINE
  8
0
  6
CONTINUOUS
 62
     7
 10
445
 20
-305
 11
445
 21
-362.2501525878906
  0
LINE
  8
0
  6
CONTINUOUS
 62
     7
 10
467
 20
-305
 11
467
 21
-605
  0
LINE
  8
0
  6
CONTINUOUS
 62
     7
 10
519
 20
-340
 11
519
 21
-570
  0
LINE
  8
0
  6
CONTINUOUS
 62
     7
 10
519
 20
-570
 11
537
 21
-570
  0
LINE
  8
0
  6
CONTINUOUS
 62
     7
 10
472
 20
-340
 11
537
 21
-340
  0
LINE
  8
0
  6
CONTINUOUS
 62
     7
 10
470.0956726074219
 20
-521.2222290039062
 11
504.6410217285156
 21
-506.9927673339844
  0
LINE
  8
0
  6
CONTINUOUS
 62
     7
 10
470.095703125
 20
-388.7777709960938
 11
504.6410217285156
 21
-403.0072326660156
  0
LINE
  8
0
  6
CONTINUOUS
 62
     7
 10
467
 20
-348.1235046386719
 11
519
 21
-369.4042358398438
  0
LINE
  8
0
  6
CONTINUOUS
 62
     7
 10
467
 20
-362.2656555175781
 11
519
 21
-383.54638671875
  0
LINE
  8
0
  6
CONTINUOUS
 62
     7
 10
504.6410217285156
 20
-403.0072326660156
 11
514
 21
-403.0072326660156
  0
LINE
  8
0
  6
CONTINUOUS
 62
     7
 10
504.6410217285156
 20
-506.9927978515625
 11
514
 21
-506.9927978515625
  0
LINE
  8
0
  6
CONTINUOUS
 62
     7
 10
467
 20
-547.734375
 11
519
 21
-526.45361328125
  0
LINE
  8
0
  6
CONTINUOUS
 62
     7
 10
467.0000305175781
 20
-561.8765258789063
 11
519
 21
-540.5957641601563
  0
LINE
  8
0
  6
CONTINUOUS
 62
     7
 10
440
 20
-570
 11
445
 21
-570
  0
LINE
  8
0
  6
CONTINUOUS
 62
     7
 10
440
 20
-340
 11
445
 21
-340
  0
LINE
  8
0
  6
CONTINUOUS
 62
     7
 10
350
 20
-418.5
 11
350
 21
-487.5
  0
LINE
  8
0
  6
CONTINUOUS
 62
     7
 10
350
 20
-487.5
 11
445
 21
-487.5
  0
LINE
  8
0
  6
CONTINUOUS
 62
     7
 10
350
 20
-422.5
 11
445
 21
-422.5
  0
LINE
  8
0
  6
CONTINUOUS
 62
     7
 10
440
 20
-535.2203369140625
 11
440
 21
-570
  0
LINE
  8
0
  6
CONTINUOUS
 62
     7
 10
445
 20
-526.8104858398437
 11
445
 21
-605
  0
LINE
  8
0
  6
CONTINUOUS
 62
     7
 10
440
 20
-340
 11
440
 21
-357.4778747558594
  0
LINE
  8
0
  6
CONTINUOUS
 62
     7
 10
350
 20
-418.5
 11
430
 21
-418.5
  0
LINE
  8
0
  6
CONTINUOUS
 62
     7
 10
430
 20
-418.5
 11
430
 21
-422.5
  0
LINE
  8
0
  6
CONTINUOUS
 62
     7
 10
445
 20
-417.5
 11
448.7959899902344
 21
-417.5
  0
LINE
  8
0
  6
CONTINUOUS
 62
     7
 10
445
 20
-492.5
 11
449.16015625
 21
-492.5
  0
LINE
  8
0
  6
CONTINUOUS
 62
     7
 10
445
 20
-418.1000061035156
 11
445
 21
-492.5
  0
LINE
  8
0
  6
CONTINUOUS
 62
     3
 10
493
 20
-248.0375671386719
 11
493
 21
-355
  0
LINE
  8
0
  6
CONTINUOUS
 62
     7
 10
479.5
 20
-270.7000122070312
 11
506.5
 21
-270.7000122070312
  0
LINE
  8
0
  6
CONTINUOUS
 62
     7
 10
501.0710754394531
 20
-256.0500183105469
 11
484.9289245605469
 21
-256.0500183105469
  0
LINE
  8
0
  6
CONTINUOUS
 62
     7
 10
501.507568359375
 20
-265.0500183105469
 11
484.492431640625
 21
-265.0500183105469
  0
LINE
  8
0
  6
CONTINUOUS
 62
     7
 10
501.507568359375
 20
-265.0500183105469
 11
501.3309936523438
 21
-270.7000122070312
  0
LINE
  8
0
  6
CONTINUOUS
 62
     7
 10
484.4924011230469
 20
-265.0500183105469
 11
484.6689758300781
 21
-270.7000122070312
  0
LINE
  8
0
  6
CONTINUOUS
 62
     7
 10
501.071044921875
 20
-256.0500183105469
 11
501.071044921875
 21
-265.0500183105469
  0
LINE
  8
0
  6
CONTINUOUS
 62
     7
 10
484.928955078125
 20
-256.0500183105469
 11
484.928955078125
 21
-265.0500183105469
  0
LINE
  8
0
  6
CONTINUOUS
 62
     7
 10
479.5
 20
-302.7000122070313
 11
506.5
 21
-302.7000122070313
  0
LINE
  8
0
  6
CONTINUOUS
 62
     7
 10
484.3499755859375
 20
-302.7000122070313
 11
484.3499755859375
 21
-340
  0
LINE
  8
0
  6
CONTINUOUS
 62
     7
 10
501.6500244140625
 20
-302.7000122070313
 11
501.6500244140625
 21
-340
  0
LINE
  8
0
  6
CONTINUOUS
 62
     7
 10
506.5
 20
-270.7000122070312
 11
506.5
 21
-302.7000122070313
  0
LINE
  8
0
  6
CONTINUOUS
 62
     7
 10
479.5
 20
-270.7000122070312
 11
479.5
 21
-302.7000122070313
  0
LINE
  8
0
  6
CONTINUOUS
 62
     3
 10
484.9289855957031
 20
-265.0500183105469
 11
493.0000305175781
 21
-256.0500183105469
  0
LINE
  8
0
  6
CONTINUOUS
 62
     3
 10
484.928955078125
 20
-256.0500183105469
 11
493
 21
-265.0500183105469
  0
LINE
  8
0
  6
CONTINUOUS
 62
     7
 10
493
 20
-265.0500183105469
 11
493
 21
-256.0500183105469
  0
LINE
  8
0
  6
CONTINUOUS
 62
     3
 10
493.0000610351563
 20
-256.0500183105469
 11
501.0710754394531
 21
-265.0500183105469
  0
LINE
  8
0
  6
CONTINUOUS
 62
     3
 10
501.071044921875
 20
-256.0499877929688
 11
493
 21
-265.0499877929687
  0
LINE
  8
0
  6
CONTINUOUS
 62
     3
 10
574
 20
-445.135009765625
 11
574
 21
-464.864990234375
  0
LINE
  8
0
  6
CONTINUOUS
 62
     7
 10
574
 20
-450.0502624511719
 11
569.0502319335937
 21
-455
  0
LINE
  8
0
  6
CONTINUOUS
 62
     7
 10
569.0502319335937
 20
-455
 11
574
 21
-459.9497375488281
  0
LINE
  8
0
  6
CONTINUOUS
 62
     7
 10
574
 20
-459.9497680664063
 11
578.9497680664062
 21
-455
  0
LINE
  8
0
  6
CONTINUOUS
 62
     7
 10
578.9497680664062
 20
-455
 11
574
 21
-450.0502624511719
  0
LINE
  8
0
  6
CONTINUOUS
 62
     7
 10
592
 20
-316.9199829101563
 11
592
 21
-328.3305053710938
  0
LINE
  8
0
  6
CONTINUOUS
 62
     7
 10
595.5
 20
-340
 11
589
 21
-340
  0
LINE
  8
0
  6
CONTINUOUS
 62
     7
 10
616
 20
-340
 11
612.5
 21
-340
  0
LINE
  8
0
  6
CONTINUOUS
 62
     7
 10
612.5
 20
-330.2359313964844
 11
612.5
 21
-343.2413330078125
  0
LINE
  8
0
  6
CONTINUOUS
 62
     7
 10
595.5
 20
-330.2359924316406
 11
595.5
 21
-343.2413330078125
  0
LINE
  8
0
  6
CONTINUOUS
 62
     7
 10
616
 20
-322.9199829101563
 11
616
 21
-328.3305053710938
  0
LINE
  8
0
  6
CONTINUOUS
 62
     7
 10
627
 20
-293.9199829101563
 11
627
 21
-317.9199829101563
  0
LINE
  8
0
  6
CONTINUOUS
 62
     7
 10
621
 20
-317.9199829101563
 11
627
 21
-317.9199829101563
  0
LINE
  8
0
  6
CONTINUOUS
 62
     7
 10
615
 20
-293.9199829101563
 11
627
 21
-293.9199829101563
  0
LINE
  8
0
  6
CONTINUOUS
 62
     7
 10
633
 20
-297.4124450683594
 11
627
 21
-297.5999450683594
  0
LINE
  8
0
  6
CONTINUOUS
 62
     7
 10
633
 20
-314.4275512695312
 11
633
 21
-297.4124450683594
  0
LINE
  8
0
  6
CONTINUOUS
 62
     3
 10
647.4326171875
 20
-305.9199829101562
 11
586.7659301757813
 21
-305.9199829101562
  0
LINE
  8
0
  6
CONTINUOUS
 62
     3
 10
604
 20
-291.5993957519531
 11
604
 21
-348.7841186523437
  0
LINE
  8
0
  6
CONTINUOUS
 62
     7
 10
633
 20
-314.4275817871094
 11
627
 21
-314.2400817871094
  0
LINE
  8
0
  6
CONTINUOUS
 62
     7
 10
633
 20
-314.1878051757813
 11
642
 21
-314.1878051757813
  0
LINE
  8
0
  6
CONTINUOUS
 62
     7
 10
642
 20
-314.1878051757813
 11
642
 21
-297.6522216796875
  0
LINE
  8
0
  6
CONTINUOUS
 62
     7
 10
633
 20
-297.6522216796875
 11
642
 21
-297.6522216796875
  0
LINE
  8
0
  6
CONTINUOUS
 62
     7
 10
633
 20
-305.9199829101562
 11
642
 21
-305.9199829101562
  0
LINE
  8
0
  6
CONTINUOUS
 62
     3
 10
642
 20
-305.9199829101562
 11
633
 21
-297.6521911621094
  0
LINE
  8
0
  6
CONTINUOUS
 62
     3
 10
642
 20
-297.6522216796875
 11
633
 21
-305.9199829101562
  0
LINE
  8
0
  6
CONTINUOUS
 62
     3
 10
633
 20
-305.9200134277344
 11
642
 21
-314.1878051757813
  0
LINE
  8
0
  6
CONTINUOUS
 62
     3
 10
642
 20
-305.9199829101562
 11
633
 21
-314.1878051757813
  0
LINE
  8
0
  6
CONTINUOUS
 62
     3
 10
-165
 20
-455
 11
165
 21
-455
  0
LINE
  8
0
  6
CONTINUOUS
 62
     3
 10
0
 20
-241.0500183105469
 11
0
 21
-620
  0
LINE
  8
0
  6
CONTINUOUS
 62
     7
 10
9
 20
-418.5
 11
9
 21
-429.5
  0
LINE
  8
0
  6
CONTINUOUS
 62
     7
 10
-9
 20
-418.5
 11
-9
 21
-429.5
  0
LINE
  8
0
  6
CONTINUOUS
 62
     3
 10
111.7655639648437
 20
-501.2949829101563
 11
132.5182189941406
 21
-509.8910522460937
  0
LINE
  8
0
  6
CONTINUOUS
 62
     3
 10
111.765739440918
 20
-408.7051086425781
 11
132.5184020996094
 21
-400.1090698242187
  0
LINE
  8
0
  6
CONTINUOUS
 62
     3
 10
46.294921875
 20
-343.234375
 11
54.89094543457031
 21
-322.4817504882813
  0
LINE
  8
0
  6
CONTINUOUS
 62
     3
 10
-46.2946891784668
 20
-343.234375
 11
-54.89072418212891
 21
-322.4817199707031
  0
LINE
  8
0
  6
CONTINUOUS
 62
     3
 10
-111.765625
 20
-408.7049865722656
 11
-132.5182952880859
 21
-400.1089477539063
  0
LINE
  8
0
  6
CONTINUOUS
 62
     3
 10
-111.7656784057617
 20
-501.2947082519531
 11
-132.5183410644531
 21
-509.8907470703125
  0
LINE
  8
0
  6
CONTINUOUS
 62
     3
 10
-46.29496002197266
 20
-566.7655029296875
 11
-54.8910026550293
 21
-587.5181884765625
  0
LINE
  8
0
  6
CONTINUOUS
 62
     3
 10
46.29468154907227
 20
-566.7656860351563
 11
54.89071273803711
 21
-587.5183715820312
  0
LINE
  8
0
  6
CONTINUOUS
 62
     7
 10
-9
 20
-429.5
 11
9
 21
-429.5
  0
LINE
  8
0
  6
CONTINUOUS
 62
     7
 10
-9
 20
-418.5
 11
9
 21
-418.5
  0
LINE
  8
0
  6
CONTINUOUS
 62
     3
 10
58.56740570068359
 20
-488.8139038085938
 11
71.13249206542969
 21
-496.068359375
  0
LINE
  8
0
  6
CONTINUOUS
 62
     3
 10
58.56741333007813
 20
-421.1861267089844
 11
71.13249969482422
 21
-413.9316711425781
  0
LINE
  8
0
  6
CONTINUOUS
 62
     3
 10
-58.56744384765625
 20
-421.1860656738281
 11
-71.13258361816406
 21
-413.9315795898437
  0
LINE
  8
0
  6
CONTINUOUS
 62
     3
 10
-58.5674934387207
 20
-488.8139953613281
 11
-71.13257598876953
 21
-496.0684509277344
  0
LINE
  8
0
  6
CONTINUOUS
 62
     7
 10
-13.5
 20
-270.7000122070312
 11
13.5
 21
-270.7000122070312
  0
LINE
  8
0
  6
CONTINUOUS
 62
     7
 10
8.07110595703125
 20
-256.0500183105469
 11
-8.07110595703125
 21
-256.0500183105469
  0
LINE
  8
0
  6
CONTINUOUS
 62
     7
 10
8.507568359375
 20
-265.0500183105469
 11
-8.507568359375
 21
-265.0500183105469
  0
LINE
  8
0
  6
CONTINUOUS
 62
     7
 10
8.507609367370605
 20
-265.0500183105469
 11
8.331047058105469
 21
-270.7000122070312
  0
LINE
  8
0
  6
CONTINUOUS
 62
     7
 10
-8.507546424865723
 20
-265.0500183105469
 11
-8.330984115600586
 21
-270.7000122070312
  0
LINE
  8
0
  6
CONTINUOUS
 62
     7
 10
8.07110595703125
 20
-256.0500183105469
 11
8.07110595703125
 21
-265.0500183105469
  0
LINE
  8
0
  6
CONTINUOUS
 62
     7
 10
-8.07110595703125
 20
-256.0500183105469
 11
-8.07110595703125
 21
-265.0500183105469
  0
LINE
  8
0
  6
CONTINUOUS
 62
     7
 10
-13.5
 20
-270.7000122070312
 11
-13.5
 21
-305.6087341308594
  0
LINE
  8
0
  6
CONTINUOUS
 62
     7
 10
13.5
 20
-270.7000122070312
 11
13.5
 21
-305.6087341308594
  0
LINE
  8
0
  6
CONTINUOUS
 62
     3
 10
-8.071090698242188
 20
-265.0499572753906
 11
2.050900911854114E-05
 21
-256.0499572753906
  0
LINE
  8
0
  6
CONTINUOUS
 62
     7
 10
0
 20
-256.0500183105469
 11
0
 21
-265.0500183105469
  0
LINE
  8
0
  6
CONTINUOUS
 62
     3
 10
-1.856322342064232E-05
 20
-265.0500183105469
 11
8.07109260559082
 21
-256.0500183105469
  0
LINE
  8
0
  6
CONTINUOUS
 62
     3
 10
8.071117401123047
 20
-265.050048828125
 11
2.691074769245461E-05
 21
-256.0500793457031
  0
LINE
  8
0
  6
CONTINUOUS
 62
     3
 10
-8.071108818054199
 20
-256.050048828125
 11
2.189824772358406E-05
 21
-265.050048828125
  0
LINE
  8
0
  6
CONTINUOUS
 62
     3
 10
37.59789657592773
 20
-292.1456298828125
 11
33.74266052246094
 21
-308.844482421875
  0
LINE
  8
0
  6
CONTINUOUS
 62
     3
 10
49.12076187133789
 20
-310.3421936035156
 11
19.83978271484375
 21
-303.5821533203125
  0
LINE
  8
0
  6
CONTINUOUS
 62
     7
 10
22.50012016296387
 20
-304.1963500976563
 11
21.94206809997559
 21
-306.613525390625
  0
LINE
  8
0
  6
CONTINUOUS
 62
     7
 10
45.88500213623047
 20
-309.5951538085938
 11
45.32695007324219
 21
-312.0123596191406
  0
LINE
  8
0
  6
CONTINUOUS
 62
     3
 10
332.5
 20
0
 11
783.565185546875
 21
0
  0
LINE
  8
0
  6
CONTINUOUS
 62
     7
 10
739.5000610351563
 20
-20
 11
739.5000610351563
 21
20
  0
LINE
  8
0
  6
CONTINUOUS
 62
     7
 10
693.5
 20
-72.49997711181641
 11
686.5
 21
-72.49997711181641
  0
LINE
  8
0
  6
CONTINUOUS
 62
     7
 10
701.5
 20
-51.99997711181641
 11
696.5
 21
-51.99997711181641
  0
LINE
  8
0
  6
CONTINUOUS
 62
     7
 10
693.5000610351562
 20
-72.5
 11
693.5000610351562
 21
-63.92559814453125
  0
LINE
  8
0
  6
CONTINUOUS
 62
     7
 10
696.5000610351563
 20
-63.92559814453125
 11
696.5000610351563
 21
63.92559814453125
  0
LINE
  8
0
  6
CONTINUOUS
 62
     7
 10
732.5000610351562
 20
-28.5
 11
732.5000610351562
 21
28.5
  0
LINE
  8
0
  6
CONTINUOUS
 62
     7
 10
739.5
 20
-20.00008583068848
 11
732.5
 21
-24.04152870178223
  0
LINE
  8
0
  6
CONTINUOUS
 62
     7
 10
732.5
 20
-28.49997901916504
 11
720.3580322265625
 21
-28.49997901916504
  0
LINE
  8
0
  6
CONTINUOUS
 62
     7
 10
739.5
 20
19.99994850158691
 11
732.5
 21
24.04139137268066
  0
LINE
  8
0
  6
CONTINUOUS
 62
     7
 10
732.5
 20
28.50002098083496
 11
720.3580322265625
 21
28.50002098083496
  0
LINE
  8
0
  6
CONTINUOUS
 62
     7
 10
701.5000610351562
 20
52
 11
701.5000610351562
 21
-52
  0
LINE
  8
0
  6
CONTINUOUS
 62
     7
 10
701.5
 20
52.00002288818359
 11
696.5
 21
52.00002288818359
  0
LINE
  8
0
  6
CONTINUOUS
 62
     7
 10
693.5
 20
72.50002288818359
 11
686.5
 21
72.50002288818359
  0
LINE
  8
0
  6
CONTINUOUS
 62
     7
 10
696.5
 20
-63.92557525634766
 11
693.5
 21
-63.92557525634766
  0
LINE
  8
0
  6
CONTINUOUS
 62
     7
 10
696.5
 20
63.92562103271484
 11
693.5
 21
63.92562103271484
  0
LINE
  8
0
  6
CONTINUOUS
 62
     7
 10
773.5000610351563
 20
-9.5
 11
773.5000610351563
 21
9.5
  0
LINE
  8
0
  6
CONTINUOUS
 62
     7
 10
773.5
 20
9.500021934509277
 11
743.5
 21
9.500021934509277
  0
LINE
  8
0
  6
CONTINUOUS
 62
     7
 10
773.5
 20
-9.499978065490723
 11
743.5
 21
-9.499978065490723
  0
LINE
  8
0
  6
CONTINUOUS
 62
     7
 10
743.5000610351562
 20
-12.5
 11
743.5000610351562
 21
12.5
  0
LINE
  8
0
  6
CONTINUOUS
 62
     7
 10
743.5
 20
12.50002193450928
 11
739.5
 21
12.50002193450928
  0
LINE
  8
0
  6
CONTINUOUS
 62
     7
 10
743.5
 20
-12.49997806549072
 11
739.5
 21
-12.49997806549072
  0
LINE
  8
0
  6
CONTINUOUS
 62
     7
 10
773.5
 20
-2.999978303909302
 11
748.5
 21
-2.999978303909302
  0
LINE
  8
0
  6
CONTINUOUS
 62
     7
 10
773.5
 20
3.000021696090698
 11
748.5
 21
3.000021696090698
  0
LINE
  8
0
  6
CONTINUOUS
 62
     7
 10
748.5000610351563
 20
-3
 11
748.5000610351563
 21
3
  0
LINE
  8
0
  6
CONTINUOUS
 62
     7
 10
721
 20
-5.91762638092041
 11
701.5000610351562
 21
-10.96874809265137
  0
LINE
  8
0
  6
CONTINUOUS
 62
     7
 10
720.9999389648438
 20
-19.0646858215332
 11
701.5
 21
-32.86465454101562
  0
LINE
  8
0
  6
CONTINUOUS
 62
     7
 10
701.5
 20
-46.73051452636719
 11
720.9999389648438
 21
-27.87943840026855
  0
LINE
  8
0
  6
CONTINUOUS
 62
     7
 10
721
 20
5.917567253112793
 11
701.5000610351562
 21
10.9687032699585
  0
LINE
  8
0
  6
CONTINUOUS
 62
     7
 10
721
 20
19.06471633911133
 11
701.5000610351562
 21
32.86469268798828
  0
LINE
  8
0
  6
CONTINUOUS
 62
     7
 10
701.5
 20
46.73052597045898
 11
720.9999389648438
 21
27.87944221496582
  0
LINE
  8
0
  6
CONTINUOUS
 62
     7
 10
693.5000610351562
 20
63.92559814453125
 11
693.5000610351562
 21
72.5
  0
LINE
  8
0
  6
CONTINUOUS
 62
     7
 10
589
 20
114.9999694824219
 11
589
 21
4
  0
LINE
  8
0
  6
CONTINUOUS
 62
     7
 10
589
 20
114.9999694824219
 11
607
 21
114.9999694824219
  0
LINE
  8
0
  6
CONTINUOUS
 62
     7
 10
589
 20
-115
 11
607
 21
-115
  0
LINE
  8
0
  6
CONTINUOUS
 62
     7
 10
607
 20
114.9999694824219
 11
607
 21
12.43438720703125
  0
LINE
  8
0
  6
CONTINUOUS
 62
     7
 10
664
 20
73.49996948242188
 11
664
 21
-73.5
  0
LINE
  8
0
  6
CONTINUOUS
 62
     7
 10
654
 20
72.49996948242187
 11
654
 21
-72.5
  0
LINE
  8
0
  6
CONTINUOUS
 62
     7
 10
654
 20
-72.5
 11
664
 21
-72.5
  0
LINE
  8
0
  6
CONTINUOUS
 62
     7
 10
654
 20
72.49996948242187
 11
664
 21
72.49996948242187
  0
LINE
  8
0
  6
CONTINUOUS
 62
     7
 10
622
 20
77.49996948242187
 11
622
 21
3.708099365234375
  0
LINE
  8
0
  6
CONTINUOUS
 62
     7
 10
612
 20
-82.5
 11
617
 21
-82.5
  0
LINE
  8
0
  6
CONTINUOUS
 62
     7
 10
612
 20
82.49996948242188
 11
617
 21
82.49996948242188
  0
LINE
  8
0
  6
CONTINUOUS
 62
     7
 10
616
 20
-48.60113525390625
 11
616
 21
-46.19300079345703
  0
LINE
  8
0
  6
CONTINUOUS
 62
     7
 10
607.0000610351563
 20
12.43439197540283
 11
616
 21
10.02285289764404
  0
LINE
  8
0
  6
CONTINUOUS
 62
     7
 10
607
 20
-51.01267242431641
 11
616
 21
-48.60112380981445
  0
LINE
  8
0
  6
CONTINUOUS
 62
     7
 10
607
 20
-51.01266479492187
 11
607
 21
-115
  0
LINE
  8
0
  6
CONTINUOUS
 62
     7
 10
622
 20
31.18218994140625
 11
654
 21
31.18218994140625
  0
LINE
  8
0
  6
CONTINUOUS
 62
     7
 10
622.0000610351563
 20
57.07563781738281
 11
654.0000610351562
 21
50.24575805664062
  0
LINE
  8
0
  6
CONTINUOUS
 62
     7
 10
642
 20
-31.18218994140625
 11
654
 21
-31.18218994140625
  0
LINE
  8
0
  6
CONTINUOUS
 62
     7
 10
622
 20
-57.07560729980469
 11
654.0000610351562
 21
-50.24572372436523
  0
LINE
  8
0
  6
CONTINUOUS
 62
     7
 10
587.5
 20
4
 11
620.5
 21
4
  0
LINE
  8
0
  6
CONTINUOUS
 62
     7
 10
587.5
 20
-4
 11
620.5
 21
-4
  0
LINE
  8
0
  6
CONTINUOUS
 62
     7
 10
616
 20
4
 11
616
 21
10.0228271484375
  0
LINE
  8
0
  6
CONTINUOUS
 62
     7
 10
622
 20
-3.708099365234375
 11
622
 21
-22.19300079345703
  0
LINE
  8
0
  6
CONTINUOUS
 62
     7
 10
589
 20
-4
 11
589
 21
-115
  0
LINE
  8
0
  6
CONTINUOUS
 62
     7
 10
664
 20
73.49996948242188
 11
686.5
 21
73.49996948242188
  0
LINE
  8
0
  6
CONTINUOUS
 62
     7
 10
664
 20
-73.5
 11
686.5
 21
-73.5
  0
LINE
  8
0
  6
CONTINUOUS
 62
     7
 10
686.5
 20
73.49996948242188
 11
686.5
 21
-73.5
  0
LINE
  8
0
  6
CONTINUOUS
 62
     7
 10
541
 20
117.4999694824219
 11
585
 21
117.4999694824219
  0
LINE
  8
0
  6
CONTINUOUS
 62
     7
 10
541
 20
-117.5
 11
585
 21
-117.5
  0
LINE
  8
0
  6
CONTINUOUS
 62
     7
 10
537
 20
115
 11
537
 21
-114.9999694824219
  0
LINE
  8
0
  6
CONTINUOUS
 62
     7
 10
541
 20
-111.4677429199219
 11
585
 21
-111.4677429199219
  0
LINE
  8
0
  6
CONTINUOUS
 62
     7
 10
537.0000610351562
 20
113.4999389648438
 11
541.0000610351563
 21
117.4999465942383
  0
LINE
  8
0
  6
CONTINUOUS
 62
     7
 10
584.9998168945312
 20
117.4999389648437
 11
588.9998168945313
 21
113.4999389648438
  0
LINE
  8
0
  6
CONTINUOUS
 62
     7
 10
589
 20
-113.5000457763672
 11
585
 21
-117.5000534057617
  0
LINE
  8
0
  6
CONTINUOUS
 62
     7
 10
541.0001220703125
 20
-117.4999008178711
 11
537.0001220703125
 21
-113.4998550415039
  0
LINE
  8
0
  6
CONTINUOUS
 62
     7
 10
541
 20
111.4676208496094
 11
585
 21
111.4676208496094
  0
LINE
  8
0
  6
CONTINUOUS
 62
     7
 10
541
 20
105.0982360839844
 11
585
 21
105.0982360839844
  0
LINE
  8
0
  6
CONTINUOUS
 62
     7
 10
541
 20
100.2502136230469
 11
585
 21
100.2502136230469
  0
LINE
  8
0
  6
CONTINUOUS
 62
     7
 10
541
 20
90.49581909179687
 11
585
 21
90.49581909179687
  0
LINE
  8
0
  6
CONTINUOUS
 62
     7
 10
541
 20
74.94113159179688
 11
585
 21
74.94113159179688
  0
LINE
  8
0
  6
CONTINUOUS
 62
     7
 10
541
 20
61.28469848632813
 11
585
 21
61.28469848632813
  0
LINE
  8
0
  6
CONTINUOUS
 62
     7
 10
541
 20
52.53948974609375
 11
585
 21
52.53948974609375
  0
LINE
  8
0
  6
CONTINUOUS
 62
     7
 10
541
 20
37.16400146484375
 11
585
 21
37.16400146484375
  0
LINE
  8
0
  6
CONTINUOUS
 62
     7
 10
541
 20
27.5504150390625
 11
585
 21
27.5504150390625
  0
LINE
  8
0
  6
CONTINUOUS
 62
     7
 10
541
 20
10.99948120117188
 11
585
 21
10.99948120117188
  0
LINE
  8
0
  6
CONTINUOUS
 62
     7
 10
541
 20
-90.49783325195313
 11
585
 21
-90.49783325195313
  0
LINE
  8
0
  6
CONTINUOUS
 62
     7
 10
541
 20
-100.2507019042969
 11
585
 21
-100.2507019042969
  0
LINE
  8
0
  6
CONTINUOUS
 62
     7
 10
541
 20
-105.0988464355469
 11
585
 21
-105.0988464355469
  0
LINE
  8
0
  6
CONTINUOUS
 62
     7
 10
445
 20
150
 11
467
 21
150
  0
LINE
  8
0
  6
CONTINUOUS
 62
     7
 10
445
 20
-149.9999694824219
 11
467
 21
-149.9999694824219
  0
LINE
  8
0
  6
CONTINUOUS
 62
     7
 10
445
 20
150
 11
445
 21
63.5789794921875
  0
LINE
  8
0
  6
CONTINUOUS
 62
     7
 10
467
 20
150
 11
467
 21
-149.9999694824219
  0
LINE
  8
0
  6
CONTINUOUS
 62
     7
 10
519
 20
115
 11
519
 21
17.5
  0
LINE
  8
0
  6
CONTINUOUS
 62
     7
 10
519
 20
-114.9999694824219
 11
537
 21
-114.9999694824219
  0
LINE
  8
0
  6
CONTINUOUS
 62
     7
 10
519
 20
115
 11
537
 21
115
  0
LINE
  8
0
  6
CONTINUOUS
 62
     7
 10
467
 20
17.5
 11
519
 21
17.5
  0
LINE
  8
0
  6
CONTINUOUS
 62
     7
 10
467
 20
-17.5
 11
519
 21
-17.5
  0
LINE
  8
0
  6
CONTINUOUS
 62
     7
 10
519
 20
-17.5
 11
519
 21
-114.9999694824219
  0
LINE
  8
0
  6
CONTINUOUS
 62
     7
 10
467.0000915527344
 20
106.8764953613281
 11
519.0000610351562
 21
85.59574890136719
  0
LINE
  8
0
  6
CONTINUOUS
 62
     7
 10
466.9999694824219
 20
92.73436737060547
 11
519
 21
71.45361328125
  0
LINE
  8
0
  6
CONTINUOUS
 62
     7
 10
504.6410217285156
 20
51.9927978515625
 11
514
 21
51.9927978515625
  0
LINE
  8
0
  6
CONTINUOUS
 62
     7
 10
504.6410217285156
 20
-51.9927978515625
 11
514
 21
-51.9927978515625
  0
LINE
  8
0
  6
CONTINUOUS
 62
     7
 10
467.0000305175781
 20
-92.73436737060547
 11
519
 21
-71.45360565185547
  0
LINE
  8
0
  6
CONTINUOUS
 62
     7
 10
467.0000305175781
 20
-106.8765335083008
 11
519
 21
-85.59577178955078
  0
LINE
  8
0
  6
CONTINUOUS
 62
     7
 10
470.095703125
 20
66.22222900390625
 11
504.6409912109375
 21
51.99277496337891
  0
LINE
  8
0
  6
CONTINUOUS
 62
     7
 10
470.0956726074219
 20
-66.22224426269531
 11
504.6410217285156
 21
-51.99278259277344
  0
LINE
  8
0
  6
CONTINUOUS
 62
     7
 10
440
 20
115
 11
440
 21
74.63330078125
  0
LINE
  8
0
  6
CONTINUOUS
 62
     7
 10
440
 20
115
 11
445
 21
115
  0
LINE
  8
0
  6
CONTINUOUS
 62
     7
 10
440
 20
-115
 11
445
 21
-115
  0
LINE
  8
0
  6
CONTINUOUS
 62
     7
 10
350
 20
32.5
 11
350
 21
-32.5
  0
LINE
  8
0
  6
CONTINUOUS
 62
     7
 10
350
 20
-32.5
 11
445
 21
-32.5
  0
LINE
  8
0
  6
CONTINUOUS
 62
     7
 10
350
 20
32.5
 11
445
 21
32.5
  0
LINE
  8
0
  6
CONTINUOUS
 62
     7
 10
350
 20
9
 11
431
 21
9
  0
LINE
  8
0
  6
CONTINUOUS
 62
     7
 10
350
 20
-9
 11
431
 21
-9
  0
LINE
  8
0
  6
CONTINUOUS
 62
     7
 10
445
 20
-37.5
 11
449.4187927246094
 21
-37.5
  0
LINE
  8
0
  6
CONTINUOUS
 62
     7
 10
445
 20
37.5
 11
450.41064453125
 21
37.5
  0
LINE
  8
0
  6
CONTINUOUS
 62
     7
 10
440
 20
-71.69732666015625
 11
440
 21
-115
  0
LINE
  8
0
  6
CONTINUOUS
 62
     7
 10
445
 20
-67.507568359375
 11
445
 21
-149.9999694824219
  0
LINE
  8
0
  6
CONTINUOUS
 62
     7
 10
445
 20
37.5
 11
445
 21
-37.5
  0
LINE
  8
0
  6
CONTINUOUS
 62
     7
 10
430
 20
9
 11
430
 21
-9
  0
LINE
  8
0
  6
CONTINUOUS
 62
     7
 10
501.4852600097656
 20
-9.79976357484702E-06
 11
493
 21
8.485271453857422
  0
LINE
  8
0
  6
CONTINUOUS
 62
     7
 10
493.0000305175781
 20
8.485263824462891
 11
484.5147705078125
 21
-5.94394987274427E-06
  0
LINE
  8
0
  6
CONTINUOUS
 62
     7
 10
492.9999694824219
 20
-8.485244750976563
 11
484.5147399902344
 21
-5.943947144260164E-06
  0
LINE
  8
0
  6
CONTINUOUS
 62
     7
 10
501.4852600097656
 20
1.22250694403192E-05
 11
493
 21
-8.485245704650879
  0
LINE
  8
0
  6
CONTINUOUS
 62
     3
 10
493
 20
15.72772216796875
 11
493
 21
-15.83087158203125
  0
LINE
  8
0
  6
CONTINUOUS
 62
     7
 10
569.0090942382812
 20
-121.5300064086914
 11
569.135009765625
 21
-117.5000076293945
  0
LINE
  8
0
  6
CONTINUOUS
 62
     7
 10
578.9910278320313
 20
-121.5300064086914
 11
578.8650512695313
 21
-117.5
  0
LINE
  8
0
  6
CONTINUOUS
 62
     3
 10
574
 20
-112.517951965332
 11
574
 21
-132.2556762695312
  0
LINE
  8
0
  6
CONTINUOUS
 62
     7
 10
569.009033203125
 20
-121.5299987792969
 11
578.990966796875
 21
-121.5299987792969
  0
LINE
  8
0
  6
CONTINUOUS
 62
     7
 10
578.5355224609375
 20
-128.5299987792969
 11
578.5355224609375
 21
-121.5299987792969
  0
LINE
  8
0
  6
CONTINUOUS
 62
     3
 10
574
 20
-121.5299911499023
 11
578.5355224609375
 21
-128.5299682617187
  0
LINE
  8
0
  6
CONTINUOUS
 62
     3
 10
574
 20
-128.5299987792969
 11
578.5355224609375
 21
-121.5299911499023
  0
LINE
  8
0
  6
CONTINUOUS
 62
     3
 10
569.4644775390625
 20
-121.5299682617188
 11
574
 21
-128.5299835205078
  0
LINE
  8
0
  6
CONTINUOUS
 62
     3
 10
569.4644775390625
 20
-128.5299987792969
 11
574
 21
-121.5299987792969
  0
LINE
  8
0
  6
CONTINUOUS
 62
     7
 10
569.4644775390625
 20
-128.5299987792969
 11
569.4644775390625
 21
-121.5299987792969
  0
LINE
  8
0
  6
CONTINUOUS
 62
     7
 10
569.4644775390625
 20
-128.5299987792969
 11
578.5355224609375
 21
-128.5299987792969
  0
LINE
  8
0
  6
CONTINUOUS
 62
     7
 10
616
 20
-22.19300079345703
 11
616
 21
-4
  0
LINE
  8
0
  6
CONTINUOUS
 62
     7
 10
622
 20
-46.19300079345703
 11
622
 21
-77.5
  0
LINE
  8
0
  6
CONTINUOUS
 62
     7
 10
642
 20
-42.46081161499023
 11
642
 21
-25.92519760131836
  0
LINE
  8
0
  6
CONTINUOUS
 62
     7
 10
633
 20
-42.70056533813477
 11
633
 21
-25.6854362487793
  0
LINE
  8
0
  6
CONTINUOUS
 62
     7
 10
633
 20
-42.7005615234375
 11
627
 21
-42.5130615234375
  0
LINE
  8
0
  6
CONTINUOUS
 62
     7
 10
633
 20
-25.68543815612793
 11
627
 21
-25.87293815612793
  0
LINE
  8
0
  6
CONTINUOUS
 62
     7
 10
633
 20
-25.92519760131836
 11
642
 21
-25.92519760131836
  0
LINE
  8
0
  6
CONTINUOUS
 62
     7
 10
633
 20
-42.46081161499023
 11
642
 21
-42.46081161499023
  0
LINE
  8
0
  6
CONTINUOUS
 62
     3
 10
584.9986572265625
 20
-34.19300079345703
 11
647.62939453125
 21
-34.19300079345703
  0
LINE
  8
0
  6
CONTINUOUS
 62
     7
 10
615
 20
-46.19300079345703
 11
627
 21
-46.19300079345703
  0
LINE
  8
0
  6
CONTINUOUS
 62
     7
 10
627
 20
-22.19300079345703
 11
627
 21
-46.19300079345703
  0
LINE
  8
0
  6
CONTINUOUS
 62
     7
 10
615.9979858398437
 20
-22.19300079345703
 11
627
 21
-22.19300079345703
  0
LINE
  8
0
  6
CONTINUOUS
 62
     3
 10
604
 20
-15.03795146942139
 11
604
 21
-48.40578460693359
  0
LINE
  8
0
  6
CONTINUOUS
 62
     7
 10
592
 20
-29.01912498474121
 11
592
 21
-31.71853828430176
  0
LINE
  8
0
  6
CONTINUOUS
 62
     7
 10
574
 20
-121.5299987792969
 11
574.0000610351563
 21
-128.5299987792969
  0
LINE
  8
0
  6
CONTINUOUS
 62
     3
 10
642
 20
-25.92520141601563
 11
633
 21
-34.19301223754883
  0
LINE
  8
0
  6
CONTINUOUS
 62
     3
 10
633
 20
-25.92519187927246
 11
642
 21
-34.19300079345703
  0
LINE
  8
0
  6
CONTINUOUS
 62
     7
 10
642
 20
-34.19300079345703
 11
633
 21
-34.19300079345703
  0
LINE
  8
0
  6
CONTINUOUS
 62
     3
 10
633
 20
-34.19300079345703
 11
642
 21
-42.46080017089844
  0
LINE
  8
0
  6
CONTINUOUS
 62
     3
 10
642
 20
-34.19300079345703
 11
633
 21
-42.4608154296875
  0
ARC
  8
0
  6
CONTINUOUS
 62
     7
 10
617
 20
-532.5
 40
5.000000000000019
 50
270.0000179860897
 51
0
  0
ARC
  8
0
  6
CONTINUOUS
 62
     7
 10
612
 20
-542.5
 40
5.000000000000019
 50
89.99998201391031
 51
179.9999640278219
  0
ARC
  8
0
  6
CONTINUOUS
 62
     7
 10
612
 20
-367.5
 40
5.000000000000038
 50
179.9999776881996
 51
269.9999733624889
  0
ARC
  8
0
  6
CONTINUOUS
 62
     7
 10
617
 20
-377.5
 40
5
 50
359.9999453584866
 51
89.99992737239695
  0
ARC
  8
0
  6
CONTINUOUS
 62
     7
 10
618
 20
-370.5
 40
2.000000000000038
 50
179.9999776882003
 51
270.0000280040029
  0
ARC
  8
0
  6
CONTINUOUS
 62
     7
 10
618
 20
-539.5
 40
1.999999999999985
 50
89.99998201391097
 51
179.9999640278219
  0
ARC
  8
0
  6
CONTINUOUS
 62
     7
 10
472
 20
-335
 40
4.999999999999981
 50
179.9999776881996
 51
270.0000280040023
  0
ARC
  8
0
  6
CONTINUOUS
 62
     7
 10
472
 20
-384.1546020507813
 40
5
 50
179.999991348578
 51
247.6128808859912
  0
ARC
  8
0
  6
CONTINUOUS
 62
     7
 10
514
 20
-511.9927978515625
 40
5
 50
0
 51
90.00000250447782
  0
ARC
  8
0
  6
CONTINUOUS
 62
     7
 10
514
 20
-398.0072326660156
 40
5.000000000000004
 50
269.9999974955222
 51
0
  0
ARC
  8
0
  6
CONTINUOUS
 62
     7
 10
472
 20
-525.8453979492187
 40
4.999999999999956
 50
112.3871086413541
 51
180.0000050089569
  0
CIRCLE
  8
0
  6
CONTINUOUS
 62
     3
 10
574
 20
-455
 40
4.990937232971191
  0
ARC
  8
0
  6
CONTINUOUS
 62
     7
 10
604
 20
-319
 40
20.50000000000002
 50
299.0160139577593
 51
3.019913073120957
  0
ARC
  8
0
  6
CONTINUOUS
 62
     7
 10
615
 20
-316.9199829101563
 40
23.00000000000002
 50
90.00000250447805
 51
180.0000050089564
  0
ARC
  8
0
  6
CONTINUOUS
 62
     7
 10
621
 20
-322.9199829101563
 40
5.000000000000004
 50
90.00000250447782
 51
180.0000050089563
  0
ARC
  8
0
  6
CONTINUOUS
 62
     7
 10
604
 20
-319
 40
20.49999999999999
 50
98.63801980438811
 51
239.9785872053713
  0
CIRCLE
  8
0
  6
CONTINUOUS
 62
     7
 10
0
 20
-455
 40
150
  0
ARC
  8
0
  6
CONTINUOUS
 62
     7
 10
0
 20
-455
 40
32.49999999999998
 50
106.0766695464224
 51
73.92333865025743
  0
ARC
  8
0
  6
CONTINUOUS
 62
     3
 10
0
 20
-455
 40
132.5
 50
333.1091217659313
 51
342.2186338544365
  0
CIRCLE
  8
0
  6
CONTINUOUS
 62
     7
 10
122.4140625
 20
-505.70556640625
 40
7.5
  0
CIRCLE
  8
0
  6
CONTINUOUS
 62
     7
 10
122.4140625
 20
-404.2944641113281
 40
7.5
  0
ARC
  8
0
  6
CONTINUOUS
 62
     3
 10
0
 20
-455
 40
132.5
 50
18.10912301817034
 51
27.21863510667556
  0
CIRCLE
  8
0
  6
CONTINUOUS
 62
     7
 10
50.70556640625
 20
-332.5859680175781
 40
7.5
  0
ARC
  8
0
  6
CONTINUOUS
 62
     3
 10
0
 20
-455
 40
132.5
 50
63.10911744022025
 51
72.21863635891464
  0
CIRCLE
  8
0
  6
CONTINUOUS
 62
     7
 10
-50.70556640625
 20
-332.5859680175781
 40
7.5
  0
ARC
  8
0
  6
CONTINUOUS
 62
     3
 10
0
 20
-455
 40
132.5
 50
108.1091152773648
 51
117.2186410262483
  0
CIRCLE
  8
0
  6
CONTINUOUS
 62
     7
 10
-122.4140625
 20
-404.2944641113281
 40
7.5
  0
ARC
  8
0
  6
CONTINUOUS
 62
     3
 10
0
 20
-455
 40
132.5
 50
153.1091131145093
 51
162.2186320332036
  0
CIRCLE
  8
0
  6
CONTINUOUS
 62
     7
 10
-122.4140625
 20
-505.70556640625
 40
7.5
  0
ARC
  8
0
  6
CONTINUOUS
 62
     3
 10
0
 20
-455
 40
132.5
 50
198.1091350846869
 51
207.218640343003
  0
CIRCLE
  8
0
  6
CONTINUOUS
 62
     7
 10
-50.70556640625
 20
-577.4140625
 40
7.5
  0
ARC
  8
0
  6
CONTINUOUS
 62
     3
 10
0
 20
-455
 40
132.5
 50
243.1091260916423
 51
252.2186381801475
  0
CIRCLE
  8
0
  6
CONTINUOUS
 62
     7
 10
50.70556640625
 20
-577.4140625
 40
7.5
  0
ARC
  8
0
  6
CONTINUOUS
 62
     3
 10
0
 20
-455
 40
132.5
 50
288.1091239287867
 51
297.218636017292
  0
CIRCLE
  8
0
  6
CONTINUOUS
 62
     7
 10
0
 20
-455
 40
55
  0
CIRCLE
  8
0
  6
CONTINUOUS
 62
     7
 10
0
 20
-455
 40
87.5
  0
ARC
  8
0
  6
CONTINUOUS
 62
     3
 10
0
 20
-455
 40
75
 50
323.8767994610546
 51
336.1231988692933
  0
ARC
  8
0
  6
CONTINUOUS
 62
     3
 10
0
 20
-455
 40
74.99999999999999
 50
23.87680113070673
 51
36.12320053894538
  0
ARC
  8
0
  6
CONTINUOUS
 62
     3
 10
0
 20
-455
 40
75
 50
83.87679938526426
 51
96.12319879350289
  0
ARC
  8
0
  6
CONTINUOUS
 62
     3
 10
0
 20
-455
 40
74.99999999999999
 50
143.8768010549164
 51
156.1231936329658
  0
ARC
  8
0
  6
CONTINUOUS
 62
     3
 10
0
 20
-455
 40
74.99999999999999
 50
203.8768063670341
 51
216.1231989450836
  0
ARC
  8
0
  6
CONTINUOUS
 62
     3
 10
0
 20
-455
 40
75.00000000000006
 50
263.8768012064971
 51
276.1232006147357
  0
ARC
  8
0
  6
CONTINUOUS
 62
     7
 10
0
 20
-455
 40
107.5
 50
19.35118096590611
 51
0.6488233475505203
  0
ARC
  8
0
  6
CONTINUOUS
 62
     7
 10
0
 20
-455
 40
115
 50
17.4935163607298
 51
2.506470877253908
  0
CIRCLE
  8
0
  6
CONTINUOUS
 62
     7
 10
103.40478515625
 20
-436.7669372558594
 40
17.5
  0
ARC
  8
0
  6
CONTINUOUS
 62
     7
 10
34.19256210327148
 20
-306.895751953125
 40
12
 50
347.0000002074245
 51
166.9999966786442
  0
ARC
  8
0
  6
CONTINUOUS
 62
     7
 10
748.5
 20
-9.361740012536757E-06
 40
3
 50
90.0000229950449
 51
270.0000006832452
  0
ARC
  8
0
  6
CONTINUOUS
 62
     7
 10
617
 20
77.49996948242187
 40
5
 50
0
 51
89.99998201391031
  0
ARC
  8
0
  6
CONTINUOUS
 62
     7
 10
617
 20
-77.5
 40
5.000000000000004
 50
270.0000179860897
 51
0
  0
ARC
  8
0
  6
CONTINUOUS
 62
     7
 10
612
 20
-87.5
 40
5.000000000000004
 50
89.99998201391031
 51
179.9999640278213
  0
ARC
  8
0
  6
CONTINUOUS
 62
     7
 10
612
 20
87.49996948242188
 40
5.000000000000038
 50
179.9999776881996
 51
270.0000280040023
  0
ARC
  8
0
  6
CONTINUOUS
 62
     7
 10
604
 20
0
 40
9.999999999999986
 50
23.57817672245736
 51
156.4218368242355
  0
ARC
  8
0
  6
CONTINUOUS
 62
     7
 10
587.5
 20
0
 40
4
 50
89.99998201391097
 51
270.0000006832446
  0
ARC
  8
0
  6
CONTINUOUS
 62
     7
 10
620.5
 20
0
 40
4
 50
270.0000179860891
 51
89.99998201391097
  0
ARC
  8
0
  6
CONTINUOUS
 62
     7
 10
604
 20
0
 40
10.00000000000001
 50
203.5781631757645
 51
336.4218232775426
  0
ARC
  8
0
  6
CONTINUOUS
 62
     7
 10
472
 20
70.84539794921875
 40
5
 50
179.999991348578
 51
247.6128808859913
  0
ARC
  8
0
  6
CONTINUOUS
 62
     7
 10
472
 20
-70.84539794921875
 40
4.999999999999996
 50
112.3871086413539
 51
180.0000050089563
  0
ARC
  8
0
  6
CONTINUOUS
 62
     7
 10
514
 20
56.9927978515625
 40
4.999999999999997
 50
269.9999974955222
 51
0
  0
ARC
  8
0
  6
CONTINUOUS
 62
     7
 10
514
 20
-56.9927978515625
 40
5
 50
0
 51
90.00000250447782
  0
ARC
  8
0
  6
CONTINUOUS
 62
     7
 10
431
 20
0
 40
9
 50
270.0000179860894
 51
89.99998201391061
  0
CIRCLE
  8
0
  6
CONTINUOUS
 62
     7
 10
493
 20
0
 40
13.5
  0
ARC
  8
0
  6
CONTINUOUS
 62
     7
 10
615.9979858398437
 20
-17.1929931640625
 40
4.999999999999965
 50
225.6327620434661
 51
269.9999974955222
  0
POLYLINE
  8
0
  6
CONTINUOUS
 62
     7
 66
     1
 10
0
 20
0
  0
VERTEX
  8
0
  6
CONTINUOUS
 62
     7
 10
440.0004540503202
 20
-357.4781153295513
 42
-0.1753072793236041
  0
VERTEX
  8
0
  6
CONTINUOUS
 62
     7
 10
449.3538550645815
 20
-370.9189629110976
 42
-0.0748718612777885
  0
VERTEX
  8
0
  6
CONTINUOUS
 62
     7
 10
450.7736177968472
 20
-387.4921809665126
 42
-0.009977953791338461
  0
VERTEX
  8
0
  6
CONTINUOUS
 62
     7
 10
449.7578025987676
 20
-404.1587913258053
 42
0.00632130194871385
  0
VERTEX
  8
0
  6
CONTINUOUS
 62
     7
 10
448.6107851957352
 20
-420.8186792952106
 42
0.0242826394203198
  0
VERTEX
  8
0
  6
CONTINUOUS
 62
     7
 10
448.4855568763517
 20
-437.5100230157608
 42
0.02735410039433656
  0
VERTEX
  8
0
  6
CONTINUOUS
 62
     7
 10
450.2937953957154
 20
-454.1019051783089
 42
-0.02458783902599163
  0
VERTEX
  8
0
  6
CONTINUOUS
 62
     7
 10
452.2208585195888
 20
-470.6824766313729
 42
-0.08166882041332604
  0
VERTEX
  8
0
  6
CONTINUOUS
 62
     7
 10
450.6054733032208
 20
-487.2299556575409
 42
0.06572794610590166
  0
VERTEX
  8
0
  6
CONTINUOUS
 62
     7
 10
447.3678425907351
 20
-503.5579440879225
 42
-0.03410794474086114
  0
VERTEX
  8
0
  6
CONTINUOUS
 62
     7
 10
446.9893793564025
 20
-520.2302382802545
 42
-0.1191276267384047
  0
VERTEX
  8
0
  6
CONTINUOUS
 62
     7
 10
439.999409425121
 20
-535.2209307315112
 42
0
  0
SEQEND
  8
0
  0
POLYLINE
  8
0
  6
CONTINUOUS
 62
     7
 66
     1
 10
0
 20
0
  0
VERTEX
  8
0
  6
CONTINUOUS
 62
     7
 10
592
 20
-328.3305130004883
 42
0.2480810014126912
  0
VERTEX
  8
0
  6
CONTINUOUS
 62
     7
 10
593.04477288084
 20
-329.4321539432505
 42
0.04461259064948381
  0
VERTEX
  8
0
  6
CONTINUOUS
 62
     7
 10
594.5322121757047
 20
-329.9890767212063
 42
0.02126257413976472
  0
VERTEX
  8
0
  6
CONTINUOUS
 62
     7
 10
596.0788176569829
 20
-330.3582576395223
 42
0.01385519661494619
  0
VERTEX
  8
0
  6
CONTINUOUS
 62
     7
 10
597.6478515879066
 20
-330.6207146537997
 42
0.01053218383443202
  0
VERTEX
  8
0
  6
CONTINUOUS
 62
     7
 10
599.2278908877701
 20
-330.8072980321334
 42
0.008816749579874715
  0
VERTEX
  8
0
  6
CONTINUOUS
 62
     7
 10
600.8143829133039
 20
-330.9330738793033
 42
0.00791241006301239
  0
VERTEX
  8
0
  6
CONTINUOUS
 62
     7
 10
602.4043499256233
 20
-331.0059591028261
 42
0.007515242933757306
  0
VERTEX
  8
0
  6
CONTINUOUS
 62
     7
 10
603.9958281720379
 20
-331.029929951617
 42
0.007513542296190782
  0
VERTEX
  8
0
  6
CONTINUOUS
 62
     7
 10
605.5871629041961
 20
-331.0062145525948
 42
0.00790694731849099
  0
VERTEX
  8
0
  6
CONTINUOUS
 62
     7
 10
607.1767232135752
 20
-330.9336239383211
 42
0.008810194488106264
  0
VERTEX
  8
0
  6
CONTINUOUS
 62
     7
 10
608.7633000532842
 20
-330.8081559651845
 42
0.01052397530634016
  0
VERTEX
  8
0
  6
CONTINUOUS
 62
     7
 10
610.3440258854823
 20
-330.6218536707507
 42
0.01384407635778303
  0
VERTEX
  8
0
  6
CONTINUOUS
 62
     7
 10
611.9144000311056
 20
-330.3595973246652
 42
0.02124645949803291
  0
VERTEX
  8
0
  6
CONTINUOUS
 62
     7
 10
613.4630236244653
 20
-329.9904520114864
 42
0.04455016669390687
  0
VERTEX
  8
0
  6
CONTINUOUS
 62
     7
 10
614.9523872245425
 20
-329.4335819254907
 42
0.2479903681182462
  0
VERTEX
  8
0
  6
CONTINUOUS
 62
     7
 10
616
 20
-328.3305130004883
 42
0
  0
SEQEND
  8
0
  0
POLYLINE
  8
0
  6
CONTINUOUS
 62
     7
 66
     1
 10
0
 20
0
  0
VERTEX
  8
0
  6
CONTINUOUS
 62
     7
 10
595.5
 20
-343.241340637207
 42
0.2478644677252268
  0
VERTEX
  8
0
  6
CONTINUOUS
 62
     7
 10
596.2480873694301
 20
-344.0092285495944
 42
0.04354526513369458
  0
VERTEX
  8
0
  6
CONTINUOUS
 62
     7
 10
597.3024657153311
 20
-344.3939696834722
 42
0.02075779906488489
  0
VERTEX
  8
0
  6
CONTINUOUS
 62
     7
 10
598.3972754596798
 20
-344.6490595004689
 42
0.01353032140017747
  0
VERTEX
  8
0
  6
CONTINUOUS
 62
     7
 10
599.5072300706101
 20
-344.8304089402438
 42
0.01028810063563736
  0
VERTEX
  8
0
  6
CONTINUOUS
 62
     7
 10
600.6246142174716
 20
-344.9593440596876
 42
0.008614041801776546
  0
VERTEX
  8
0
  6
CONTINUOUS
 62
     7
 10
601.7463669473132
 20
-345.046273037139
 42
0.007731261929458323
  0
VERTEX
  8
0
  6
CONTINUOUS
 62
     7
 10
602.8704709375584
 20
-345.0966645429173
 42
0.007343427992725542
  0
VERTEX
  8
0
  6
CONTINUOUS
 62
     7
 10
603.9956150097113
 20
-345.1132657421197
 42
0.007341175681637488
  0
VERTEX
  8
0
  6
CONTINUOUS
 62
     7
 10
605.1206407389009
 20
-345.0969259361809
 42
0.007724350581937827
  0
VERTEX
  8
0
  6
CONTINUOUS
 62
     7
 10
606.2444568756152
 20
-345.0468274991381
 42
0.00861216307450571
  0
VERTEX
  8
0
  6
CONTINUOUS
 62
     7
 10
607.3671795580464
 20
-344.9601248875217
 42
0.01027610846369988
  0
VERTEX
  8
0
  6
CONTINUOUS
 62
     7
 10
608.4850564058278
 20
-344.8314653841956
 42
0.01351145619503717
  0
VERTEX
  8
0
  6
CONTINUOUS
 62
     7
 10
609.595974496771
 20
-344.6503610681415
 42
0.02072228547918684
  0
VERTEX
  8
0
  6
CONTINUOUS
 62
     7
 10
610.6922472868703
 20
-344.3954580911244
 42
0.04343645848763103
  0
VERTEX
  8
0
  6
CONTINUOUS
 62
     7
 10
611.7486134439461
 20
-344.0108418249537
 42
0.2478621101723349
  0
VERTEX
  8
0
  6
CONTINUOUS
 62
     7
 10
612.5
 20
-343.241340637207
 42
0
  0
SEQEND
  8
0
  0
POLYLINE
  8
0
  6
CONTINUOUS
 62
     7
 66
     1
 10
0
 20
0
  0
VERTEX
  8
0
  6
CONTINUOUS
 62
     7
 10
440.000104794816
 20
74.63409754682024
 42
-0.04592299410830997
  0
VERTEX
  8
0
  6
CONTINUOUS
 62
     7
 10
446.5300618671724
 20
59.13235218086452
 42
-0.04744122615089172
  0
VERTEX
  8
0
  6
CONTINUOUS
 62
     7
 10
449.931953638551
 20
42.66128151384837
 42
-0.02920960640588358
  0
VERTEX
  8
0
  6
CONTINUOUS
 62
     7
 10
450.7813198232539
 20
25.84789205000698
 42
-0.01262769604238
  0
VERTEX
  8
0
  6
CONTINUOUS
 62
     7
 10
450.2338355003682
 20
9.01394995260444
 42
0.001318480003096598
  0
VERTEX
  8
0
  6
CONTINUOUS
 62
     7
 10
449.3069455064159
 20
-7.805312976159762
 42
0.01585887023864238
  0
VERTEX
  8
0
  6
CONTINUOUS
 62
     7
 10
448.9537152058117
 20
-24.6432378379936
 42
0.005745509047635718
  0
VERTEX
  8
0
  6
CONTINUOUS
 62
     7
 10
449.5866344633367
 20
-41.47531565138327
 42
-0.04443778082386027
  0
VERTEX
  8
0
  6
CONTINUOUS
 62
     7
 10
449.2611890960507
 20
-58.28861819833459
 42
-0.2293747543283158
  0
VERTEX
  8
0
  6
CONTINUOUS
 62
     7
 10
439.99859292398
 20
-71.69774480316303
 42
0
  0
SEQEND
  8
0
  0
POLYLINE
  8
0
  6
CONTINUOUS
 62
     7
 66
     1
 10
0
 20
0
  0
VERTEX
  8
0
  6
CONTINUOUS
 62
     7
 10
612.5019989453006
 20
-20.76764258091871
 42
0.03674702795451849
  0
VERTEX
  8
0
  6
CONTINUOUS
 62
     7
 10
611.1649333270993
 20
-19.63964425015092
 42
0.03635561614823001
  0
VERTEX
  8
0
  6
CONTINUOUS
 62
     7
 10
609.6776214385787
 20
-18.7182037072358
 42
0.03602153408045245
  0
VERTEX
  8
0
  6
CONTINUOUS
 62
     7
 10
608.072779330156
 20
-18.02071587591295
 42
0.03576746137080639
  0
VERTEX
  8
0
  6
CONTINUOUS
 62
     7
 10
606.3846184140033
 20
-17.55987114237666
 42
0.03560862896497337
  0
VERTEX
  8
0
  6
CONTINUOUS
 62
     7
 10
604.6483123564419
 20
-17.34376143832108
 42
0.03555213439227278
  0
VERTEX
  8
0
  6
CONTINUOUS
 62
     7
 10
602.8995938478058
 20
-17.37594950785639
 42
0.03561922393191932
  0
VERTEX
  8
0
  6
CONTINUOUS
 62
     7
 10
601.1733335211638
 20
-17.65569982062436
 42
0.03581097405834167
  0
VERTEX
  8
0
  6
CONTINUOUS
 62
     7
 10
599.5039631798609
 20
-18.17838167847321
 42
0.03608618917564263
  0
VERTEX
  8
0
  6
CONTINUOUS
 62
     7
 10
597.9268209295735
 20
-18.93467806934056
 42
0.03644317208884772
  0
VERTEX
  8
0
  6
CONTINUOUS
 62
     7
 10
596.4754749175041
 20
-19.91090085209937
 42
0.03685493945738864
  0
VERTEX
  8
0
  6
CONTINUOUS
 62
     7
 10
595.1820597856583
 20
-21.08869102982046
 42
0.03728605978607549
  0
VERTEX
  8
0
  6
CONTINUOUS
 62
     7
 10
594.0765837151671
 20
-22.44477613840527
 42
0.03769688599420863
  0
VERTEX
  8
0
  6
CONTINUOUS
 62
     7
 10
593.1859139161265
 20
-23.95094499824237
 42
0.03804676710956057
  0
VERTEX
  8
0
  6
CONTINUOUS
 62
     7
 10
592.5326187776599
 20
-25.57432142161662
 42
0.038298390088541
  0
VERTEX
  8
0
  6
CONTINUOUS
 62
     7
 10
592.1337891071573
 20
-27.27801571561323
 42
0.03841513735345704
  0
VERTEX
  8
0
  6
CONTINUOUS
 62
     7
 10
592.0000003223651
 20
-29.02183519809993
 42
0
  0
SEQEND
  8
0
  0
POLYLINE
  8
0
  6
CONTINUOUS
 62
     7
 66
     1
 10
0
 20
0
  0
VERTEX
  8
0
  6
CONTINUOUS
 62
     7
 10
592
 20
-31.71853828430176
 42
0.05059491804565653
  0
VERTEX
  8
0
  6
CONTINUOUS
 62
     7
 10
592.1884986650218
 20
-33.56787502799612
 42
0.04716348060100473
  0
VERTEX
  8
0
  6
CONTINUOUS
 62
     7
 10
592.7339920471408
 20
-35.34602953738992
 42
0.04170062768883802
  0
VERTEX
  8
0
  6
CONTINUOUS
 62
     7
 10
593.585551384153
 20
-36.99966877999796
 42
0.03588152117352139
  0
VERTEX
  8
0
  6
CONTINUOUS
 62
     7
 10
594.6825572159941
 20
-38.50245495429014
 42
0.03066398704874478
  0
VERTEX
  8
0
  6
CONTINUOUS
 62
     7
 10
595.9694646079987
 20
-39.84727452742634
 42
0.02635005710650333
  0
VERTEX
  8
0
  6
CONTINUOUS
 62
     7
 10
597.4008290281437
 20
-41.03741148341581
 42
0.02293336125982269
  0
VERTEX
  8
0
  6
CONTINUOUS
 62
     7
 10
598.9425717768778
 20
-42.0815649798125
 42
0.0202682188355918
  0
VERTEX
  8
0
  6
CONTINUOUS
 62
     7
 10
600.5691225385541
 20
-42.98941728767588
 42
0.01819160847443726
  0
VERTEX
  8
0
  6
CONTINUOUS
 62
     7
 10
602.260216887728
 20
-43.76969778534058
 42
0.0165947795422545
  0
VERTEX
  8
0
  6
CONTINUOUS
 62
     7
 10
604.0019691703764
 20
-44.43094395153871
 42
0.01536230671644127
  0
VERTEX
  8
0
  6
CONTINUOUS
 62
     7
 10
605.7823600005315
 20
-44.97975174075737
 42
0.01442614238287006
  0
VERTEX
  8
0
  6
CONTINUOUS
 62
     7
 10
607.5923226127653
 20
-45.42172702329901
 42
0.0137315782995182
  0
VERTEX
  8
0
  6
CONTINUOUS
 62
     7
 10
609.4243874284953
 20
-45.76125527333419
 42
0.01323990660456937
  0
VERTEX
  8
0
  6
CONTINUOUS
 62
     7
 10
611.2721711596353
 20
-46.00161511430872
 42
0.01292485919280855
  0
VERTEX
  8
0
  6
CONTINUOUS
 62
     7
 10
613.1300043523247
 20
-46.14508071948389
 42
0.0127704665830092
  0
VERTEX
  8
0
  6
CONTINUOUS
 62
     7
 10
614.9926973588367
 20
-46.19300006387064
 42
0
  0
SEQEND
  8
0
  0
TEXT
  8
0
  6
CONTINUOUS
 62
     7
 10
-96.42857551574707
 20
-12.5
 40
25
 41
0.8455556493890867
  1
ＥＲＶ－＿ＮＡＤ
  0
ENDSEC
  0
EOF
