  0
SECTION
  2
HEADER
  0
ENDSEC
  0
SECTION
  2
TABLES
  0
TABLE
  2
LTYPE
 70
    22
  0
LTYPE
  2
CONTINUOUS
 70
    64
  3
Solid line
 72
    65
 73
     0
 40
0.000000
  0
LTYPE
  2
DASHED
 70
    64
  3
__ __ __ __ __ __ __ __ __ __ __ __ __ __ __
 72
    65
 73
     2
 40
3.500000
 49
2.000000
 49
-1.500000
  0
LTYPE
  2
CENTER
 70
    64
  3
____ _ ____ _ ____ _ ____ _ ____ _ ____ _ ____
 72
    65
 73
     4
 40
17.500000
 49
13.000000
 49
-1.500000
 49
1.500000
 49
-1.500000
  0
LTYPE
  2
PHANTOM
 70
    64
  3
_____ _ _ _____ _ _ _____ _ _ _____ _ _ ____  
 72
    65
 73
     6
 40
15.500000
 49
8.000000
 49
-1.500000
 49
1.500000
 49
-1.500000
 49
1.500000
 49
-1.500000
  0
LTYPE
  2
DOT
 70
    64
  3
. . . . . . . . . . . . . . . . . . . . . . . .
 72
    65
 73
     2
 40
0.25
 49
0.0
 49
-0.25
  0
ENDTAB
  0
TABLE
  2
LAYER
 70
     1
  0
LAYER
  2
0
 70
     0
 62
     7
  6
CONTINUOUS
  0
ENDTAB
  0
TABLE
  2
STYLE
 70
     1
  0
STYLE
  2
STANDARD
 70
     0
 40
0.000000
 41
1.000000
 50
0.000000
 71
     0
 42
0.200000
  3
txt
  4
BIGFONT
  0
ENDTAB
  0
TABLE
  2
VIEW
 70
     0
  0
ENDTAB
  0
ENDSEC
  0
SECTION
  2
BLOCKS
  0
ENDSEC
  0
SECTION
  2
ENTITIES
  0
LINE
  8
0
  6
CONTINUOUS
 62
     7
 10
524
 20
-306.9144287109375
 11
524
 21
-492.5
  0
LINE
  8
0
  6
CONTINUOUS
 62
     7
 10
574
 20
-326.5
 11
574
 21
-473.5
  0
LINE
  8
0
  6
CONTINUOUS
 62
     7
 10
534
 20
-312.6873474121094
 11
534
 21
-347.8764038085938
  0
LINE
  8
0
  6
CONTINUOUS
 62
     7
 10
564
 20
-327.5
 11
564
 21
-472.5
  0
LINE
  8
0
  6
CONTINUOUS
 62
     7
 10
564
 20
-472.5
 11
574
 21
-472.5
  0
LINE
  8
0
  6
CONTINUOUS
 62
     7
 10
564
 20
-327.5
 11
574
 21
-327.5
  0
LINE
  8
0
  6
CONTINUOUS
 62
     7
 10
524
 20
-492.5
 11
542
 21
-492.5
  0
LINE
  8
0
  6
CONTINUOUS
 62
     7
 10
534
 20
-403
 11
564
 21
-403
  0
LINE
  8
0
  6
CONTINUOUS
 62
     7
 10
534
 20
-397
 11
564
 21
-397
  0
LINE
  8
0
  6
CONTINUOUS
 62
     7
 10
542
 20
-347.8764038085938
 11
542
 21
-377.0842895507812
  0
LINE
  8
0
  6
CONTINUOUS
 62
     7
 10
534.0000610351563
 20
-322.7673034667969
 11
564.0000610351562
 21
-340.1010131835937
  0
LINE
  8
0
  6
CONTINUOUS
 62
     7
 10
534
 20
-365.1968994140625
 11
534
 21
-434.8031005859375
  0
LINE
  8
0
  6
CONTINUOUS
 62
     7
 10
542
 20
-307.5
 11
542
 21
-327.3896179199219
  0
LINE
  8
0
  6
CONTINUOUS
 62
     7
 10
534
 20
-492.5
 11
534
 21
-452.1235961914062
  0
LINE
  8
0
  6
CONTINUOUS
 62
     7
 10
542
 20
-492.5
 11
542
 21
-472.6104125976563
  0
LINE
  8
0
  6
CONTINUOUS
 62
     7
 10
534
 20
-477.2327575683594
 11
563.9999389648438
 21
-459.8990478515625
  0
LINE
  8
0
  6
CONTINUOUS
 62
     7
 10
542
 20
-357.2402954101563
 11
564
 21
-357.2402954101563
  0
LINE
  8
0
  6
CONTINUOUS
 62
     7
 10
542
 20
-442.7596435546875
 11
564
 21
-442.7596435546875
  0
LINE
  8
0
  6
CONTINUOUS
 62
     7
 10
524.8668212890625
 20
-301.97412109375
 11
524
 21
-306.9144592285156
  0
LINE
  8
0
  6
CONTINUOUS
 62
     7
 10
532
 20
-300.0419921875
 11
537.5560302734375
 21
-301.23583984375
  0
LINE
  8
0
  6
CONTINUOUS
 62
     7
 10
531.9999389648437
 20
-300.0419921875
 11
526.44384765625
 21
-301.2358703613281
  0
LINE
  8
0
  6
CONTINUOUS
 62
     7
 10
539.13330078125
 20
-301.9740600585937
 11
539.9963989257813
 21
-306.8933715820313
  0
LINE
  8
0
  6
CONTINUOUS
 62
     7
 10
524
 20
-307.5
 11
542
 21
-307.5
  0
LINE
  8
0
  6
CONTINUOUS
 62
     7
 10
534
 20
-347.8764038085938
 11
542
 21
-347.8764038085938
  0
LINE
  8
0
  6
CONTINUOUS
 62
     7
 10
534
 20
-365.1968994140625
 11
542
 21
-365.1968994140625
  0
LINE
  8
0
  6
CONTINUOUS
 62
     7
 10
534
 20
-434.8031005859375
 11
542
 21
-434.8031005859375
  0
LINE
  8
0
  6
CONTINUOUS
 62
     7
 10
542
 20
-452.1235961914062
 11
542
 21
-422.9157104492187
  0
LINE
  8
0
  6
CONTINUOUS
 62
     7
 10
534
 20
-452.1235961914062
 11
542
 21
-452.1235961914062
  0
LINE
  8
0
  6
CONTINUOUS
 62
     7
 10
539.9962768554688
 20
-306.8933715820313
 11
539.9962768554688
 21
-307.5
  0
LINE
  8
0
  6
CONTINUOUS
 62
     7
 10
478
 20
-484.6587219238281
 11
520
 21
-484.6587219238281
  0
LINE
  8
0
  6
CONTINUOUS
 62
     7
 10
478
 20
-495
 11
520
 21
-495
  0
LINE
  8
0
  6
CONTINUOUS
 62
     7
 10
478
 20
-305
 11
520
 21
-305
  0
LINE
  8
0
  6
CONTINUOUS
 62
     7
 10
478.0000915527344
 20
-305.0001220703125
 11
474.0001220703125
 21
-309.0000915527344
  0
LINE
  8
0
  6
CONTINUOUS
 62
     7
 10
474.0000305175781
 20
-490.9999389648437
 11
478.0000305175781
 21
-494.9999389648437
  0
LINE
  8
0
  6
CONTINUOUS
 62
     7
 10
520
 20
-495
 11
524.0000610351562
 21
-491
  0
LINE
  8
0
  6
CONTINUOUS
 62
     7
 10
524
 20
-309
 11
520
 21
-304.9999694824219
  0
LINE
  8
0
  6
CONTINUOUS
 62
     7
 10
478
 20
-489.26123046875
 11
520
 21
-489.26123046875
  0
LINE
  8
0
  6
CONTINUOUS
 62
     7
 10
478
 20
-362.3461303710937
 11
520
 21
-362.3461303710937
  0
LINE
  8
0
  6
CONTINUOUS
 62
     7
 10
478
 20
-373.7876892089844
 11
520
 21
-373.7876892089844
  0
LINE
  8
0
  6
CONTINUOUS
 62
     7
 10
478
 20
-383.5312194824219
 11
520
 21
-383.5312194824219
  0
LINE
  8
0
  6
CONTINUOUS
 62
     7
 10
478
 20
-395.0005187988281
 11
520
 21
-395.0005187988281
  0
LINE
  8
0
  6
CONTINUOUS
 62
     7
 10
478
 20
-405.0001220703125
 11
520
 21
-405.0001220703125
  0
LINE
  8
0
  6
CONTINUOUS
 62
     7
 10
478
 20
-416.4694519042969
 11
520
 21
-416.4694519042969
  0
LINE
  8
0
  6
CONTINUOUS
 62
     7
 10
478
 20
-426.2124633789062
 11
520
 21
-426.2124633789062
  0
LINE
  8
0
  6
CONTINUOUS
 62
     7
 10
478
 20
-437.6537170410156
 11
520
 21
-437.6537170410156
  0
LINE
  8
0
  6
CONTINUOUS
 62
     7
 10
478
 20
-456.7067260742187
 11
520
 21
-456.7067260742187
  0
LINE
  8
0
  6
CONTINUOUS
 62
     7
 10
478
 20
-465.9718017578125
 11
520
 21
-465.9718017578125
  0
LINE
  8
0
  6
CONTINUOUS
 62
     7
 10
478
 20
-472.7931823730469
 11
520
 21
-472.7931823730469
  0
LINE
  8
0
  6
CONTINUOUS
 62
     7
 10
478
 20
-479.6584777832031
 11
520
 21
-479.6584777832031
  0
LINE
  8
0
  6
CONTINUOUS
 62
     7
 10
574
 20
-326.5
 11
596.5
 21
-326.5
  0
LINE
  8
0
  6
CONTINUOUS
 62
     7
 10
596.5
 20
-326.5
 11
596.5
 21
-473.5
  0
LINE
  8
0
  6
CONTINUOUS
 62
     7
 10
574
 20
-473.5
 11
596.5
 21
-473.5
  0
LINE
  8
0
  6
CONTINUOUS
 62
     7
 10
649.5
 20
-420
 11
649.5
 21
-380
  0
LINE
  8
0
  6
CONTINUOUS
 62
     7
 10
606.5
 20
-472.4999694824219
 11
596.5
 21
-472.4999694824219
  0
LINE
  8
0
  6
CONTINUOUS
 62
     7
 10
611.5
 20
-451.9999694824219
 11
606.5
 21
-451.9999694824219
  0
LINE
  8
0
  6
CONTINUOUS
 62
     7
 10
606.5
 20
-472.5
 11
606.5
 21
-327.5
  0
LINE
  8
0
  6
CONTINUOUS
 62
     7
 10
642.5
 20
-428.5
 11
642.5
 21
-371.5
  0
LINE
  8
0
  6
CONTINUOUS
 62
     7
 10
649.5
 20
-420.0000305175781
 11
642.5
 21
-424.0414733886719
  0
LINE
  8
0
  6
CONTINUOUS
 62
     7
 10
642.5
 20
-428.4999694824219
 11
630.3580322265625
 21
-428.4999694824219
  0
LINE
  8
0
  6
CONTINUOUS
 62
     7
 10
649.5
 20
-380
 11
642.5000610351563
 21
-375.9585571289063
  0
LINE
  8
0
  6
CONTINUOUS
 62
     7
 10
611.5
 20
-348
 11
611.5
 21
-452
  0
LINE
  8
0
  6
CONTINUOUS
 62
     7
 10
611.5
 20
-347.9999694824219
 11
606.5
 21
-347.9999694824219
  0
LINE
  8
0
  6
CONTINUOUS
 62
     7
 10
606.5
 20
-327.4999694824219
 11
596.5
 21
-327.4999694824219
  0
LINE
  8
0
  6
CONTINUOUS
 62
     7
 10
683.5
 20
-388.0000305175781
 11
658.5
 21
-388.0000305175781
  0
LINE
  8
0
  6
CONTINUOUS
 62
     7
 10
683.5
 20
-388
 11
683.5
 21
-409.5
  0
LINE
  8
0
  6
CONTINUOUS
 62
     7
 10
683.5
 20
-409.5000305175781
 11
653.5
 21
-409.5000305175781
  0
LINE
  8
0
  6
CONTINUOUS
 62
     7
 10
683.5
 20
-390.5000305175781
 11
653.5
 21
-390.5000305175781
  0
LINE
  8
0
  6
CONTINUOUS
 62
     7
 10
653.5
 20
-412.5
 11
653.5
 21
-387.5
  0
LINE
  8
0
  6
CONTINUOUS
 62
     7
 10
653.5
 20
-387.4999694824219
 11
649.5
 21
-387.4999694824219
  0
LINE
  8
0
  6
CONTINUOUS
 62
     7
 10
653.5
 20
-412.4999694824219
 11
649.5
 21
-412.4999694824219
  0
LINE
  8
0
  6
CONTINUOUS
 62
     7
 10
658.5
 20
-388
 11
658.5
 21
-390.5
  0
LINE
  8
0
  6
CONTINUOUS
 62
     7
 10
642.5
 20
-371.4999694824219
 11
630.3580322265625
 21
-371.4999694824219
  0
LINE
  8
0
  6
CONTINUOUS
 62
     7
 10
631
 20
-405.9176025390625
 11
611.5000610351563
 21
-410.9687194824219
  0
LINE
  8
0
  6
CONTINUOUS
 62
     7
 10
630.9999389648438
 20
-419.064697265625
 11
611.5
 21
-432.8646850585937
  0
LINE
  8
0
  6
CONTINUOUS
 62
     7
 10
611.5
 20
-446.7305297851562
 11
631
 21
-427.8794555664063
  0
LINE
  8
0
  6
CONTINUOUS
 62
     7
 10
631
 20
-391.1845397949219
 11
611.5
 21
-386.1334228515625
  0
LINE
  8
0
  6
CONTINUOUS
 62
     7
 10
611.5000610351563
 20
-365.0138549804688
 11
631
 21
-378.8138122558594
  0
LINE
  8
0
  6
CONTINUOUS
 62
     7
 10
611.5
 20
-353.2694702148438
 11
631
 21
-372.1205749511719
  0
LINE
  8
0
  6
CONTINUOUS
 62
     7
 10
365
 20
-275
 11
365
 21
-338.0472106933594
  0
LINE
  8
0
  6
CONTINUOUS
 62
     7
 10
365
 20
-275
 11
383
 21
-275
  0
LINE
  8
0
  6
CONTINUOUS
 62
     7
 10
383
 20
-275
 11
383
 21
-525
  0
LINE
  8
0
  6
CONTINUOUS
 62
     7
 10
474
 20
-307.5
 11
474
 21
-492.5
  0
LINE
  8
0
  6
CONTINUOUS
 62
     7
 10
459
 20
-307.5
 11
459
 21
-315.6248168945312
  0
LINE
  8
0
  6
CONTINUOUS
 62
     7
 10
459
 20
-307.5
 11
474
 21
-307.5
  0
LINE
  8
0
  6
CONTINUOUS
 62
     7
 10
365
 20
-525
 11
383
 21
-525
  0
LINE
  8
0
  6
CONTINUOUS
 62
     7
 10
459
 20
-492.5
 11
474
 21
-492.5
  0
LINE
  8
0
  6
CONTINUOUS
 62
     3
 10
270.7713623046875
 20
-400
 11
694.5325927734375
 21
-400
  0
LINE
  8
0
  6
CONTINUOUS
 62
     7
 10
383
 20
-477.3218078613281
 11
459
 21
-461.9439392089844
  0
LINE
  8
0
  6
CONTINUOUS
 62
     7
 10
383
 20
-484.1418151855469
 11
459
 21
-468.763916015625
  0
LINE
  8
0
  6
CONTINUOUS
 62
     7
 10
383
 20
-360.1224365234375
 11
449.4738159179687
 21
-360.1224365234375
  0
LINE
  8
0
  6
CONTINUOUS
 62
     7
 10
383
 20
-439.8775634765625
 11
449.4737854003906
 21
-439.8775634765625
  0
LINE
  8
0
  6
CONTINUOUS
 62
     7
 10
449.4738159179687
 20
-360.1224060058594
 11
459
 21
-354.6224670410156
  0
LINE
  8
0
  6
CONTINUOUS
 62
     7
 10
449.4737854003906
 20
-439.8775939941406
 11
459
 21
-445.3775329589844
  0
LINE
  8
0
  6
CONTINUOUS
 62
     7
 10
300
 20
-374
 11
300
 21
-422.5
  0
LINE
  8
0
  6
CONTINUOUS
 62
     7
 10
361
 20
-310
 11
361
 21
-333.905029296875
  0
LINE
  8
0
  6
CONTINUOUS
 62
     7
 10
361
 20
-310
 11
365
 21
-310
  0
LINE
  8
0
  6
CONTINUOUS
 62
     7
 10
361
 20
-490
 11
365
 21
-490
  0
LINE
  8
0
  6
CONTINUOUS
 62
     7
 10
300
 20
-422.5
 11
365
 21
-422.5
  0
LINE
  8
0
  6
CONTINUOUS
 62
     7
 10
300
 20
-377.5
 11
365
 21
-377.5
  0
LINE
  8
0
  6
CONTINUOUS
 62
     7
 10
365
 20
-442.3465270996094
 11
365
 21
-525
  0
LINE
  8
0
  6
CONTINUOUS
 62
     7
 10
361
 20
-445.3009643554687
 11
361
 21
-490
  0
LINE
  8
0
  6
CONTINUOUS
 62
     7
 10
365
 20
-372.5
 11
365
 21
-427.5
  0
LINE
  8
0
  6
CONTINUOUS
 62
     7
 10
365
 20
-427.5
 11
371.5388793945312
 21
-427.5
  0
LINE
  8
0
  6
CONTINUOUS
 62
     7
 10
365
 20
-372.5
 11
369.3119506835938
 21
-372.5
  0
LINE
  8
0
  6
CONTINUOUS
 62
     7
 10
300
 20
-374
 11
350
 21
-374
  0
LINE
  8
0
  6
CONTINUOUS
 62
     7
 10
350
 20
-374
 11
350
 21
-377.5
  0
LINE
  8
0
  6
CONTINUOUS
 62
     7
 10
383
 20
-323.1717834472656
 11
443.9999694824219
 21
-337.5118713378906
  0
LINE
  8
0
  6
CONTINUOUS
 62
     7
 10
383
 20
-315.8582153320313
 11
440.4972839355469
 21
-329.3748779296875
  0
LINE
  8
0
  6
CONTINUOUS
 62
     7
 10
459
 20
-337.5118408203125
 11
444
 21
-337.5118408203125
  0
LINE
  8
0
  6
CONTINUOUS
 62
     7
 10
459
 20
-337.5118408203125
 11
459
 21
-492.5
  0
LINE
  8
0
  6
CONTINUOUS
 62
     7
 10
442.8227233886719
 20
-328.1431274414062
 11
444.5532531738281
 21
-323.6235961914062
  0
LINE
  8
0
  6
CONTINUOUS
 62
     3
 10
-136.5771942138672
 20
-400
 11
138.6436462402344
 21
-400
  0
LINE
  8
0
  6
CONTINUOUS
 62
     3
 10
0
 20
-259.0888977050781
 11
0
 21
-544.9201049804688
  0
LINE
  8
0
  6
CONTINUOUS
 62
     7
 10
-7
 20
-383
 11
-7
 21
-374
  0
LINE
  8
0
  6
CONTINUOUS
 62
     7
 10
7
 20
-383
 11
7
 21
-374
  0
LINE
  8
0
  6
CONTINUOUS
 62
     7
 10
-7
 20
-374
 11
7
 21
-374
  0
LINE
  8
0
  6
CONTINUOUS
 62
     7
 10
-7
 20
-383
 11
7
 21
-383
  0
LINE
  8
0
  6
CONTINUOUS
 62
     7
 10
524
 20
92.49996948242188
 11
524
 21
24.276123046875
  0
LINE
  8
0
  6
CONTINUOUS
 62
     7
 10
574
 20
73.49996948242188
 11
574
 21
-73.5
  0
LINE
  8
0
  6
CONTINUOUS
 62
     7
 10
534
 20
92.49996948242188
 11
534
 21
84.63784790039063
  0
LINE
  8
0
  6
CONTINUOUS
 62
     7
 10
564
 20
72.49996948242187
 11
564
 21
-72.5
  0
LINE
  8
0
  6
CONTINUOUS
 62
     7
 10
564
 20
-72.5
 11
574
 21
-72.5
  0
LINE
  8
0
  6
CONTINUOUS
 62
     7
 10
564
 20
72.49996948242187
 11
574
 21
72.49996948242187
  0
LINE
  8
0
  6
CONTINUOUS
 62
     7
 10
524
 20
-92.5
 11
534
 21
-92.5
  0
LINE
  8
0
  6
CONTINUOUS
 62
     7
 10
524
 20
92.49996948242188
 11
534
 21
92.49996948242188
  0
LINE
  8
0
  6
CONTINUOUS
 62
     7
 10
542
 20
14.7767333984375
 11
542
 21
-16.06246948242188
  0
LINE
  8
0
  6
CONTINUOUS
 62
     7
 10
542
 20
84.63784790039063
 11
542
 21
43.65377807617188
  0
LINE
  8
0
  6
CONTINUOUS
 62
     7
 10
534
 20
84.63784790039063
 11
542
 21
84.63784790039063
  0
LINE
  8
0
  6
CONTINUOUS
 62
     7
 10
534
 20
74.63790893554688
 11
542
 21
74.63790893554688
  0
LINE
  8
0
  6
CONTINUOUS
 62
     7
 10
534
 20
74.63790893554688
 11
534
 21
24.72079467773438
  0
LINE
  8
0
  6
CONTINUOUS
 62
     7
 10
534
 20
46.32245254516602
 11
564
 21
36.31482696533203
  0
LINE
  8
0
  6
CONTINUOUS
 62
     7
 10
534
 20
-46.32245254516602
 11
564
 21
-36.31482696533203
  0
LINE
  8
0
  6
CONTINUOUS
 62
     7
 10
534
 20
-74.63787841796875
 11
534
 21
-24.68450927734375
  0
LINE
  8
0
  6
CONTINUOUS
 62
     7
 10
542
 20
-84.63784790039063
 11
542
 21
-43.65377807617188
  0
LINE
  8
0
  6
CONTINUOUS
 62
     7
 10
534
 20
-74.63787841796875
 11
542
 21
-74.63787841796875
  0
LINE
  8
0
  6
CONTINUOUS
 62
     7
 10
534
 20
-84.63784790039063
 11
542
 21
-84.63784790039063
  0
LINE
  8
0
  6
CONTINUOUS
 62
     7
 10
534
 20
-92.5
 11
534
 21
-84.63784790039063
  0
LINE
  8
0
  6
CONTINUOUS
 62
     7
 10
542
 20
-52.5
 11
564
 21
-52.5
  0
LINE
  8
0
  6
CONTINUOUS
 62
     7
 10
542
 20
52.5
 11
564
 21
52.5
  0
LINE
  8
0
  6
CONTINUOUS
 62
     7
 10
547.3359375
 20
21.80056762695313
 11
564
 21
21.80056762695313
  0
LINE
  8
0
  6
CONTINUOUS
 62
     7
 10
539.582275390625
 20
-21.800537109375
 11
564
 21
-21.800537109375
  0
LINE
  8
0
  6
CONTINUOUS
 62
     7
 10
524
 20
14.44729614257812
 11
524
 21
-92.5
  0
LINE
  8
0
  6
CONTINUOUS
 62
     7
 10
542
 20
-82.07960510253906
 11
564
 21
-67.31462860107422
  0
LINE
  8
0
  6
CONTINUOUS
 62
     7
 10
542.0000610351562
 20
82.07957458496094
 11
564.0000610351562
 21
67.31461334228516
  0
LINE
  8
0
  6
CONTINUOUS
 62
     7
 10
477.9999694824219
 20
11.00006103515625
 11
520.0001220703125
 21
11.00006103515625
  0
LINE
  8
0
  6
CONTINUOUS
 62
     7
 10
478
 20
-95
 11
520
 21
-95
  0
LINE
  8
0
  6
CONTINUOUS
 62
     7
 10
478
 20
94.99996948242188
 11
520
 21
94.99996948242188
  0
LINE
  8
0
  6
CONTINUOUS
 62
     7
 10
478.0001220703125
 20
94.99988555908203
 11
474.0001220703125
 21
90.9998779296875
  0
LINE
  8
0
  6
CONTINUOUS
 62
     7
 10
473.9999694824219
 20
-90.99990844726563
 11
477.9999694824219
 21
-94.99991607666016
  0
LINE
  8
0
  6
CONTINUOUS
 62
     7
 10
520.0000610351563
 20
-95.00008392333984
 11
524.0000610351562
 21
-91.00007629394531
  0
LINE
  8
0
  6
CONTINUOUS
 62
     7
 10
523.9999389648437
 20
91.00001525878906
 11
519.9999389648438
 21
95.00001525878906
  0
LINE
  8
0
  6
CONTINUOUS
 62
     7
 10
477.9999694824219
 20
-87.21929931640625
 11
520.0001220703125
 21
-87.21929931640625
  0
LINE
  8
0
  6
CONTINUOUS
 62
     7
 10
477.9999694824219
 20
87.21896362304687
 11
520.0001220703125
 21
87.21896362304687
  0
LINE
  8
0
  6
CONTINUOUS
 62
     7
 10
477.9999694824219
 20
76.21878051757812
 11
520.0001220703125
 21
76.21878051757812
  0
LINE
  8
0
  6
CONTINUOUS
 62
     7
 10
477.9999694824219
 20
68.35665893554687
 11
520.0001220703125
 21
68.35665893554687
  0
LINE
  8
0
  6
CONTINUOUS
 62
     7
 10
477.9999694824219
 20
61.04364013671875
 11
520.0001220703125
 21
61.04364013671875
  0
LINE
  8
0
  6
CONTINUOUS
 62
     7
 10
477.9999694824219
 20
51.76449584960938
 11
520.0001220703125
 21
51.76449584960938
  0
LINE
  8
0
  6
CONTINUOUS
 62
     7
 10
477.9999694824219
 20
43.10443115234375
 11
520.0001220703125
 21
43.10443115234375
  0
LINE
  8
0
  6
CONTINUOUS
 62
     7
 10
477.9999694824219
 20
32.51864624023438
 11
520.0001220703125
 21
32.51864624023438
  0
LINE
  8
0
  6
CONTINUOUS
 62
     7
 10
477.9999694824219
 20
22.95574951171875
 11
519.1585693359375
 21
22.95574951171875
  0
LINE
  8
0
  6
CONTINUOUS
 62
     7
 10
574
 20
73.49996948242188
 11
596.5
 21
73.49996948242188
  0
LINE
  8
0
  6
CONTINUOUS
 62
     7
 10
596.5
 20
73.49996948242188
 11
596.5
 21
-73.5
  0
LINE
  8
0
  6
CONTINUOUS
 62
     7
 10
574
 20
-73.5
 11
596.5
 21
-73.5
  0
LINE
  8
0
  6
CONTINUOUS
 62
     7
 10
649.5000610351562
 20
-20
 11
649.5000610351562
 21
20
  0
LINE
  8
0
  6
CONTINUOUS
 62
     7
 10
603.5
 20
-72.49997711181641
 11
596.5
 21
-72.49997711181641
  0
LINE
  8
0
  6
CONTINUOUS
 62
     7
 10
611.5
 20
-51.99997711181641
 11
606.5
 21
-51.99997711181641
  0
LINE
  8
0
  6
CONTINUOUS
 62
     7
 10
603.5000610351563
 20
-72.5
 11
603.5000610351563
 21
-63.92559814453125
  0
LINE
  8
0
  6
CONTINUOUS
 62
     7
 10
606.5000610351562
 20
-63.92559814453125
 11
606.5000610351562
 21
63.92559814453125
  0
LINE
  8
0
  6
CONTINUOUS
 62
     7
 10
642.5000610351563
 20
-28.5
 11
642.5000610351563
 21
28.5
  0
LINE
  8
0
  6
CONTINUOUS
 62
     7
 10
649.5
 20
-20.00006866455078
 11
642.5
 21
-24.0415096282959
  0
LINE
  8
0
  6
CONTINUOUS
 62
     7
 10
642.5
 20
-28.49997901916504
 11
630.3580322265625
 21
-28.49997901916504
  0
LINE
  8
0
  6
CONTINUOUS
 62
     7
 10
649.5
 20
19.99992752075195
 11
642.5000610351563
 21
24.04137229919434
  0
LINE
  8
0
  6
CONTINUOUS
 62
     7
 10
642.5
 20
28.50002098083496
 11
630.3580322265625
 21
28.50002098083496
  0
LINE
  8
0
  6
CONTINUOUS
 62
     7
 10
611.5000610351563
 20
52
 11
611.5000610351563
 21
-52
  0
LINE
  8
0
  6
CONTINUOUS
 62
     7
 10
611.5
 20
52.00002288818359
 11
606.5
 21
52.00002288818359
  0
LINE
  8
0
  6
CONTINUOUS
 62
     7
 10
603.5
 20
72.50002288818359
 11
596.5
 21
72.50002288818359
  0
LINE
  8
0
  6
CONTINUOUS
 62
     7
 10
606.5
 20
-63.92557525634766
 11
603.5
 21
-63.92557525634766
  0
LINE
  8
0
  6
CONTINUOUS
 62
     7
 10
606.5
 20
63.92562103271484
 11
603.5
 21
63.92562103271484
  0
LINE
  8
0
  6
CONTINUOUS
 62
     7
 10
683.5000610351562
 20
-9.5
 11
683.5000610351562
 21
9.5
  0
LINE
  8
0
  6
CONTINUOUS
 62
     7
 10
683.5
 20
9.500021934509277
 11
653.5
 21
9.500021934509277
  0
LINE
  8
0
  6
CONTINUOUS
 62
     7
 10
683.5
 20
-9.499978065490723
 11
653.5
 21
-9.499978065490723
  0
LINE
  8
0
  6
CONTINUOUS
 62
     7
 10
653.5000610351563
 20
-12.5
 11
653.5000610351563
 21
12.5
  0
LINE
  8
0
  6
CONTINUOUS
 62
     7
 10
653.5
 20
12.50002193450928
 11
649.5
 21
12.50002193450928
  0
LINE
  8
0
  6
CONTINUOUS
 62
     7
 10
653.5
 20
-12.49997806549072
 11
649.5
 21
-12.49997806549072
  0
LINE
  8
0
  6
CONTINUOUS
 62
     7
 10
683.5
 20
-2.999978303909302
 11
658.5
 21
-2.999978303909302
  0
LINE
  8
0
  6
CONTINUOUS
 62
     7
 10
683.5
 20
3.000021696090698
 11
658.5
 21
3.000021696090698
  0
LINE
  8
0
  6
CONTINUOUS
 62
     7
 10
658.5000610351563
 20
-3
 11
658.5000610351563
 21
3
  0
LINE
  8
0
  6
CONTINUOUS
 62
     7
 10
631
 20
-5.917627334594727
 11
611.5000610351563
 21
-10.96874904632568
  0
LINE
  8
0
  6
CONTINUOUS
 62
     7
 10
630.9999389648438
 20
-19.064697265625
 11
611.5
 21
-32.86467742919922
  0
LINE
  8
0
  6
CONTINUOUS
 62
     7
 10
611.5000610351563
 20
-46.73051834106445
 11
631
 21
-27.87943077087402
  0
LINE
  8
0
  6
CONTINUOUS
 62
     7
 10
631
 20
5.917573928833008
 11
611.5
 21
10.96870994567871
  0
LINE
  8
0
  6
CONTINUOUS
 62
     7
 10
630.9999389648438
 20
19.06472015380859
 11
611.5
 21
32.86468505859375
  0
LINE
  8
0
  6
CONTINUOUS
 62
     7
 10
611.5
 20
46.73052215576172
 11
630.9999389648438
 21
27.87943649291992
  0
LINE
  8
0
  6
CONTINUOUS
 62
     7
 10
603.5000610351563
 20
63.92559814453125
 11
603.5000610351563
 21
72.5
  0
LINE
  8
0
  6
CONTINUOUS
 62
     7
 10
365
 20
-125
 11
365
 21
-34.81515502929687
  0
LINE
  8
0
  6
CONTINUOUS
 62
     7
 10
365
 20
-125
 11
383
 21
-125
  0
LINE
  8
0
  6
CONTINUOUS
 62
     7
 10
383
 20
-125
 11
383
 21
125.0000305175781
  0
LINE
  8
0
  6
CONTINUOUS
 62
     7
 10
474
 20
-92.5
 11
474
 21
92.50003051757812
  0
LINE
  8
0
  6
CONTINUOUS
 62
     7
 10
459
 20
-92.5
 11
459
 21
-65.34310913085938
  0
LINE
  8
0
  6
CONTINUOUS
 62
     7
 10
459
 20
-92.5
 11
474
 21
-92.5
  0
LINE
  8
0
  6
CONTINUOUS
 62
     7
 10
365
 20
125.0000305175781
 11
383
 21
125.0000305175781
  0
LINE
  8
0
  6
CONTINUOUS
 62
     7
 10
459
 20
92.50003051757812
 11
474
 21
92.50003051757812
  0
LINE
  8
0
  6
CONTINUOUS
 62
     3
 10
274.2965698242188
 20
0
 11
693.565185546875
 21
0
  0
LINE
  8
0
  6
CONTINUOUS
 62
     7
 10
459
 20
-40.7685546875
 11
459
 21
92.50003051757812
  0
LINE
  8
0
  6
CONTINUOUS
 62
     7
 10
439.6108703613281
 20
-38.56398391723633
 11
444.3708801269531
 21
-55.77129364013672
  0
LINE
  8
0
  6
CONTINUOUS
 62
     7
 10
388
 20
40.11474609375
 11
454
 21
40.11474609375
  0
LINE
  8
0
  6
CONTINUOUS
 62
     7
 10
388
 20
13.4346923828125
 11
454
 21
13.4346923828125
  0
LINE
  8
0
  6
CONTINUOUS
 62
     7
 10
383
 20
78.94040679931641
 11
458.9999694824219
 21
64.60030364990234
  0
LINE
  8
0
  6
CONTINUOUS
 62
     7
 10
383
 20
71.62687683105469
 11
459
 21
57.28676986694336
  0
LINE
  8
0
  6
CONTINUOUS
 62
     7
 10
444.9172973632813
 20
-57.28677368164062
 11
444
 21
-57.28677368164062
  0
LINE
  8
0
  6
CONTINUOUS
 62
     7
 10
453.862060546875
 20
-64.60031127929688
 11
444
 21
-64.60031127929688
  0
LINE
  8
0
  6
CONTINUOUS
 62
     7
 10
383
 20
-71.62686157226562
 11
444
 21
-57.28675842285156
  0
LINE
  8
0
  6
CONTINUOUS
 62
     7
 10
383
 20
-78.94042205810547
 11
444
 21
-64.60031890869141
  0
LINE
  8
0
  6
CONTINUOUS
 62
     7
 10
383
 20
-36.42343139648437
 11
439.2564697265625
 21
-36.42343139648437
  0
LINE
  8
0
  6
CONTINUOUS
 62
     7
 10
300
 20
-22.5
 11
300
 21
22.5
  0
LINE
  8
0
  6
CONTINUOUS
 62
     7
 10
361
 20
-90
 11
361
 21
-37.5
  0
LINE
  8
0
  6
CONTINUOUS
 62
     7
 10
361
 20
-90
 11
365
 21
-90
  0
LINE
  8
0
  6
CONTINUOUS
 62
     7
 10
361
 20
90.00003051757813
 11
365
 21
90.00003051757813
  0
LINE
  8
0
  6
CONTINUOUS
 62
     7
 10
300
 20
22.5
 11
365
 21
22.5
  0
LINE
  8
0
  6
CONTINUOUS
 62
     7
 10
300
 20
-22.5
 11
365
 21
-22.5
  0
LINE
  8
0
  6
CONTINUOUS
 62
     7
 10
361
 20
37.5
 11
361
 21
90.00003051757813
  0
LINE
  8
0
  6
CONTINUOUS
 62
     7
 10
365
 20
33.75238037109375
 11
365
 21
125.0000305175781
  0
LINE
  8
0
  6
CONTINUOUS
 62
     7
 10
300
 20
7
 11
353
 21
7
  0
LINE
  8
0
  6
CONTINUOUS
 62
     7
 10
300
 20
-7
 11
353
 21
-7
  0
LINE
  8
0
  6
CONTINUOUS
 62
     7
 10
365
 20
-27.5
 11
365
 21
27.5
  0
LINE
  8
0
  6
CONTINUOUS
 62
     7
 10
365
 20
27.5
 11
369.4265747070313
 21
27.5
  0
LINE
  8
0
  6
CONTINUOUS
 62
     7
 10
365
 20
-27.5
 11
371.527587890625
 21
-27.5
  0
LINE
  8
0
  6
CONTINUOUS
 62
     7
 10
350
 20
-7
 11
350
 21
7
  0
LINE
  8
0
  6
CONTINUOUS
 62
     7
 10
449.4732055664062
 20
-24.19819068908691
 11
458.9999694824219
 21
-25.75515365600586
  0
LINE
  8
0
  6
CONTINUOUS
 62
     7
 10
511.0253601074219
 20
-290.1939392089844
 11
551.2671508789062
 21
-290.1939392089844
  0
LINE
  8
0
  6
CONTINUOUS
 62
     7
 10
532
 20
-268.9867858886719
 11
532
 21
-312.5820922851562
  0
ARC
  8
0
  6
CONTINUOUS
 62
     7
 10
545
 20
-377.0842895507812
 40
3.000000000000034
 50
179.9999913485775
 51
246.9539861971382
  0
ARC
  8
0
  6
CONTINUOUS
 62
     7
 10
545
 20
-422.9157104492187
 40
3.000000000000039
 50
119.3085286481107
 51
180.0000050089558
  0
ARC
  8
0
  6
CONTINUOUS
 62
     7
 10
440.9549560546875
 20
-327.4279479980469
 40
2.000000000000016
 50
256.7709046204473
 51
339.0482547021078
  0
ARC
  8
0
  6
CONTINUOUS
 62
     7
 10
-21.64520263671875
 20
-277.2437133789062
 40
3.150000095367428
 50
9.999998855318958
 51
189.9999620293674
  0
CIRCLE
  8
0
  6
CONTINUOUS
 62
     7
 10
0
 20
-400
 40
125
  0
ARC
  8
0
  6
CONTINUOUS
 62
     7
 10
0
 20
-400
 40
22.49999999999998
 50
108.1262180710465
 51
71.87379012563336
  0
CIRCLE
  8
0
  6
CONTINUOUS
 62
     7
 10
0
 20
-400
 40
90
  0
CIRCLE
  8
0
  6
CONTINUOUS
 62
     7
 10
0
 20
-400
 40
85
  0
ARC
  8
0
  6
CONTINUOUS
 62
     3
 10
0
 20
-400
 40
107.5
 50
354.626130104439
 51
5.271826869360981
  0
CIRCLE
  8
0
  6
CONTINUOUS
 62
     7
 10
107.5
 20
-400
 40
7.5
  0
CIRCLE
  8
0
  6
CONTINUOUS
 62
     7
 10
0
 20
-292.5
 40
7.5
  0
ARC
  8
0
  6
CONTINUOUS
 62
     3
 10
0
 20
-400
 40
107.5
 50
84.62611211834968
 51
95.27184303421748
  0
CIRCLE
  8
0
  6
CONTINUOUS
 62
     7
 10
-107.5
 20
-400
 40
7.5
  0
ARC
  8
0
  6
CONTINUOUS
 62
     3
 10
0
 20
-400
 40
107.5
 50
174.6261077926387
 51
185.2718318783173
  0
CIRCLE
  8
0
  6
CONTINUOUS
 62
     7
 10
0
 20
-507.5
 40
7.5
  0
ARC
  8
0
  6
CONTINUOUS
 62
     3
 10
0
 20
-400
 40
107.5
 50
264.62613443015
 51
275.271831195072
  0
ARC
  8
0
  6
CONTINUOUS
 62
     7
 10
658.5
 20
-9.361740012536757E-06
 40
3
 50
90.0000229950449
 51
270.0000006832452
  0
ARC
  8
0
  6
CONTINUOUS
 62
     7
 10
454
 20
45.11474609375
 40
4.999999999999997
 50
269.9999974955215
 51
0
  0
ARC
  8
0
  6
CONTINUOUS
 62
     7
 10
454
 20
18.4346923828125
 40
4.999999999999999
 50
269.9999974955215
 51
0
  0
ARC
  8
0
  6
CONTINUOUS
 62
     7
 10
388
 20
45.11474609375
 40
5
 50
179.999991348578
 51
270.0000006832456
  0
ARC
  8
0
  6
CONTINUOUS
 62
     7
 10
388
 20
18.4346923828125
 40
5
 50
179.999991348578
 51
270.0000006832456
  0
ARC
  8
0
  6
CONTINUOUS
 62
     7
 10
353
 20
0
 40
7.000000000000001
 50
270.0000179860895
 51
89.99998201391051
  0
POLYLINE
  8
0
  6
CONTINUOUS
 62
     7
 66
     1
 10
0
 20
0
 70
     1
  0
VERTEX
  8
0
  6
CONTINUOUS
 62
     7
 10
542
 20
-290.1939392089844
 42
0.1005697614596351
  0
VERTEX
  8
0
  6
CONTINUOUS
 62
     7
 10
541.2286164258952
 20
-286.4011318614866
 42
0.09931459426852769
  0
VERTEX
  8
0
  6
CONTINUOUS
 62
     7
 10
539.0449283026197
 20
-283.2046461797426
 42
0.09762475566247678
  0
VERTEX
  8
0
  6
CONTINUOUS
 62
     7
 10
535.8027735203134
 20
-281.0857180907259
 42
0.09645742494748763
  0
VERTEX
  8
0
  6
CONTINUOUS
 62
     7
 10
532
 20
-280.3458557128906
 42
0.09643683433003455
  0
VERTEX
  8
0
  6
CONTINUOUS
 62
     7
 10
528.1979889324393
 20
-281.0854093936061
 42
0.09759325526353639
  0
VERTEX
  8
0
  6
CONTINUOUS
 62
     7
 10
524.9565369725482
 20
-283.2032140699264
 42
0.09935255147165634
  0
VERTEX
  8
0
  6
CONTINUOUS
 62
     7
 10
522.7715980621025
 20
-286.4006257478691
 42
0.1005839922554488
  0
VERTEX
  8
0
  6
CONTINUOUS
 62
     7
 10
522
 20
-290.1939392089844
 42
0.1005699380586817
  0
VERTEX
  8
0
  6
CONTINUOUS
 62
     7
 10
522.7713844715513
 20
-293.9867462680504
 42
0.09931486592911334
  0
VERTEX
  8
0
  6
CONTINUOUS
 62
     7
 10
524.955076428439
 20
-297.1832291798607
 42
0.09762481604129365
  0
VERTEX
  8
0
  6
CONTINUOUS
 62
     7
 10
528.1972352694487
 20
-299.3021509764596
 42
0.09645692972530653
  0
VERTEX
  8
0
  6
CONTINUOUS
 62
     7
 10
532
 20
-300.0420074462891
 42
0.09643659111142361
  0
VERTEX
  8
0
  6
CONTINUOUS
 62
     7
 10
535.8020116123553
 20
-299.3024558929906
 42
0.09759332041095126
  0
VERTEX
  8
0
  6
CONTINUOUS
 62
     7
 10
539.0434655186983
 20
-297.1846542273929
 42
0.09935282727087098
  0
VERTEX
  8
0
  6
CONTINUOUS
 62
     7
 10
541.2284049781671
 20
-293.9872430898802
 42
0.1005839080411756
  0
SEQEND
  8
0
  0
POLYLINE
  8
0
  6
CONTINUOUS
 62
     7
 66
     1
 10
0
 20
0
  0
VERTEX
  8
0
  6
CONTINUOUS
 62
     7
 10
539.5611857663432
 20
-304.4119878391554
 42
0.08272232725506883
  0
VERTEX
  8
0
  6
CONTINUOUS
 62
     7
 10
543.848127917785
 20
-301.2106445113076
 42
0.08385221452734265
  0
VERTEX
  8
0
  6
CONTINUOUS
 62
     7
 10
546.8558303120021
 20
-296.7857091672407
 42
0.08471358049346024
  0
VERTEX
  8
0
  6
CONTINUOUS
 62
     7
 10
548.2338869736808
 20
-291.6163527440534
 42
0.08490371218847323
  0
VERTEX
  8
0
  6
CONTINUOUS
 62
     7
 10
547.8166174769282
 20
-286.2840054286774
 42
0.08436944069287465
  0
VERTEX
  8
0
  6
CONTINUOUS
 62
     7
 10
545.6548370755397
 20
-281.390763423408
 42
0.0833343903438943
  0
VERTEX
  8
0
  6
CONTINUOUS
 62
     7
 10
542.0050627815705
 20
-277.4784946760593
 42
0.0822641519309357
  0
VERTEX
  8
0
  6
CONTINUOUS
 62
     7
 10
537.2826965318175
 20
-274.9614276300046
 42
0.08162576712612005
  0
VERTEX
  8
0
  6
CONTINUOUS
 62
     7
 10
532
 20
-274.0937194824219
 42
0.08158652572113301
  0
VERTEX
  8
0
  6
CONTINUOUS
 62
     7
 10
526.7197344063591
 20
-274.9606064733104
 42
0.08224717144797795
  0
VERTEX
  8
0
  6
CONTINUOUS
 62
     7
 10
521.9978224599291
 20
-277.4762826758566
 42
0.08333891490778852
  0
VERTEX
  8
0
  6
CONTINUOUS
 62
     7
 10
518.3469808838573
 20
-281.3880135427221
 42
0.08437834906029951
  0
VERTEX
  8
0
  6
CONTINUOUS
 62
     7
 10
516.1840443263579
 20
-286.2813861534768
 42
0.08490736826083763
  0
VERTEX
  8
0
  6
CONTINUOUS
 62
     7
 10
515.7658883175396
 20
-291.613897233081
 42
0.08470975637563707
  0
VERTEX
  8
0
  6
CONTINUOUS
 62
     7
 10
517.143035475174
 20
-296.7832311121476
 42
0.0838383600441287
  0
VERTEX
  8
0
  6
CONTINUOUS
 62
     7
 10
520.1493474353514
 20
-301.2080084766022
 42
0.0827374991506039
  0
VERTEX
  8
0
  6
CONTINUOUS
 62
     7
 10
524.4364054558521
 20
-304.4107436093545
 42
0
  0
SEQEND
  8
0
  0
POLYLINE
  8
0
  6
CONTINUOUS
 62
     7
 66
     1
 10
0
 20
0
  0
VERTEX
  8
0
  6
CONTINUOUS
 62
     7
 10
539.1332603191596
 20
-301.9743564777309
 42
0.2015076984913795
  0
VERTEX
  8
0
  6
CONTINUOUS
 62
     7
 10
538.4032581706356
 20
-301.465873363957
 42
0.03155975008871196
  0
VERTEX
  8
0
  6
CONTINUOUS
 62
     7
 10
537.5134301508133
 20
-301.2267890578251
 42
0.01542706588213942
  0
VERTEX
  8
0
  6
CONTINUOUS
 62
     7
 10
536.6057911907891
 20
-301.0674248853954
 42
0.0102103855697895
  0
VERTEX
  8
0
  6
CONTINUOUS
 62
     7
 10
535.6902663910664
 20
-300.9536179972523
 42
0.007829369652138598
  0
VERTEX
  8
0
  6
CONTINUOUS
 62
     7
 10
534.7711871820936
 20
-300.8725276591518
 42
0.006588841843412699
  0
VERTEX
  8
0
  6
CONTINUOUS
 62
     7
 10
533.8499531094733
 20
-300.8177815972156
 42
0.005931240783323732
  0
VERTEX
  8
0
  6
CONTINUOUS
 62
     7
 10
532.9275503578203
 20
-300.7860131639927
 42
0.005641422518695398
  0
VERTEX
  8
0
  6
CONTINUOUS
 62
     7
 10
532.0046232630152
 20
-300.775528213492
 42
0.005639346647679013
  0
VERTEX
  8
0
  6
CONTINUOUS
 62
     7
 10
531.0818049759009
 20
-300.7858018397665
 42
0.005918303440667442
  0
VERTEX
  8
0
  6
CONTINUOUS
 62
     7
 10
530.1606362144028
 20
-300.8172908188172
 42
0.006584504498046271
  0
VERTEX
  8
0
  6
CONTINUOUS
 62
     7
 10
529.2386261672905
 20
-300.8718129102681
 42
0.007814641857793408
  0
VERTEX
  8
0
  6
CONTINUOUS
 62
     7
 10
528.3191922657146
 20
-300.9526299557928
 42
0.01018500347524152
  0
VERTEX
  8
0
  6
CONTINUOUS
 62
     7
 10
527.4029296103724
 20
-301.0661507151344
 42
0.01540577831758775
  0
VERTEX
  8
0
  6
CONTINUOUS
 62
     7
 10
526.4926591108325
 20
-301.2255074736521
 42
0.03141754114049911
  0
VERTEX
  8
0
  6
CONTINUOUS
 62
     7
 10
525.6013789616463
 20
-301.4642441349079
 42
0.1997028563455666
  0
VERTEX
  8
0
  6
CONTINUOUS
 62
     7
 10
524.8671490220364
 20
-301.9720759492945
 42
0
  0
SEQEND
  8
0
  0
POLYLINE
  8
0
  6
CONTINUOUS
 62
     7
 66
     1
 10
0
 20
0
  0
VERTEX
  8
0
  6
CONTINUOUS
 62
     7
 10
533.999371313127
 20
-312.6873698960652
 42
0.001962846750300016
  0
VERTEX
  8
0
  6
CONTINUOUS
 62
     7
 10
534.516613781451
 20
-312.6705250646047
 42
0.002046129485133202
  0
VERTEX
  8
0
  6
CONTINUOUS
 62
     7
 10
535.0340499399183
 20
-312.6495224934149
 42
0.002154580265661562
  0
VERTEX
  8
0
  6
CONTINUOUS
 62
     7
 10
535.5517058579227
 20
-312.6241567609449
 42
0.002294183480782761
  0
VERTEX
  8
0
  6
CONTINUOUS
 62
     7
 10
536.0696091459871
 20
-312.5941621209572
 42
0.002473608768181762
  0
VERTEX
  8
0
  6
CONTINUOUS
 62
     7
 10
536.587789164516
 20
-312.5591966546402
 42
0.00269281267141259
  0
VERTEX
  8
0
  6
CONTINUOUS
 62
     7
 10
537.1039280819218
 20
-312.5190149075921
 42
0.002988808170553219
  0
VERTEX
  8
0
  6
CONTINUOUS
 62
     7
 10
537.6195884639757
 20
-312.4729803952998
 42
0.003382633101793821
  0
VERTEX
  8
0
  6
CONTINUOUS
 62
     7
 10
538.1346383269082
 20
-312.4203921762392
 42
0.003921218300725711
  0
VERTEX
  8
0
  6
CONTINUOUS
 62
     7
 10
538.6488935334615
 20
-312.3603058713832
 42
0.004686256924995422
  0
VERTEX
  8
0
  6
CONTINUOUS
 62
     7
 10
539.1620843734617
 20
-312.2914069970735
 42
0.005831687234758353
  0
VERTEX
  8
0
  6
CONTINUOUS
 62
     7
 10
539.6737904535249
 20
-312.2117814945101
 42
0.007680531325477763
  0
VERTEX
  8
0
  6
CONTINUOUS
 62
     7
 10
540.1832989680105
 20
-312.1184588828305
 42
0.01102369659705992
  0
VERTEX
  8
0
  6
CONTINUOUS
 62
     7
 10
540.6892431578302
 20
-312.0063735826031
 42
0.01832812394796279
  0
VERTEX
  8
0
  6
CONTINUOUS
 62
     7
 10
541.1884169359239
 20
-311.8654749932592
 42
0.04148853705546714
  0
VERTEX
  8
0
  6
CONTINUOUS
 62
     7
 10
541.6683328958951
 20
-311.669941798179
 42
0.250488358272803
  0
VERTEX
  8
0
  6
CONTINUOUS
 62
     7
 10
541.9998962745179
 20
-311.3048211863793
 42
0
  0
SEQEND
  8
0
  0
POLYLINE
  8
0
  6
CONTINUOUS
 62
     7
 66
     1
 10
0
 20
0
  0
VERTEX
  8
0
  6
CONTINUOUS
 62
     7
 10
459
 20
-315.6248321533203
 42
0.03135690779557958
  0
VERTEX
  8
0
  6
CONTINUOUS
 62
     7
 10
456.4440987658342
 20
-315.7848709756251
 42
0.03266745306789286
  0
VERTEX
  8
0
  6
CONTINUOUS
 62
     7
 10
453.9302025532952
 20
-316.2688506461586
 42
0.03551521523467289
  0
VERTEX
  8
0
  6
CONTINUOUS
 62
     7
 10
451.5040675592906
 20
-317.0892754973521
 42
0.04024453359384452
  0
VERTEX
  8
0
  6
CONTINUOUS
 62
     7
 10
449.2299438360204
 20
-318.2645353635515
 42
0.04746189312532018
  0
VERTEX
  8
0
  6
CONTINUOUS
 62
     7
 10
447.1953648587769
 20
-319.8163722347155
 42
0.05756898094328589
  0
VERTEX
  8
0
  6
CONTINUOUS
 62
     7
 10
445.5284833120762
 20
-321.7555040467169
 42
0.06954689476018618
  0
VERTEX
  8
0
  6
CONTINUOUS
 62
     7
 10
444.4030000678365
 20
-324.0486758188638
 42
0.07876920590842552
  0
VERTEX
  8
0
  6
CONTINUOUS
 62
     7
 10
444
 20
-326.5683288574219
 42
0.07874728562786144
  0
VERTEX
  8
0
  6
CONTINUOUS
 62
     7
 10
444.4027785562502
 20
-329.0872987551789
 42
0.06951289441908316
  0
VERTEX
  8
0
  6
CONTINUOUS
 62
     7
 10
445.5272391113127
 20
-331.3792995407313
 42
0.05756330820033716
  0
VERTEX
  8
0
  6
CONTINUOUS
 62
     7
 10
447.1931757019446
 20
-333.3182478057236
 42
0.04745919659303045
  0
VERTEX
  8
0
  6
CONTINUOUS
 62
     7
 10
449.226780119486
 20
-334.8701405062409
 42
0.04025175102038325
  0
VERTEX
  8
0
  6
CONTINUOUS
 62
     7
 10
451.5005442965311
 20
-336.0458987718279
 42
0.03551226971537105
  0
VERTEX
  8
0
  6
CONTINUOUS
 62
     7
 10
453.9258671719446
 20
-336.8666706381828
 42
0.03268529487213311
  0
VERTEX
  8
0
  6
CONTINUOUS
 62
     7
 10
456.4408035961502
 20
-337.3513707476641
 42
0.03136110172919776
  0
VERTEX
  8
0
  6
CONTINUOUS
 62
     7
 10
458.9969558623843
 20
-337.5118253330695
 42
0
  0
SEQEND
  8
0
  0
POLYLINE
  8
0
  6
CONTINUOUS
 62
     7
 66
     1
 10
0
 20
0
  0
VERTEX
  8
0
  6
CONTINUOUS
 62
     7
 10
361.0006393671596
 20
-333.9055569838429
 42
-0.1233251208801447
  0
VERTEX
  8
0
  6
CONTINUOUS
 62
     7
 10
368.6967757768099
 20
-344.4490895196014
 42
-0.09934985253980945
  0
VERTEX
  8
0
  6
CONTINUOUS
 62
     7
 10
371.0386679116232
 20
-357.3368049180231
 42
-0.0371549099964292
  0
VERTEX
  8
0
  6
CONTINUOUS
 62
     7
 10
369.633218052755
 20
-370.4319253771297
 42
0.03225350696795987
  0
VERTEX
  8
0
  6
CONTINUOUS
 62
     7
 10
368.191431455708
 20
-383.5278743537461
 42
0.02769123661535099
  0
VERTEX
  8
0
  6
CONTINUOUS
 62
     7
 10
368.433468480814
 20
-396.7026099397047
 42
0.01355055700630629
  0
VERTEX
  8
0
  6
CONTINUOUS
 62
     7
 10
369.7603049419718
 20
-409.8170462827761
 42
-0.006486270929601148
  0
VERTEX
  8
0
  6
CONTINUOUS
 62
     7
 10
371.3622914107501
 20
-422.9023739133464
 42
-0.1226283973009697
  0
VERTEX
  8
0
  6
CONTINUOUS
 62
     7
 10
369.9373541245968
 20
-435.8731537755332
 42
-0.1481613851374939
  0
VERTEX
  8
0
  6
CONTINUOUS
 62
     7
 10
361.0015259522726
 20
-445.299859965147
 42
0
  0
SEQEND
  8
0
  0
POLYLINE
  8
0
  6
CONTINUOUS
 62
     7
 66
     1
 10
0
 20
0
  0
VERTEX
  8
0
  6
CONTINUOUS
 62
     7
 10
533.9994015906111
 20
-24.68476888993662
 42
0.01790621729355211
  0
VERTEX
  8
0
  6
CONTINUOUS
 62
     7
 10
534.7792006748995
 20
-24.51577474541476
 42
0.01817274388875047
  0
VERTEX
  8
0
  6
CONTINUOUS
 62
     7
 10
535.5447695510624
 20
-24.29102787068611
 42
0.01851592622363658
  0
VERTEX
  8
0
  6
CONTINUOUS
 62
     7
 10
536.2918221083863
 20
-24.01077623774619
 42
0.01893468903681593
  0
VERTEX
  8
0
  6
CONTINUOUS
 62
     7
 10
537.0158553576691
 20
-23.67540981426613
 42
0.01942677472680574
  0
VERTEX
  8
0
  6
CONTINUOUS
 62
     7
 10
537.7121163653242
 20
-23.285524250648
 42
0.01998806672670447
  0
VERTEX
  8
0
  6
CONTINUOUS
 62
     7
 10
538.3755812148735
 20
-22.84199994886322
 42
0.0206117624492878
  0
VERTEX
  8
0
  6
CONTINUOUS
 62
     7
 10
539.0009516715606
 20
-22.34609677115366
 42
0.02128743462473572
  0
VERTEX
  8
0
  6
CONTINUOUS
 62
     7
 10
539.5826767455592
 20
-21.79956299958095
 42
0.02200007903277277
  0
VERTEX
  8
0
  6
CONTINUOUS
 62
     7
 10
540.1150074959886
 20
-21.20475445849059
 42
0.0227293298618476
  0
VERTEX
  8
0
  6
CONTINUOUS
 62
     7
 10
540.59209354628
 20
-20.56475585663563
 42
0.02344911830573636
  0
VERTEX
  8
0
  6
CONTINUOUS
 62
     7
 10
541.0081280093
 20
-19.88349162630068
 42
0.02412812042317287
  0
VERTEX
  8
0
  6
CONTINUOUS
 62
     7
 10
541.3575429155894
 20
-19.16580865553041
 42
0.02473132696367693
  0
VERTEX
  8
0
  6
CONTINUOUS
 62
     7
 10
541.6352492594564
 20
-18.41750991097737
 42
0.02522290304688372
  0
VERTEX
  8
0
  6
CONTINUOUS
 62
     7
 10
541.8369049464671
 20
-17.64531822993379
 42
0.02557015935604175
  0
VERTEX
  8
0
  6
CONTINUOUS
 62
     7
 10
541.9591824369915
 20
-16.85675560577686
 42
0.02573507531847737
  0
VERTEX
  8
0
  6
CONTINUOUS
 62
     7
 10
541.9999997060676
 20
-16.06033584396118
 42
0
  0
SEQEND
  8
0
  0
POLYLINE
  8
0
  6
CONTINUOUS
 62
     7
 66
     1
 10
0
 20
0
 70
     1
  0
VERTEX
  8
0
  6
CONTINUOUS
 62
     7
 10
532
 20
18.54306030273438
 42
0.01162444772986998
  0
VERTEX
  8
0
  6
CONTINUOUS
 62
     7
 10
528.5818890578075
 20
18.46457198069229
 42
0.01447191320538562
  0
VERTEX
  8
0
  6
CONTINUOUS
 62
     7
 10
525.1713787178544
 20
18.2110504581855
 42
0.02556016153306251
  0
VERTEX
  8
0
  6
CONTINUOUS
 62
     7
 10
521.7910432057279
 20
17.69888951763894
 42
0.1952857525117249
  0
VERTEX
  8
0
  6
CONTINUOUS
 62
     7
 10
518.850012171491
 20
16.25741937272601
 42
0.1938970346387095
  0
VERTEX
  8
0
  6
CONTINUOUS
 62
     7
 10
521.7942842398572
 20
14.81963137715226
 42
0.02553159831798187
  0
VERTEX
  8
0
  6
CONTINUOUS
 62
     7
 10
525.1729277351981
 20
14.30799016434773
 42
0.01446609579013933
  0
VERTEX
  8
0
  6
CONTINUOUS
 62
     7
 10
528.5823432199282
 20
14.05460461769072
 42
0.01162307440157578
  0
VERTEX
  8
0
  6
CONTINUOUS
 62
     7
 10
532
 20
13.97613525390625
 42
0.01162476452189673
  0
VERTEX
  8
0
  6
CONTINUOUS
 62
     7
 10
535.4181108733727
 20
14.05462584218252
 42
0.01447217399078621
  0
VERTEX
  8
0
  6
CONTINUOUS
 62
     7
 10
538.8286207308518
 20
14.30815352615427
 42
0.02556038781702035
  0
VERTEX
  8
0
  6
CONTINUOUS
 62
     7
 10
542.2089547814194
 20
14.8203238712347
 42
0.1952839009470764
  0
VERTEX
  8
0
  6
CONTINUOUS
 62
     7
 10
545.1499878568399
 20
16.26180157443638
 42
0.1938987691653768
  0
VERTEX
  8
0
  6
CONTINUOUS
 62
     7
 10
542.2057160399916
 20
17.69958237121102
 42
0.02553136055713638
  0
VERTEX
  8
0
  6
CONTINUOUS
 62
     7
 10
538.8270710707936
 20
18.2112140004591
 42
0.01446583242551441
  0
VERTEX
  8
0
  6
CONTINUOUS
 62
     7
 10
535.417655105132
 20
18.46459328610108
 42
0.01162275125249999
  0
SEQEND
  8
0
  0
POLYLINE
  8
0
  6
CONTINUOUS
 62
     7
 66
     1
 10
0
 20
0
  0
VERTEX
  8
0
  6
CONTINUOUS
 62
     7
 10
521.0736999511719
 20
23.73446655273438
 42
0.01843525202587418
  0
VERTEX
  8
0
  6
CONTINUOUS
 62
     7
 10
520.0927266618542
 20
23.49464759677756
 42
0.005078825252425373
  0
VERTEX
  8
0
  6
CONTINUOUS
 62
     7
 10
519.1233124095503
 20
23.21158621913567
 42
0.02696868374637774
  0
VERTEX
  8
0
  6
CONTINUOUS
 62
     7
 10
518.1726062041067
 20
22.87171450223115
 42
0.05660729878814874
  0
VERTEX
  8
0
  6
CONTINUOUS
 62
     7
 10
517.292808415418
 20
22.38011692116666
 42
0.06337965065030947
  0
VERTEX
  8
0
  6
CONTINUOUS
 62
     7
 10
516.5650117895957
 20
21.68345389992301
 42
0.06341675256005225
  0
VERTEX
  8
0
  6
CONTINUOUS
 62
     7
 10
516.0286680268244
 20
20.82944170461051
 42
0.07212843519057241
  0
VERTEX
  8
0
  6
CONTINUOUS
 62
     7
 10
515.743084688066
 20
19.86449108009942
 42
0.07237625315351799
  0
VERTEX
  8
0
  6
CONTINUOUS
 62
     7
 10
515.7431962530246
 20
18.85823907693761
 42
0.0721155885312974
  0
VERTEX
  8
0
  6
CONTINUOUS
 62
     7
 10
516.0289018735908
 20
17.89352942062845
 42
0.06331753536181763
  0
VERTEX
  8
0
  6
CONTINUOUS
 62
     7
 10
516.5643477569091
 20
17.04084049933002
 42
0.06336647317125889
  0
VERTEX
  8
0
  6
CONTINUOUS
 62
     7
 10
517.2919590361797
 20
16.34398607112149
 42
0.0566391618165016
  0
VERTEX
  8
0
  6
CONTINUOUS
 62
     7
 10
518.1716552988526
 20
15.85217534458114
 42
0.02700149179075226
  0
VERTEX
  8
0
  6
CONTINUOUS
 62
     7
 10
519.1225536645557
 20
15.51212743530362
 42
0.005084234218285283
  0
VERTEX
  8
0
  6
CONTINUOUS
 62
     7
 10
520.092485880493
 20
15.22889960433199
 42
0.01843767337788353
  0
VERTEX
  8
0
  6
CONTINUOUS
 62
     7
 10
521.0736999511719
 20
14.989013671875
 42
0
  0
SEQEND
  8
0
  0
POLYLINE
  8
0
  6
CONTINUOUS
 62
     7
 66
     1
 10
0
 20
0
  0
VERTEX
  8
0
  6
CONTINUOUS
 62
     7
 10
524.2619022221351
 20
14.41033957396379
 42
0.04188730367407
  0
VERTEX
  8
0
  6
CONTINUOUS
 62
     7
 10
524.7020344841994
 20
13.18236542536928
 42
0.04165594837395561
  0
VERTEX
  8
0
  6
CONTINUOUS
 62
     7
 10
525.3402812820294
 20
12.04444242336548
 42
0.04136510392960691
  0
VERTEX
  8
0
  6
CONTINUOUS
 62
     7
 10
526.1577381641795
 20
11.02758908708278
 42
0.04106114708353812
  0
VERTEX
  8
0
  6
CONTINUOUS
 62
     7
 10
527.1310482054422
 20
10.15845339007831
 42
0.04077357732516439
  0
VERTEX
  8
0
  6
CONTINUOUS
 62
     7
 10
528.2331206473258
 20
9.45927392495086
 42
0.04052878174779293
  0
VERTEX
  8
0
  6
CONTINUOUS
 62
     7
 10
529.4339797017338
 20
8.947525995676388
 42
0.04034729443308817
  0
VERTEX
  8
0
  6
CONTINUOUS
 62
     7
 10
530.7015544560752
 20
8.635714803091071
 42
0.04023511476118493
  0
VERTEX
  8
0
  6
CONTINUOUS
 62
     7
 10
532.0021778129696
 20
8.531250291927488
 42
0.04022823417035127
  0
VERTEX
  8
0
  6
CONTINUOUS
 62
     7
 10
533.3025196657524
 20
8.636375827719911
 42
0.04031551583043747
  0
VERTEX
  8
0
  6
CONTINUOUS
 62
     7
 10
534.5689486216772
 20
8.948503219220672
 42
0.04051141576209286
  0
VERTEX
  8
0
  6
CONTINUOUS
 62
     7
 10
535.7691032684894
 20
9.46044330836696
 42
0.0407598323543694
  0
VERTEX
  8
0
  6
CONTINUOUS
 62
     7
 10
536.8705931556672
 20
10.15969359184808
 42
0.04106008099372532
  0
VERTEX
  8
0
  6
CONTINUOUS
 62
     7
 10
537.8436447586855
 20
11.02904534710985
 42
0.04137779398198437
  0
VERTEX
  8
0
  6
CONTINUOUS
 62
     7
 10
538.6610580729467
 20
12.04642479715774
 42
0.04167556173278875
  0
VERTEX
  8
0
  6
CONTINUOUS
 62
     7
 10
539.2992052336399
 20
13.18508562490045
 42
0.041916494561486
  0
VERTEX
  8
0
  6
CONTINUOUS
 62
     7
 10
539.7390962624776
 20
14.41409118214222
 42
0
  0
SEQEND
  8
0
  0
POLYLINE
  8
0
  6
CONTINUOUS
 62
     7
 66
     1
 10
0
 20
0
  0
VERTEX
  8
0
  6
CONTINUOUS
 62
     7
 10
542.9314048186171
 20
23.73315670942841
 42
0.01754289049007518
  0
VERTEX
  8
0
  6
CONTINUOUS
 62
     7
 10
541.5899376405222
 20
24.02630424979068
 42
0.01105009940148548
  0
VERTEX
  8
0
  6
CONTINUOUS
 62
     7
 10
540.2336500495026
 20
24.24436123602512
 42
0.008116854688474609
  0
VERTEX
  8
0
  6
CONTINUOUS
 62
     7
 10
538.8692760901946
 20
24.41104992198579
 42
0.006531317947617223
  0
VERTEX
  8
0
  6
CONTINUOUS
 62
     7
 10
537.5008438131126
 20
24.53798457209814
 42
0.005600275045173033
  0
VERTEX
  8
0
  6
CONTINUOUS
 62
     7
 10
536.1294654560662
 20
24.63186272217583
 42
0.005037413926381986
  0
VERTEX
  8
0
  6
CONTINUOUS
 62
     7
 10
534.7560753492154
 20
24.69665909071929
 42
0.004711555386580118
  0
VERTEX
  8
0
  6
CONTINUOUS
 62
     7
 10
533.3815884158761
 20
24.73473752016796
 42
0.004561013391559883
  0
VERTEX
  8
0
  6
CONTINUOUS
 62
     7
 10
532.0066223565303
 20
24.74737519871923
 42
0.00455988131076028
  0
VERTEX
  8
0
  6
CONTINUOUS
 62
     7
 10
530.6317823707599
 20
24.73498161712509
 42
0.004705613664473998
  0
VERTEX
  8
0
  6
CONTINUOUS
 62
     7
 10
529.2583473279817
 20
24.69719445312633
 42
0.005034939061904122
  0
VERTEX
  8
0
  6
CONTINUOUS
 62
     7
 10
527.8843996955636
 20
24.63265759911415
 42
0.0055944856822006
  0
VERTEX
  8
0
  6
CONTINUOUS
 62
     7
 10
526.5126620799529
 20
24.53906307726234
 42
0.006523231575295086
  0
VERTEX
  8
0
  6
CONTINUOUS
 62
     7
 10
525.1434913345017
 20
24.41240636687936
 42
0.00810225152035835
  0
VERTEX
  8
0
  6
CONTINUOUS
 62
     7
 10
523.7783439213041
 20
24.24603172979407
 42
0.01103438258349718
  0
VERTEX
  8
0
  6
CONTINUOUS
 62
     7
 10
522.4199070089895
 20
24.0281243220813
 42
0.01751382852609955
  0
VERTEX
  8
0
  6
CONTINUOUS
 62
     7
 10
521.0757871662761
 20
23.73502246522353
 42
0
  0
SEQEND
  8
0
  0
POLYLINE
  8
0
  6
CONTINUOUS
 62
     7
 66
     1
 10
0
 20
0
  0
VERTEX
  8
0
  6
CONTINUOUS
 62
     7
 10
542.9263000488281
 20
23.73446655273438
 42
-0.01843525202587418
  0
VERTEX
  8
0
  6
CONTINUOUS
 62
     7
 10
543.9072733381458
 20
23.49464759677756
 42
-0.005078825252425928
  0
VERTEX
  8
0
  6
CONTINUOUS
 62
     7
 10
544.8766875904497
 20
23.21158621913567
 42
-0.02696868374637774
  0
VERTEX
  8
0
  6
CONTINUOUS
 62
     7
 10
545.8273937958933
 20
22.87171450223115
 42
-0.0566072987881488
  0
VERTEX
  8
0
  6
CONTINUOUS
 62
     7
 10
546.707191584582
 20
22.38011692116666
 42
-0.06337965065030944
  0
VERTEX
  8
0
  6
CONTINUOUS
 62
     7
 10
547.4349882104043
 20
21.68345389992301
 42
-0.06341675256005226
  0
VERTEX
  8
0
  6
CONTINUOUS
 62
     7
 10
547.9713319731756
 20
20.82944170461051
 42
-0.07212843519057237
  0
VERTEX
  8
0
  6
CONTINUOUS
 62
     7
 10
548.256915311934
 20
19.86449108009942
 42
-0.07237625315351796
  0
VERTEX
  8
0
  6
CONTINUOUS
 62
     7
 10
548.2568037469754
 20
18.85823907693761
 42
-0.0721155885312974
  0
VERTEX
  8
0
  6
CONTINUOUS
 62
     7
 10
547.9710981264092
 20
17.89352942062845
 42
-0.06331753536181751
  0
VERTEX
  8
0
  6
CONTINUOUS
 62
     7
 10
547.4356522430909
 20
17.04084049933002
 42
-0.06336647317125876
  0
VERTEX
  8
0
  6
CONTINUOUS
 62
     7
 10
546.7080409638203
 20
16.34398607112149
 42
-0.0566391618165016
  0
VERTEX
  8
0
  6
CONTINUOUS
 62
     7
 10
545.8283447011474
 20
15.85217534458114
 42
-0.02700149179074915
  0
VERTEX
  8
0
  6
CONTINUOUS
 62
     7
 10
544.8774463354443
 20
15.51212743530362
 42
-0.005084234218284617
  0
VERTEX
  8
0
  6
CONTINUOUS
 62
     7
 10
543.907514119507
 20
15.22889960433199
 42
-0.01843767337787931
  0
VERTEX
  8
0
  6
CONTINUOUS
 62
     7
 10
542.9263000488281
 20
14.989013671875
 42
0
  0
SEQEND
  8
0
  0
POLYLINE
  8
0
  6
CONTINUOUS
 62
     7
 66
     1
 10
0
 20
0
  0
VERTEX
  8
0
  6
CONTINUOUS
 62
     7
 10
449.4722743122682
 20
-24.19845086811287
 42
0.01765901575755051
  0
VERTEX
  8
0
  6
CONTINUOUS
 62
     7
 10
448.3149906447438
 20
-24.56044389207951
 42
0.01822340311443151
  0
VERTEX
  8
0
  6
CONTINUOUS
 62
     7
 10
447.1865025239342
 20
-25.00449063802899
 42
0.01891485925689483
  0
VERTEX
  8
0
  6
CONTINUOUS
 62
     7
 10
446.0939078289384
 20
-25.53108322694551
 42
0.01973751170500085
  0
VERTEX
  8
0
  6
CONTINUOUS
 62
     7
 10
445.0450652539314
 20
-26.14052558469204
 42
0.02069275852779606
  0
VERTEX
  8
0
  6
CONTINUOUS
 62
     7
 10
444.0487094343513
 20
-26.83274481079591
 42
0.02177667328020292
  0
VERTEX
  8
0
  6
CONTINUOUS
 62
     7
 10
443.1145346494405
 20
-27.6070400363244
 42
0.02297644156622586
  0
VERTEX
  8
0
  6
CONTINUOUS
 62
     7
 10
442.2532176143699
 20
-28.46176029815778
 42
0.02426592734715852
  0
VERTEX
  8
0
  6
CONTINUOUS
 62
     7
 10
441.4763371814044
 20
-29.39391243081329
 42
0.02560098904356984
  0
VERTEX
  8
0
  6
CONTINUOUS
 62
     7
 10
440.7961379986924
 20
-30.39871924269087
 42
0.02691602322999333
  0
VERTEX
  8
0
  6
CONTINUOUS
 62
     7
 10
440.225084164027
 20
-31.46917942351073
 42
0.02812420058815861
  0
VERTEX
  8
0
  6
CONTINUOUS
 62
     7
 10
439.7751696251151
 20
-32.59572040018463
 42
0.02912427002085862
  0
VERTEX
  8
0
  6
CONTINUOUS
 62
     7
 10
439.4570059138078
 20
-33.76606961165057
 42
0.02981550590260634
  0
VERTEX
  8
0
  6
CONTINUOUS
 62
     7
 10
439.2787938171921
 20
-34.96547205513389
 42
0.0301097832166135
  0
VERTEX
  8
0
  6
CONTINUOUS
 62
     7
 10
439.2453647025526
 20
-36.17696661972323
 42
0.02997816510368509
  0
VERTEX
  8
0
  6
CONTINUOUS
 62
     7
 10
439.3574453893691
 20
-37.3830916234537
 42
0.02946356521009863
  0
VERTEX
  8
0
  6
CONTINUOUS
 62
     7
 10
439.6119584285182
 20
-38.5678583828034
 42
0
  0
SEQEND
  8
0
  0
POLYLINE
  8
0
  6
CONTINUOUS
 62
     7
 66
     1
 10
0
 20
0
  0
VERTEX
  8
0
  6
CONTINUOUS
 62
     7
 10
459
 20
-40.7685546875
 42
0.03684079896925323
  0
VERTEX
  8
0
  6
CONTINUOUS
 62
     7
 10
456.3248367184182
 20
-40.96554174079775
 42
0.03800988254445281
  0
VERTEX
  8
0
  6
CONTINUOUS
 62
     7
 10
453.7095935045704
 20
-41.55814757855882
 42
0.04046194034417715
  0
VERTEX
  8
0
  6
CONTINUOUS
 62
     7
 10
451.2178879604814
 20
-42.55154319377122
 42
0.04428263077901343
  0
VERTEX
  8
0
  6
CONTINUOUS
 62
     7
 10
448.9285728562794
 20
-43.95009967740756
 42
0.04948575755563331
  0
VERTEX
  8
0
  6
CONTINUOUS
 62
     7
 10
446.9404003684083
 20
-45.74900296682016
 42
0.05578198167203433
  0
VERTEX
  8
0
  6
CONTINUOUS
 62
     7
 10
445.3719350636135
 20
-47.92215788789615
 42
0.06202788485992833
  0
VERTEX
  8
0
  6
CONTINUOUS
 62
     7
 10
444.3545314946259
 20
-50.40016612605281
 42
0.06616808666149675
  0
VERTEX
  8
0
  6
CONTINUOUS
 62
     7
 10
444
 20
-53.05581665039062
 42
0.0661142650865052
  0
VERTEX
  8
0
  6
CONTINUOUS
 62
     7
 10
444.3539528209233
 20
-55.70932647181471
 42
0.06200341918034095
  0
VERTEX
  8
0
  6
CONTINUOUS
 62
     7
 10
445.3702140679353
 20
-58.18641431735757
 42
0.05578047937095249
  0
VERTEX
  8
0
  6
CONTINUOUS
 62
     7
 10
446.937700254185
 20
-60.3596500499125
 42
0.04948566312045546
  0
VERTEX
  8
0
  6
CONTINUOUS
 62
     7
 10
448.9249211736936
 20
-62.15883923864929
 42
0.04427678417677255
  0
VERTEX
  8
0
  6
CONTINUOUS
 62
     7
 10
451.2130549238815
 20
-63.55770853662668
 42
0.04047358604066564
  0
VERTEX
  8
0
  6
CONTINUOUS
 62
     7
 10
453.7047789628609
 20
-64.55202490228301
 42
0.0380419927558338
  0
VERTEX
  8
0
  6
CONTINUOUS
 62
     7
 10
456.3218926142898
 20
-65.14568361687813
 42
0.03688229470528438
  0
VERTEX
  8
0
  6
CONTINUOUS
 62
     7
 10
459
 20
-65.34310913085938
 42
0
  0
SEQEND
  8
0
  0
POLYLINE
  8
0
  6
CONTINUOUS
 62
     7
 66
     1
 10
0
 20
0
  0
VERTEX
  8
0
  6
CONTINUOUS
 62
     7
 10
361
 20
37.5
 42
-0.07695741215725121
  0
VERTEX
  8
0
  6
CONTINUOUS
 62
     7
 10
368.0627407498793
 20
29.83924770385899
 42
-0.1052605088511416
  0
VERTEX
  8
0
  6
CONTINUOUS
 62
     7
 10
371.8243167693483
 20
20.15910666826354
 42
-0.04166921241680492
  0
VERTEX
  8
0
  6
CONTINUOUS
 62
     7
 10
372.6049951619349
 20
9.739945039361256
 42
0.0007708047552635054
  0
VERTEX
  8
0
  6
CONTINUOUS
 62
     7
 10
372.6431427213932
 20
-0.7202371479093851
 42
0.02320511813310324
  0
VERTEX
  8
0
  6
CONTINUOUS
 62
     7
 10
373.2368902731446
 20
-11.16025582558066
 42
-0.05523476631569491
  0
VERTEX
  8
0
  6
CONTINUOUS
 62
     7
 10
373.402624824864
 20
-21.59701431057725
 42
-0.1547030917208919
  0
VERTEX
  8
0
  6
CONTINUOUS
 62
     7
 10
369.1058938237185
 20
-30.95889862332009
 42
-0.08214295233897309
  0
VERTEX
  8
0
  6
CONTINUOUS
 62
     7
 10
361.0021069318032
 20
-37.49877862983799
 42
0
  0
SEQEND
  8
0
  0
TEXT
  8
0
  6
CONTINUOUS
 62
     7
 10
-96.42857551574707
 20
-12.5
 40
25
 41
0.8455556493890867
  1
ＥＲＶ－＿ＮＡＣ
  0
ENDSEC
  0
EOF
