  0
SECTION
  2
HEADER
  0
ENDSEC
  0
SECTION
  2
TABLES
  0
TABLE
  2
LTYPE
 70
    22
  0
LTYPE
  2
CONTINUOUS
 70
    64
  3
Solid line
 72
    65
 73
     0
 40
0.000000
  0
LTYPE
  2
DASHED
 70
    64
  3
__ __ __ __ __ __ __ __ __ __ __ __ __ __ __
 72
    65
 73
     2
 40
3.500000
 49
2.000000
 49
-1.500000
  0
LTYPE
  2
CENTER
 70
    64
  3
____ _ ____ _ ____ _ ____ _ ____ _ ____ _ ____
 72
    65
 73
     4
 40
17.500000
 49
13.000000
 49
-1.500000
 49
1.500000
 49
-1.500000
  0
LTYPE
  2
PHANTOM
 70
    64
  3
_____ _ _ _____ _ _ _____ _ _ _____ _ _ ____  
 72
    65
 73
     6
 40
15.500000
 49
8.000000
 49
-1.500000
 49
1.500000
 49
-1.500000
 49
1.500000
 49
-1.500000
  0
LTYPE
  2
DOT
 70
    64
  3
. . . . . . . . . . . . . . . . . . . . . . . .
 72
    65
 73
     2
 40
0.25
 49
0.0
 49
-0.25
  0
ENDTAB
  0
TABLE
  2
LAYER
 70
     1
  0
LAYER
  2
0
 70
     0
 62
     7
  6
CONTINUOUS
  0
ENDTAB
  0
TABLE
  2
STYLE
 70
     1
  0
STYLE
  2
STANDARD
 70
     0
 40
0.000000
 41
1.000000
 50
0.000000
 71
     0
 42
0.200000
  3
txt
  4
BIGFONT
  0
ENDTAB
  0
TABLE
  2
VIEW
 70
     0
  0
ENDTAB
  0
ENDSEC
  0
SECTION
  2
BLOCKS
  0
ENDSEC
  0
SECTION
  2
ENTITIES
  0
LINE
  8
0
  6
CONTINUOUS
 62
     7
 10
478
 20
-226.6106872558594
 11
478
 21
-372.5
  0
LINE
  8
0
  6
CONTINUOUS
 62
     7
 10
478
 20
-372.5
 11
493
 21
-372.5
  0
LINE
  8
0
  6
CONTINUOUS
 62
     7
 10
523
 20
-226.5
 11
523
 21
-373.5
  0
LINE
  8
0
  6
CONTINUOUS
 62
     7
 10
493
 20
-227.5
 11
493
 21
-242.5
  0
LINE
  8
0
  6
CONTINUOUS
 62
     7
 10
513
 20
-227.5
 11
513
 21
-372.5
  0
LINE
  8
0
  6
CONTINUOUS
 62
     7
 10
513
 20
-227.5
 11
523
 21
-227.5
  0
LINE
  8
0
  6
CONTINUOUS
 62
     7
 10
513
 20
-372.5
 11
523
 21
-372.5
  0
LINE
  8
0
  6
CONTINUOUS
 62
     7
 10
493
 20
-247.5
 11
508
 21
-247.5
  0
LINE
  8
0
  6
CONTINUOUS
 62
     7
 10
493
 20
-352.5
 11
508
 21
-352.5
  0
LINE
  8
0
  6
CONTINUOUS
 62
     7
 10
488
 20
-230.4266357421875
 11
488
 21
-369.5733642578125
  0
LINE
  8
0
  6
CONTINUOUS
 62
     7
 10
493
 20
-357.5
 11
493
 21
-372.5
  0
LINE
  8
0
  6
CONTINUOUS
 62
     7
 10
488
 20
-230.4266357421875
 11
493
 21
-230.4266357421875
  0
LINE
  8
0
  6
CONTINUOUS
 62
     7
 10
488
 20
-369.5733642578125
 11
493
 21
-369.5733642578125
  0
LINE
  8
0
  6
CONTINUOUS
 62
     7
 10
478
 20
-227.5
 11
494
 21
-227.5
  0
LINE
  8
0
  6
CONTINUOUS
 62
     7
 10
478.8667907714844
 20
-221.6702270507812
 11
478
 21
-226.6106719970703
  0
LINE
  8
0
  6
CONTINUOUS
 62
     7
 10
493.1332092285156
 20
-221.6702270507812
 11
494
 21
-226.6107025146484
  0
LINE
  8
0
  6
CONTINUOUS
 62
     7
 10
486
 20
-219.7381744384766
 11
480.4438781738281
 21
-220.9320373535156
  0
LINE
  8
0
  6
CONTINUOUS
 62
     7
 10
486
 20
-219.7381744384766
 11
491.5560302734375
 21
-220.9320220947266
  0
LINE
  8
0
  6
CONTINUOUS
 62
     7
 10
494
 20
-226.6106872558594
 11
494
 21
-227.5
  0
LINE
  8
0
  6
CONTINUOUS
 62
     7
 10
441.5000305175781
 20
-375
 11
474.5
 21
-375
  0
LINE
  8
0
  6
CONTINUOUS
 62
     7
 10
441.5
 20
-225
 11
474.5
 21
-225
  0
LINE
  8
0
  6
CONTINUOUS
 62
     7
 10
441.5000305175781
 20
-225.0000152587891
 11
438.0000305175781
 21
-229.1609039306641
  0
LINE
  8
0
  6
CONTINUOUS
 62
     7
 10
474.5
 20
-224.9999847412109
 11
478
 21
-229.1608734130859
  0
LINE
  8
0
  6
CONTINUOUS
 62
     7
 10
441.5000305175781
 20
-374.9999694824219
 11
438.0000305175781
 21
-370.8390808105469
  0
LINE
  8
0
  6
CONTINUOUS
 62
     7
 10
474.5
 20
-375
 11
478
 21
-370.839111328125
  0
LINE
  8
0
  6
CONTINUOUS
 62
     7
 10
441.5
 20
-270.5653076171875
 11
474.5
 21
-270.5653076171875
  0
LINE
  8
0
  6
CONTINUOUS
 62
     7
 10
441.5
 20
-279.2552795410156
 11
474.5
 21
-279.2552795410156
  0
LINE
  8
0
  6
CONTINUOUS
 62
     7
 10
441.5
 20
-287.0502319335937
 11
474.5
 21
-287.0502319335937
  0
LINE
  8
0
  6
CONTINUOUS
 62
     7
 10
441.5
 20
-296.0000610351562
 11
474.5
 21
-296.0000610351562
  0
LINE
  8
0
  6
CONTINUOUS
 62
     7
 10
441.5
 20
-304.0000915527344
 11
474.5
 21
-304.0000915527344
  0
LINE
  8
0
  6
CONTINUOUS
 62
     7
 10
441.5
 20
-312.9499206542969
 11
474.5
 21
-312.9499206542969
  0
LINE
  8
0
  6
CONTINUOUS
 62
     7
 10
441.5
 20
-320.744873046875
 11
474.5
 21
-320.744873046875
  0
LINE
  8
0
  6
CONTINUOUS
 62
     7
 10
441.5
 20
-329.4347839355469
 11
474.5
 21
-329.4347839355469
  0
LINE
  8
0
  6
CONTINUOUS
 62
     7
 10
441.5
 20
-345.0232543945312
 11
474.5
 21
-345.0232543945312
  0
LINE
  8
0
  6
CONTINUOUS
 62
     7
 10
441.5
 20
-352.0454406738281
 11
474.5
 21
-352.0454406738281
  0
LINE
  8
0
  6
CONTINUOUS
 62
     7
 10
441.5
 20
-357.5014343261719
 11
474.5
 21
-357.5014343261719
  0
LINE
  8
0
  6
CONTINUOUS
 62
     7
 10
441.5
 20
-362.8594360351563
 11
474.5
 21
-362.8594360351563
  0
LINE
  8
0
  6
CONTINUOUS
 62
     7
 10
441.5
 20
-366.8594360351563
 11
474.5
 21
-366.8594360351563
  0
LINE
  8
0
  6
CONTINUOUS
 62
     7
 10
441.5
 20
-370.4512939453125
 11
474.5
 21
-370.4512939453125
  0
LINE
  8
0
  6
CONTINUOUS
 62
     7
 10
523
 20
-373.5
 11
545.5
 21
-373.5
  0
LINE
  8
0
  6
CONTINUOUS
 62
     7
 10
545.5
 20
-226.5
 11
545.5
 21
-373.5
  0
LINE
  8
0
  6
CONTINUOUS
 62
     7
 10
598.5
 20
-280
 11
598.5
 21
-320
  0
LINE
  8
0
  6
CONTINUOUS
 62
     7
 10
555.5
 20
-227.5
 11
545.5
 21
-227.5
  0
LINE
  8
0
  6
CONTINUOUS
 62
     7
 10
560.5
 20
-248
 11
555.5
 21
-248
  0
LINE
  8
0
  6
CONTINUOUS
 62
     7
 10
555.5
 20
-227.5
 11
555.5
 21
-372.5
  0
LINE
  8
0
  6
CONTINUOUS
 62
     7
 10
591.5
 20
-271.5
 11
591.5
 21
-328.5
  0
LINE
  8
0
  6
CONTINUOUS
 62
     7
 10
598.5000610351563
 20
-279.9999694824219
 11
591.5000610351562
 21
-275.9585266113281
  0
LINE
  8
0
  6
CONTINUOUS
 62
     7
 10
591.5
 20
-271.5
 11
579.3580322265625
 21
-271.5
  0
LINE
  8
0
  6
CONTINUOUS
 62
     7
 10
598.5000610351563
 20
-320.0000305175781
 11
591.5000610351562
 21
-324.0414733886719
  0
LINE
  8
0
  6
CONTINUOUS
 62
     7
 10
560.5
 20
-352
 11
560.5
 21
-248
  0
LINE
  8
0
  6
CONTINUOUS
 62
     7
 10
560.5
 20
-352
 11
555.5
 21
-352
  0
LINE
  8
0
  6
CONTINUOUS
 62
     7
 10
555.5
 20
-372.5
 11
545.5
 21
-372.5
  0
LINE
  8
0
  6
CONTINUOUS
 62
     7
 10
632.5
 20
-288
 11
607.5
 21
-288
  0
LINE
  8
0
  6
CONTINUOUS
 62
     7
 10
632.5
 20
-288
 11
632.5
 21
-309.5
  0
LINE
  8
0
  6
CONTINUOUS
 62
     7
 10
632.5
 20
-309.5
 11
602.5
 21
-309.5
  0
LINE
  8
0
  6
CONTINUOUS
 62
     7
 10
632.5
 20
-290.5
 11
602.5
 21
-290.5
  0
LINE
  8
0
  6
CONTINUOUS
 62
     7
 10
602.5
 20
-287.5
 11
602.5
 21
-312.5
  0
LINE
  8
0
  6
CONTINUOUS
 62
     7
 10
602.5
 20
-312.5
 11
598.5
 21
-312.5
  0
LINE
  8
0
  6
CONTINUOUS
 62
     7
 10
602.5
 20
-287.5
 11
598.5
 21
-287.5
  0
LINE
  8
0
  6
CONTINUOUS
 62
     7
 10
607.5
 20
-288
 11
607.5
 21
-290.5
  0
LINE
  8
0
  6
CONTINUOUS
 62
     7
 10
591.5
 20
-328.5
 11
579.3580322265625
 21
-328.5
  0
LINE
  8
0
  6
CONTINUOUS
 62
     7
 10
580
 20
-294.0823974609375
 11
560.5000610351562
 21
-289.03125
  0
LINE
  8
0
  6
CONTINUOUS
 62
     7
 10
579.9999389648438
 20
-280.9352722167969
 11
560.5
 21
-267.1353149414062
  0
LINE
  8
0
  6
CONTINUOUS
 62
     7
 10
560.5000610351562
 20
-253.2694854736328
 11
580.0000610351563
 21
-272.12060546875
  0
LINE
  8
0
  6
CONTINUOUS
 62
     7
 10
580
 20
-308.8154296875
 11
560.5
 21
-313.8665466308594
  0
LINE
  8
0
  6
CONTINUOUS
 62
     7
 10
560.5000610351562
 20
-334.9861145019531
 11
580.0000610351563
 21
-321.1861572265625
  0
LINE
  8
0
  6
CONTINUOUS
 62
     7
 10
560.5
 20
-346.7305297851562
 11
579.9999389648438
 21
-327.8794250488281
  0
LINE
  8
0
  6
CONTINUOUS
 62
     7
 10
523
 20
-226.5
 11
545.5
 21
-226.5
  0
LINE
  8
0
  6
CONTINUOUS
 62
     7
 10
350
 20
-200.0000152587891
 11
350
 21
-255.0733337402344
  0
LINE
  8
0
  6
CONTINUOUS
 62
     7
 10
438
 20
-227.5
 11
438
 21
-372.5
  0
LINE
  8
0
  6
CONTINUOUS
 62
     7
 10
350
 20
-200.0000152587891
 11
364
 21
-200.0000152587891
  0
LINE
  8
0
  6
CONTINUOUS
 62
     7
 10
350
 20
-400
 11
364
 21
-400
  0
LINE
  8
0
  6
CONTINUOUS
 62
     7
 10
364
 20
-200.0000152587891
 11
364
 21
-400
  0
LINE
  8
0
  6
CONTINUOUS
 62
     7
 10
426
 20
-227.5
 11
426
 21
-232.0078582763672
  0
LINE
  8
0
  6
CONTINUOUS
 62
     7
 10
426
 20
-227.5
 11
438
 21
-227.5
  0
LINE
  8
0
  6
CONTINUOUS
 62
     7
 10
426
 20
-372.5
 11
438
 21
-372.5
  0
LINE
  8
0
  6
CONTINUOUS
 62
     3
 10
272.5951843261719
 20
-300
 11
638.9669189453125
 21
-300
  0
LINE
  8
0
  6
CONTINUOUS
 62
     7
 10
346
 20
-235
 11
346
 21
-250.1512145996094
  0
LINE
  8
0
  6
CONTINUOUS
 62
     7
 10
346
 20
-365
 11
350
 21
-365
  0
LINE
  8
0
  6
CONTINUOUS
 62
     7
 10
346
 20
-235
 11
350
 21
-235
  0
LINE
  8
0
  6
CONTINUOUS
 62
     7
 10
346
 20
-337.5
 11
346
 21
-365
  0
LINE
  8
0
  6
CONTINUOUS
 62
     7
 10
350
 20
-334.6339416503906
 11
350
 21
-400
  0
LINE
  8
0
  6
CONTINUOUS
 62
     7
 10
300
 20
-279.5
 11
300
 21
-317.5
  0
LINE
  8
0
  6
CONTINUOUS
 62
     7
 10
300
 20
-317.5
 11
350
 21
-317.5
  0
LINE
  8
0
  6
CONTINUOUS
 62
     7
 10
300
 20
-282.5
 11
350
 21
-282.5
  0
LINE
  8
0
  6
CONTINUOUS
 62
     7
 10
350
 20
-277.5
 11
350
 21
-322.5
  0
LINE
  8
0
  6
CONTINUOUS
 62
     7
 10
350
 20
-277.5
 11
352.8544921875
 21
-277.5
  0
LINE
  8
0
  6
CONTINUOUS
 62
     7
 10
350
 20
-322.5
 11
354.5507202148437
 21
-322.5
  0
LINE
  8
0
  6
CONTINUOUS
 62
     7
 10
300
 20
-279.5
 11
340
 21
-279.5
  0
LINE
  8
0
  6
CONTINUOUS
 62
     7
 10
340
 20
-279.5
 11
340
 21
-282.5
  0
LINE
  8
0
  6
CONTINUOUS
 62
     7
 10
364
 20
-361.5646057128906
 11
426.0000305175781
 21
-348.3831176757812
  0
LINE
  8
0
  6
CONTINUOUS
 62
     7
 10
426
 20
-353.839111328125
 11
364
 21
-367.0205993652344
  0
LINE
  8
0
  6
CONTINUOUS
 62
     7
 10
364
 20
-332.2114562988281
 11
426
 21
-332.2114562988281
  0
LINE
  8
0
  6
CONTINUOUS
 62
     7
 10
364
 20
-267.7885437011719
 11
426
 21
-267.7885437011719
  0
LINE
  8
0
  6
CONTINUOUS
 62
     7
 10
426
 20
-251.6168823242188
 11
408
 21
-251.6168823242188
  0
LINE
  8
0
  6
CONTINUOUS
 62
     7
 10
364
 20
-232.9794006347656
 11
404.3399353027344
 21
-245.0644073486328
  0
LINE
  8
0
  6
CONTINUOUS
 62
     7
 10
364
 20
-238.4353942871094
 11
408
 21
-251.6168975830078
  0
LINE
  8
0
  6
CONTINUOUS
 62
     7
 10
423
 20
-232.0078582763672
 11
426
 21
-232.0078582763672
  0
LINE
  8
0
  6
CONTINUOUS
 62
     7
 10
426
 20
-251.6168823242188
 11
426
 21
-372.5
  0
LINE
  8
0
  6
CONTINUOUS
 62
     7
 10
406.7857971191406
 20
-243.8526763916016
 11
408.4338073730469
 21
-239.4714813232422
  0
LINE
  8
0
  6
CONTINUOUS
 62
     7
 10
-15.07009601593018
 20
-196.3928375244141
 11
-14.2540111541748
 21
-201.0210876464844
  0
LINE
  8
0
  6
CONTINUOUS
 62
     7
 10
-21.27437973022461
 20
-197.4868469238281
 11
-20.45829391479492
 21
-202.1150970458984
  0
LINE
  8
0
  6
CONTINUOUS
 62
     3
 10
-106.1666641235352
 20
-300
 11
105.1666641235352
 21
-300
  0
LINE
  8
0
  6
CONTINUOUS
 62
     3
 10
0
 20
-196.3333435058594
 11
0
 21
-404
  0
LINE
  8
0
  6
CONTINUOUS
 62
     7
 10
-5
 20
-279.5
 11
-5
 21
-287.5
  0
LINE
  8
0
  6
CONTINUOUS
 62
     7
 10
5
 20
-279.5
 11
5
 21
-287.5
  0
LINE
  8
0
  6
CONTINUOUS
 62
     7
 10
-5
 20
-287.5
 11
5
 21
-287.5
  0
LINE
  8
0
  6
CONTINUOUS
 62
     7
 10
-5
 20
-279.5
 11
5
 21
-279.5
  0
LINE
  8
0
  6
CONTINUOUS
 62
     7
 10
478
 20
72.5
 11
478
 21
20.80316162109375
  0
LINE
  8
0
  6
CONTINUOUS
 62
     7
 10
478
 20
-72.5
 11
488
 21
-72.5
  0
LINE
  8
0
  6
CONTINUOUS
 62
     7
 10
478
 20
72.5
 11
488
 21
72.5
  0
LINE
  8
0
  6
CONTINUOUS
 62
     7
 10
523
 20
73.5
 11
523
 21
-73.5
  0
LINE
  8
0
  6
CONTINUOUS
 62
     7
 10
513
 20
72.5
 11
513
 21
-72.5
  0
LINE
  8
0
  6
CONTINUOUS
 62
     7
 10
513
 20
72.5
 11
523
 21
72.5
  0
LINE
  8
0
  6
CONTINUOUS
 62
     7
 10
513
 20
-72.5
 11
523
 21
-72.5
  0
LINE
  8
0
  6
CONTINUOUS
 62
     7
 10
493
 20
52.5
 11
508
 21
52.5
  0
LINE
  8
0
  6
CONTINUOUS
 62
     7
 10
493
 20
-52.5
 11
508
 21
-52.5
  0
LINE
  8
0
  6
CONTINUOUS
 62
     7
 10
488
 20
72.5
 11
488
 21
21.24783325195312
  0
LINE
  8
0
  6
CONTINUOUS
 62
     7
 10
493
 20
9.123565673828125
 11
493
 21
-20.39105224609375
  0
LINE
  8
0
  6
CONTINUOUS
 62
     7
 10
488
 20
-20.39105224609375
 11
493
 21
-20.39105224609375
  0
LINE
  8
0
  6
CONTINUOUS
 62
     7
 10
488
 20
-20.39105224609375
 11
488
 21
-72.5
  0
LINE
  8
0
  6
CONTINUOUS
 62
     7
 10
478
 20
10.97433471679687
 11
478
 21
-72.5
  0
LINE
  8
0
  6
CONTINUOUS
 62
     7
 10
441.5
 20
75
 11
474.5
 21
75
  0
LINE
  8
0
  6
CONTINUOUS
 62
     7
 10
441.4999694824219
 20
74.99998474121094
 11
437.9999694824219
 21
70.83908843994141
  0
LINE
  8
0
  6
CONTINUOUS
 62
     7
 10
474.5
 20
74.99996948242188
 11
478
 21
70.83907318115234
  0
LINE
  8
0
  6
CONTINUOUS
 62
     7
 10
474.4999694824219
 20
-74.99999237060547
 11
477.9999694824219
 21
-70.83909606933594
  0
LINE
  8
0
  6
CONTINUOUS
 62
     7
 10
441.5
 20
-75
 11
474.5
 21
-75
  0
LINE
  8
0
  6
CONTINUOUS
 62
     7
 10
441.5
 20
-74.99998474121094
 11
438.0000305175781
 21
-70.839111328125
  0
LINE
  8
0
  6
CONTINUOUS
 62
     7
 10
441.5
 20
72.07391357421875
 11
474.5
 21
72.07391357421875
  0
LINE
  8
0
  6
CONTINUOUS
 62
     7
 10
441.5
 20
68.98251342773437
 11
474.5
 21
68.98251342773437
  0
LINE
  8
0
  6
CONTINUOUS
 62
     7
 10
441.5
 20
59.98248291015625
 11
474.5
 21
59.98248291015625
  0
LINE
  8
0
  6
CONTINUOUS
 62
     7
 10
441.5
 20
54.0025634765625
 11
474.5
 21
54.0025634765625
  0
LINE
  8
0
  6
CONTINUOUS
 62
     7
 10
441.5
 20
40.91079711914063
 11
474.5
 21
40.91079711914063
  0
LINE
  8
0
  6
CONTINUOUS
 62
     7
 10
441.5
 20
48.15170288085938
 11
474.5
 21
48.15170288085938
  0
LINE
  8
0
  6
CONTINUOUS
 62
     7
 10
441.5
 20
33.98257446289063
 11
474.5
 21
33.98257446289063
  0
LINE
  8
0
  6
CONTINUOUS
 62
     7
 10
441.5
 20
25.72195434570313
 11
474.5
 21
25.72195434570313
  0
LINE
  8
0
  6
CONTINUOUS
 62
     7
 10
441.5
 20
18.07150268554688
 11
470.4561767578125
 21
18.07150268554688
  0
LINE
  8
0
  6
CONTINUOUS
 62
     7
 10
441.5
 20
9.00006103515625
 11
474.5
 21
9.00006103515625
  0
LINE
  8
0
  6
CONTINUOUS
 62
     7
 10
441.5
 20
-68.98260498046875
 11
474.5
 21
-68.98260498046875
  0
LINE
  8
0
  6
CONTINUOUS
 62
     7
 10
441.5
 20
-72.07395935058594
 11
474.5
 21
-72.07395935058594
  0
LINE
  8
0
  6
CONTINUOUS
 62
     7
 10
598.5
 20
20
 11
598.5
 21
-20
  0
LINE
  8
0
  6
CONTINUOUS
 62
     7
 10
552.5
 20
72.5
 11
545.5
 21
72.5
  0
LINE
  8
0
  6
CONTINUOUS
 62
     7
 10
560.5
 20
52
 11
555.5
 21
52
  0
LINE
  8
0
  6
CONTINUOUS
 62
     7
 10
552.5
 20
72.5
 11
552.5
 21
63.92559814453125
  0
LINE
  8
0
  6
CONTINUOUS
 62
     7
 10
555.5
 20
63.92559814453125
 11
555.5
 21
-63.92559814453125
  0
LINE
  8
0
  6
CONTINUOUS
 62
     7
 10
591.5
 20
28.5
 11
591.5
 21
-28.5
  0
LINE
  8
0
  6
CONTINUOUS
 62
     7
 10
598.5
 20
20.00016975402832
 11
591.5
 21
24.04161262512207
  0
LINE
  8
0
  6
CONTINUOUS
 62
     7
 10
591.5
 20
28.5
 11
579.3580322265625
 21
28.5
  0
LINE
  8
0
  6
CONTINUOUS
 62
     7
 10
598.5
 20
-19.99994468688965
 11
591.5
 21
-24.0413875579834
  0
LINE
  8
0
  6
CONTINUOUS
 62
     7
 10
591.5
 20
-28.5
 11
579.3580322265625
 21
-28.5
  0
LINE
  8
0
  6
CONTINUOUS
 62
     7
 10
560.5
 20
-52
 11
560.5
 21
52
  0
LINE
  8
0
  6
CONTINUOUS
 62
     7
 10
560.5
 20
-52
 11
555.5
 21
-52
  0
LINE
  8
0
  6
CONTINUOUS
 62
     7
 10
552.5
 20
-72.5
 11
545.5
 21
-72.5
  0
LINE
  8
0
  6
CONTINUOUS
 62
     7
 10
555.5
 20
63.92559814453125
 11
552.5
 21
63.92559814453125
  0
LINE
  8
0
  6
CONTINUOUS
 62
     7
 10
555.5
 20
-63.92559814453125
 11
552.5
 21
-63.92559814453125
  0
LINE
  8
0
  6
CONTINUOUS
 62
     7
 10
632.5
 20
9.5
 11
632.5
 21
-9.5
  0
LINE
  8
0
  6
CONTINUOUS
 62
     7
 10
632.5
 20
-9.5
 11
602.5
 21
-9.5
  0
LINE
  8
0
  6
CONTINUOUS
 62
     7
 10
632.5
 20
9.5
 11
602.5
 21
9.5
  0
LINE
  8
0
  6
CONTINUOUS
 62
     7
 10
602.5
 20
12.5
 11
602.5
 21
-12.5
  0
LINE
  8
0
  6
CONTINUOUS
 62
     7
 10
602.5
 20
-12.5
 11
598.5
 21
-12.5
  0
LINE
  8
0
  6
CONTINUOUS
 62
     7
 10
602.5
 20
12.5
 11
598.5
 21
12.5
  0
LINE
  8
0
  6
CONTINUOUS
 62
     7
 10
632.5
 20
3
 11
607.5
 21
3
  0
LINE
  8
0
  6
CONTINUOUS
 62
     7
 10
632.5
 20
-3
 11
607.5
 21
-3
  0
LINE
  8
0
  6
CONTINUOUS
 62
     7
 10
607.5
 20
3
 11
607.5
 21
-3
  0
LINE
  8
0
  6
CONTINUOUS
 62
     7
 10
580
 20
5.917636871337891
 11
560.5
 21
10.96876907348633
  0
LINE
  8
0
  6
CONTINUOUS
 62
     7
 10
580
 20
19.06469345092773
 11
560.5
 21
32.86468124389648
  0
LINE
  8
0
  6
CONTINUOUS
 62
     7
 10
560.5
 20
46.73048782348633
 11
580
 21
27.87938499450684
  0
LINE
  8
0
  6
CONTINUOUS
 62
     7
 10
580.0000610351563
 20
-5.91755485534668
 11
560.5000610351562
 21
-10.96869468688965
  0
LINE
  8
0
  6
CONTINUOUS
 62
     7
 10
580.0000610351563
 20
-19.06472206115723
 11
560.5000610351562
 21
-32.86471176147461
  0
LINE
  8
0
  6
CONTINUOUS
 62
     7
 10
560.5
 20
-46.73050689697266
 11
579.9999389648438
 21
-27.87942695617676
  0
LINE
  8
0
  6
CONTINUOUS
 62
     7
 10
552.5
 20
-63.92559814453125
 11
552.5
 21
-72.5
  0
LINE
  8
0
  6
CONTINUOUS
 62
     7
 10
523
 20
73.5
 11
545.5
 21
73.5
  0
LINE
  8
0
  6
CONTINUOUS
 62
     7
 10
523
 20
-73.5
 11
545.5
 21
-73.5
  0
LINE
  8
0
  6
CONTINUOUS
 62
     7
 10
545.5
 20
73.5
 11
545.5
 21
-73.5
  0
LINE
  8
0
  6
CONTINUOUS
 62
     7
 10
350
 20
-100
 11
350
 21
-34.65777587890625
  0
LINE
  8
0
  6
CONTINUOUS
 62
     7
 10
438
 20
-72.5
 11
438
 21
72.5
  0
LINE
  8
0
  6
CONTINUOUS
 62
     7
 10
350
 20
-100
 11
364
 21
-100
  0
LINE
  8
0
  6
CONTINUOUS
 62
     7
 10
350
 20
100
 11
364
 21
100
  0
LINE
  8
0
  6
CONTINUOUS
 62
     7
 10
364
 20
-100
 11
364
 21
100
  0
LINE
  8
0
  6
CONTINUOUS
 62
     7
 10
426
 20
-72.5
 11
438
 21
-72.5
  0
LINE
  8
0
  6
CONTINUOUS
 62
     7
 10
426
 20
72.5
 11
438
 21
72.5
  0
LINE
  8
0
  6
CONTINUOUS
 62
     3
 10
272.5951843261719
 20
0
 11
638.2960205078125
 21
0
  0
LINE
  8
0
  6
CONTINUOUS
 62
     7
 10
426
 20
-72.5
 11
426
 21
-53.87158203125
  0
LINE
  8
0
  6
CONTINUOUS
 62
     7
 10
346
 20
-65
 11
346
 21
-37.5
  0
LINE
  8
0
  6
CONTINUOUS
 62
     7
 10
346
 20
65
 11
350
 21
65
  0
LINE
  8
0
  6
CONTINUOUS
 62
     7
 10
346
 20
-65
 11
350
 21
-65
  0
LINE
  8
0
  6
CONTINUOUS
 62
     7
 10
346
 20
37.5
 11
346
 21
65
  0
LINE
  8
0
  6
CONTINUOUS
 62
     7
 10
350
 20
35.2025146484375
 11
350
 21
100
  0
LINE
  8
0
  6
CONTINUOUS
 62
     7
 10
300
 20
-17.5
 11
300
 21
17.5
  0
LINE
  8
0
  6
CONTINUOUS
 62
     7
 10
300
 20
17.5
 11
350
 21
17.5
  0
LINE
  8
0
  6
CONTINUOUS
 62
     7
 10
300
 20
-17.5
 11
350
 21
-17.5
  0
LINE
  8
0
  6
CONTINUOUS
 62
     7
 10
300
 20
5
 11
343
 21
5
  0
LINE
  8
0
  6
CONTINUOUS
 62
     7
 10
300
 20
-5
 11
343
 21
-5
  0
LINE
  8
0
  6
CONTINUOUS
 62
     7
 10
350
 20
-22.5
 11
350
 21
22.5
  0
LINE
  8
0
  6
CONTINUOUS
 62
     7
 10
350
 20
-22.5
 11
355.4730834960938
 21
-22.5
  0
LINE
  8
0
  6
CONTINUOUS
 62
     7
 10
350
 20
22.5
 11
356.8088684082031
 21
22.5
  0
LINE
  8
0
  6
CONTINUOUS
 62
     7
 10
340
 20
5
 11
340
 21
-5
  0
LINE
  8
0
  6
CONTINUOUS
 62
     7
 10
364
 20
62.87919998168945
 11
425.9999694824219
 21
50.58725738525391
  0
LINE
  8
0
  6
CONTINUOUS
 62
     7
 10
363.9999694824219
 20
57.02841949462891
 11
426
 21
44.73646926879883
  0
LINE
  8
0
  6
CONTINUOUS
 62
     7
 10
374
 20
-29.46539306640625
 11
404.5042419433594
 21
-29.46539306640625
  0
LINE
  8
0
  6
CONTINUOUS
 62
     7
 10
408.502197265625
 20
-44.7364501953125
 11
408
 21
-44.7364501953125
  0
LINE
  8
0
  6
CONTINUOUS
 62
     7
 10
412.7921142578125
 20
-50.5872802734375
 11
408
 21
-50.5872802734375
  0
LINE
  8
0
  6
CONTINUOUS
 62
     7
 10
364
 20
-57.02840042114258
 11
408
 21
-44.73645401000977
  0
LINE
  8
0
  6
CONTINUOUS
 62
     7
 10
364
 20
-62.87924194335938
 11
408
 21
-50.58729934692383
  0
LINE
  8
0
  6
CONTINUOUS
 62
     7
 10
369
 20
33.1107177734375
 11
421
 21
33.1107177734375
  0
LINE
  8
0
  6
CONTINUOUS
 62
     7
 10
369
 20
9.10064697265625
 11
421
 21
9.10064697265625
  0
LINE
  8
0
  6
CONTINUOUS
 62
     7
 10
419.4734497070313
 20
-16.39154052734375
 11
426
 21
-16.39154052734375
  0
LINE
  8
0
  6
CONTINUOUS
 62
     7
 10
423
 20
-29.2969970703125
 11
426
 21
-29.2969970703125
  0
LINE
  8
0
  6
CONTINUOUS
 62
     7
 10
423
 20
-53.87158203125
 11
426
 21
-53.87158203125
  0
LINE
  8
0
  6
CONTINUOUS
 62
     7
 10
404.835693359375
 20
-31.36278343200684
 11
408.3622131347656
 21
-44.26826095581055
  0
LINE
  8
0
  6
CONTINUOUS
 62
     7
 10
426
 20
-29.2969970703125
 11
426
 21
72.5
  0
LINE
  8
0
  6
CONTINUOUS
 62
     7
 10
-19.45501518249512
 20
-189.6648406982422
 11
-16.58737564086914
 21
-205.9280395507813
  0
LINE
  8
0
  6
CONTINUOUS
 62
     7
 10
486
 20
-189.6078186035156
 11
486
 21
-232.0987243652344
  0
LINE
  8
0
  6
CONTINUOUS
 62
     7
 10
464.740478515625
 20
-209.8900909423828
 11
507.044189453125
 21
-209.8900909423828
  0
ARC
  8
0
  6
CONTINUOUS
 62
     7
 10
498
 20
-242.5
 40
4.999999999999981
 50
179.9999776881996
 51
270.0000280040023
  0
ARC
  8
0
  6
CONTINUOUS
 62
     7
 10
493
 20
-242.5
 40
4.999999999999981
 50
179.9999776881996
 51
270.0000280040023
  0
ARC
  8
0
  6
CONTINUOUS
 62
     7
 10
493
 20
-357.5
 40
4.999999999999981
 50
89.99992737239761
 51
179.9999640278213
  0
ARC
  8
0
  6
CONTINUOUS
 62
     7
 10
498
 20
-357.5
 40
4.999999999999981
 50
89.99992737239761
 51
179.9999640278213
  0
ARC
  8
0
  6
CONTINUOUS
 62
     7
 10
508
 20
-242.5
 40
5.000000000000004
 50
269.9999974955215
 51
0
  0
ARC
  8
0
  6
CONTINUOUS
 62
     7
 10
508
 20
-357.5
 40
5
 50
0
 51
90.00000250447847
  0
ARC
  8
0
  6
CONTINUOUS
 62
     7
 10
404.9138793945313
 20
-243.1485290527344
 40
1.999999999999981
 50
253.3228612028857
 51
339.3860451226057
  0
ARC
  8
0
  6
CONTINUOUS
 62
     7
 10
-18.1722412109375
 20
-196.9398651123047
 40
3.150000095367433
 50
9.999998855319467
 51
189.9999620293669
  0
CIRCLE
  8
0
  6
CONTINUOUS
 62
     7
 10
6.103515625E-05
 20
-300
 40
100
  0
ARC
  8
0
  6
CONTINUOUS
 62
     3
 10
0
 20
-300.0000610351563
 40
82.5
 50
349.524361285033
 51
10.47572494610525
  0
CIRCLE
  8
0
  6
CONTINUOUS
 62
     7
 10
0
 20
-300
 40
60
  0
CIRCLE
  8
0
  6
CONTINUOUS
 62
     7
 10
0
 20
-300
 40
65
  0
ARC
  8
0
  6
CONTINUOUS
 62
     7
 10
0
 20
-300
 40
17.49999999999998
 50
106.6015695841379
 51
73.39842495216357
  0
CIRCLE
  8
0
  6
CONTINUOUS
 62
     7
 10
82.5
 20
-300
 40
6
  0
CIRCLE
  8
0
  6
CONTINUOUS
 62
     7
 10
0
 20
-217.5
 40
6
  0
ARC
  8
0
  6
CONTINUOUS
 62
     3
 10
6.103515625E-05
 20
-300
 40
82.49999999999999
 50
79.52436378951118
 51
100.4757231817152
  0
CIRCLE
  8
0
  6
CONTINUOUS
 62
     7
 10
-82.5
 20
-300
 40
6
  0
ARC
  8
0
  6
CONTINUOUS
 62
     3
 10
0
 20
-299.9999389648437
 40
82.49999999999999
 50
169.5243662939893
 51
190.4757256861934
  0
CIRCLE
  8
0
  6
CONTINUOUS
 62
     7
 10
0
 20
-382.5
 40
6
  0
ARC
  8
0
  6
CONTINUOUS
 62
     3
 10
-6.103515625E-05
 20
-300
 40
82.5
 50
259.5243587805548
 51
280.475725002948
  0
ARC
  8
0
  6
CONTINUOUS
 62
     7
 10
493
 20
-57.5
 40
4.999999999999997
 50
89.99998201391097
 51
179.9999640278213
  0
ARC
  8
0
  6
CONTINUOUS
 62
     7
 10
493
 20
57.5
 40
4.999999999999981
 50
179.9999776881996
 51
270.0000280040023
  0
ARC
  8
0
  6
CONTINUOUS
 62
     7
 10
508
 20
-57.5
 40
5
 50
0
 51
90.00000250447847
  0
ARC
  8
0
  6
CONTINUOUS
 62
     7
 10
508
 20
57.5
 40
4.999999999999997
 50
269.9999974955215
 51
0
  0
ARC
  8
0
  6
CONTINUOUS
 62
     7
 10
607.5
 20
0
 40
3
 50
89.99998201390989
 51
269.9999460417318
  0
ARC
  8
0
  6
CONTINUOUS
 62
     7
 10
343
 20
0
 40
5
 50
270.0000179860891
 51
89.99998201391097
  0
ARC
  8
0
  6
CONTINUOUS
 62
     7
 10
369
 20
38.1107177734375
 40
5
 50
179.999991348578
 51
270.0000006832456
  0
ARC
  8
0
  6
CONTINUOUS
 62
     7
 10
421
 20
38.1107177734375
 40
4.999999999999997
 50
269.9999974955215
 51
0
  0
ARC
  8
0
  6
CONTINUOUS
 62
     7
 10
369
 20
14.10064697265625
 40
5
 50
179.999991348578
 51
270.0000006832456
  0
ARC
  8
0
  6
CONTINUOUS
 62
     7
 10
421
 20
14.10064697265625
 40
4.999999999999999
 50
269.9999974955215
 51
360
  0
ARC
  8
0
  6
CONTINUOUS
 62
     7
 10
374
 20
-39.46539306640625
 40
9.999999999999998
 50
90.00000250447815
 51
180.0000050089563
  0
POLYLINE
  8
0
  6
CONTINUOUS
 62
     7
 66
     1
 10
0
 20
0
  0
VERTEX
  8
0
  6
CONTINUOUS
 62
     7
 10
493.5611891920869
 20
-224.1081479795829
 42
0.08272214436006069
  0
VERTEX
  8
0
  6
CONTINUOUS
 62
     7
 10
497.8481326217577
 20
-220.9067989025598
 42
0.08385195724972314
  0
VERTEX
  8
0
  6
CONTINUOUS
 62
     7
 10
500.8558385509184
 20
-216.4818604724658
 42
0.08471352835312752
  0
VERTEX
  8
0
  6
CONTINUOUS
 62
     7
 10
502.2339010333826
 20
-211.3125010270074
 42
0.08490394484122268
  0
VERTEX
  8
0
  6
CONTINUOUS
 62
     7
 10
501.816633618275
 20
-205.9801493042962
 42
0.0843695475630741
  0
VERTEX
  8
0
  6
CONTINUOUS
 62
     7
 10
499.6548502984402
 20
-201.086903879803
 42
0.08333436534516164
  0
VERTEX
  8
0
  6
CONTINUOUS
 62
     7
 10
496.0050714789341
 20
-197.1746333523449
 42
0.08226407607551715
  0
VERTEX
  8
0
  6
CONTINUOUS
 62
     7
 10
491.2827009051663
 20
-194.6575649971801
 42
0.08162575954467063
  0
VERTEX
  8
0
  6
CONTINUOUS
 62
     7
 10
486
 20
-193.7898559570312
 42
0.08158651728712835
  0
VERTEX
  8
0
  6
CONTINUOUS
 62
     7
 10
480.7197300902632
 20
-194.6567438212063
 42
0.08224709535877761
  0
VERTEX
  8
0
  6
CONTINUOUS
 62
     7
 10
475.9978138242716
 20
-197.1724213062728
 42
0.08333889015943623
  0
VERTEX
  8
0
  6
CONTINUOUS
 62
     7
 10
472.3469676925434
 20
-201.0841539537639
 42
0.08437845610599258
  0
VERTEX
  8
0
  6
CONTINUOUS
 62
     7
 10
470.1840281944521
 20
-205.9775299915169
 42
0.08490760073460465
  0
VERTEX
  8
0
  6
CONTINUOUS
 62
     7
 10
469.7658742511384
 20
-211.3100454668092
 42
0.08470970460367058
  0
VERTEX
  8
0
  6
CONTINUOUS
 62
     7
 10
471.1430272189461
 20
-216.4793823841288
 42
0.08383810240637067
  0
VERTEX
  8
0
  6
CONTINUOUS
 62
     7
 10
474.1493426858557
 20
-220.9041628187437
 42
0.08273731688226989
  0
VERTEX
  8
0
  6
CONTINUOUS
 62
     7
 10
478.4364020168161
 20
-224.1069037398442
 42
0
  0
SEQEND
  8
0
  0
POLYLINE
  8
0
  6
CONTINUOUS
 62
     7
 66
     1
 10
0
 20
0
 70
     1
  0
VERTEX
  8
0
  6
CONTINUOUS
 62
     7
 10
496
 20
-209.8900909423828
 42
0.1005697614596661
  0
VERTEX
  8
0
  6
CONTINUOUS
 62
     7
 10
495.2286164258952
 20
-206.0972835948851
 42
0.09931459426856488
  0
VERTEX
  8
0
  6
CONTINUOUS
 62
     7
 10
493.0449283026197
 20
-202.900797913141
 42
0.09762475566250212
  0
VERTEX
  8
0
  6
CONTINUOUS
 62
     7
 10
489.8027735203133
 20
-200.7818698241244
 42
0.09645742494750432
  0
VERTEX
  8
0
  6
CONTINUOUS
 62
     7
 10
486
 20
-200.0420074462891
 42
0.09643683433006452
  0
VERTEX
  8
0
  6
CONTINUOUS
 62
     7
 10
482.1979889324393
 20
-200.7815611270046
 42
0.09759325526352944
  0
VERTEX
  8
0
  6
CONTINUOUS
 62
     7
 10
478.9565369725482
 20
-202.8993658033249
 42
0.0993525514716468
  0
VERTEX
  8
0
  6
CONTINUOUS
 62
     7
 10
476.7715980621025
 20
-206.0967774812675
 42
0.1005839922554217
  0
VERTEX
  8
0
  6
CONTINUOUS
 62
     7
 10
476
 20
-209.8900909423828
 42
0.1005699380586648
  0
VERTEX
  8
0
  6
CONTINUOUS
 62
     7
 10
476.7713844715514
 20
-213.6828980014489
 42
0.09931486592913845
  0
VERTEX
  8
0
  6
CONTINUOUS
 62
     7
 10
478.955076428439
 20
-216.8793809132591
 42
0.09762481604127034
  0
VERTEX
  8
0
  6
CONTINUOUS
 62
     7
 10
482.1972352694487
 20
-218.9983027098581
 42
0.09645692972528659
  0
VERTEX
  8
0
  6
CONTINUOUS
 62
     7
 10
486
 20
-219.7381591796875
 42
0.09643659111140725
  0
VERTEX
  8
0
  6
CONTINUOUS
 62
     7
 10
489.8020116123553
 20
-218.9986076263891
 42
0.0975933204109851
  0
VERTEX
  8
0
  6
CONTINUOUS
 62
     7
 10
493.0434655186983
 20
-216.8808059607914
 42
0.09935282727087323
  0
VERTEX
  8
0
  6
CONTINUOUS
 62
     7
 10
495.2284049781671
 20
-213.6833948232787
 42
0.100583908041162
  0
SEQEND
  8
0
  0
POLYLINE
  8
0
  6
CONTINUOUS
 62
     7
 66
     1
 10
0
 20
0
  0
VERTEX
  8
0
  6
CONTINUOUS
 62
     7
 10
493.133260319332
 20
-221.6705082286607
 42
0.2015082714048094
  0
VERTEX
  8
0
  6
CONTINUOUS
 62
     7
 10
492.4032570372444
 20
-221.1620278178304
 42
0.03155962249731195
  0
VERTEX
  8
0
  6
CONTINUOUS
 62
     7
 10
491.513428586751
 20
-220.9229466748142
 42
0.01542694082230314
  0
VERTEX
  8
0
  6
CONTINUOUS
 62
     7
 10
490.6057895615067
 20
-220.7635852299206
 42
0.01021026469517426
  0
VERTEX
  8
0
  6
CONTINUOUS
 62
     7
 10
489.6902648884376
 20
-220.6497806231095
 42
0.007829247746737015
  0
VERTEX
  8
0
  6
CONTINUOUS
 62
     7
 10
488.7711859274284
 20
-220.5686921155886
 42
0.006588713842222284
  0
VERTEX
  8
0
  6
CONTINUOUS
 62
     7
 10
487.8499521814702
 20
-220.5139474174719
 42
0.005931101374143036
  0
VERTEX
  8
0
  6
CONTINUOUS
 62
     7
 10
486.9275498075578
 20
-220.4821798476608
 42
0.005641265167905947
  0
VERTEX
  8
0
  6
CONTINUOUS
 62
     7
 10
486.0046231181427
 20
-220.4716952056555
 42
0.005639189148601704
  0
VERTEX
  8
0
  6
CONTINUOUS
 62
     7
 10
485.0818052347442
 20
-220.481968535918
 42
0.005918164220033197
  0
VERTEX
  8
0
  6
CONTINUOUS
 62
     7
 10
484.1606368483845
 20
-220.5134566653092
 42
0.006584376604926416
  0
VERTEX
  8
0
  6
CONTINUOUS
 62
     7
 10
483.2386271257536
 20
-220.5679774050531
 42
0.007814520412701685
  0
VERTEX
  8
0
  6
CONTINUOUS
 62
     7
 10
482.3191934726263
 20
-220.6487926334559
 42
0.01018488360748045
  0
VERTEX
  8
0
  6
CONTINUOUS
 62
     7
 10
481.4029309451887
 20
-220.7623111264577
 42
0.01540565567861852
  0
VERTEX
  8
0
  6
CONTINUOUS
 62
     7
 10
480.4926603793591
 20
-220.9216651729646
 42
0.03141742369796847
  0
VERTEX
  8
0
  6
CONTINUOUS
 62
     7
 10
479.6013798084895
 20
-221.1603987084411
 42
0.1997036642487432
  0
VERTEX
  8
0
  6
CONTINUOUS
 62
     7
 10
478.8671489644616
 20
-221.6682280128126
 42
0
  0
SEQEND
  8
0
  0
POLYLINE
  8
0
  6
CONTINUOUS
 62
     7
 66
     1
 10
0
 20
0
  0
VERTEX
  8
0
  6
CONTINUOUS
 62
     7
 10
423
 20
-232.0078582763672
 42
0.02700914029692163
  0
VERTEX
  8
0
  6
CONTINUOUS
 62
     7
 10
420.5428081230422
 20
-232.1403029592243
 42
0.02829818573633964
  0
VERTEX
  8
0
  6
CONTINUOUS
 62
     7
 10
418.1158662838305
 20
-232.5421592105309
 42
0.03115745527394341
  0
VERTEX
  8
0
  6
CONTINUOUS
 62
     7
 10
415.7527861810157
 20
-233.2281373537219
 42
0.03614903527390308
  0
VERTEX
  8
0
  6
CONTINUOUS
 62
     7
 10
413.5031374135974
 20
-234.2231835150246
 42
0.04437696134113198
  0
VERTEX
  8
0
  6
CONTINUOUS
 62
     7
 10
411.441518396296
 20
-235.5633548857704
 42
0.05742353803497709
  0
VERTEX
  8
0
  6
CONTINUOUS
 62
     7
 10
409.6921903256499
 20
-237.2884716047741
 42
0.0758619695942018
  0
VERTEX
  8
0
  6
CONTINUOUS
 62
     7
 10
408.4579819326827
 20
-239.4081180171928
 42
0.0929666157338867
  0
VERTEX
  8
0
  6
CONTINUOUS
 62
     7
 10
408
 20
-241.8123626708984
 42
0.09295315659622468
  0
VERTEX
  8
0
  6
CONTINUOUS
 62
     7
 10
408.4578466445865
 20
-244.2162576951497
 42
0.07584136268312176
  0
VERTEX
  8
0
  6
CONTINUOUS
 62
     7
 10
409.6914004523779
 20
-246.3352608926017
 42
0.05741679941636487
  0
VERTEX
  8
0
  6
CONTINUOUS
 62
     7
 10
411.4399321374211
 20
-248.0601167205019
 42
0.04437739112694258
  0
VERTEX
  8
0
  6
CONTINUOUS
 62
     7
 10
413.5008999521301
 20
-249.4003453753446
 42
0.03615273806819723
  0
VERTEX
  8
0
  6
CONTINUOUS
 62
     7
 10
415.75019496559
 20
-250.3956531346477
 42
0.03115788413227001
  0
VERTEX
  8
0
  6
CONTINUOUS
 62
     7
 10
418.1128709124185
 20
-251.0818916550228
 42
0.0283118182441977
  0
VERTEX
  8
0
  6
CONTINUOUS
 62
     7
 10
420.5407575280489
 20
-251.4841997160608
 42
0.02703215926525766
  0
VERTEX
  8
0
  6
CONTINUOUS
 62
     7
 10
423
 20
-251.6168670654297
 42
0
  0
SEQEND
  8
0
  0
POLYLINE
  8
0
  6
CONTINUOUS
 62
     7
 66
     1
 10
0
 20
0
  0
VERTEX
  8
0
  6
CONTINUOUS
 62
     7
 10
346.0003594162072
 20
-250.151561981679
 42
-0.09539187622872167
  0
VERTEX
  8
0
  6
CONTINUOUS
 62
     7
 10
351.857556854326
 20
-258.5802106013199
 42
-0.1133275545188527
  0
VERTEX
  8
0
  6
CONTINUOUS
 62
     7
 10
353.2180303496692
 20
-268.72682988923
 42
0.02518056646773228
  0
VERTEX
  8
0
  6
CONTINUOUS
 62
     7
 10
352.8946734199879
 20
-279.0432922369606
 42
0.01984299375724186
  0
VERTEX
  8
0
  6
CONTINUOUS
 62
     7
 10
353.8351861714313
 20
-289.3242582969368
 42
-0.02129195084774961
  0
VERTEX
  8
0
  6
CONTINUOUS
 62
     7
 10
354.753919001372
 20
-299.6065755636021
 42
-0.01844537208423872
  0
VERTEX
  8
0
  6
CONTINUOUS
 62
     7
 10
354.545363259621
 20
-309.9284192021764
 42
0.02372720243413593
  0
VERTEX
  8
0
  6
CONTINUOUS
 62
     7
 10
354.4776369135317
 20
-320.2505751138598
 42
-0.1202229061756971
  0
VERTEX
  8
0
  6
CONTINUOUS
 62
     7
 10
353.2909732780555
 20
-330.400114533408
 42
-0.1467772637584712
  0
VERTEX
  8
0
  6
CONTINUOUS
 62
     7
 10
346
 20
-337.5
 42
0
  0
SEQEND
  8
0
  0
POLYLINE
  8
0
  6
CONTINUOUS
 62
     7
 66
     1
 10
0
 20
0
  0
VERTEX
  8
0
  6
CONTINUOUS
 62
     7
 10
478.2619022221351
 20
10.93737814818253
 42
0.04188730367415531
  0
VERTEX
  8
0
  6
CONTINUOUS
 62
     7
 10
478.7020344841995
 20
9.709403999588023
 42
0.0416559483739188
  0
VERTEX
  8
0
  6
CONTINUOUS
 62
     7
 10
479.3402812820294
 20
8.571480997584219
 42
0.0413651039295721
  0
VERTEX
  8
0
  6
CONTINUOUS
 62
     7
 10
480.1577381641795
 20
7.554627661301525
 42
0.04106114708351421
  0
VERTEX
  8
0
  6
CONTINUOUS
 62
     7
 10
481.1310482054422
 20
6.685491964297051
 42
0.0407735773251893
  0
VERTEX
  8
0
  6
CONTINUOUS
 62
     7
 10
482.2331206473257
 20
5.986312499169606
 42
0.04052878174778893
  0
VERTEX
  8
0
  6
CONTINUOUS
 62
     7
 10
483.4339797017339
 20
5.474564569895137
 42
0.04034729443311775
  0
VERTEX
  8
0
  6
CONTINUOUS
 62
     7
 10
484.7015544560752
 20
5.162753377309821
 42
0.0402351147611876
  0
VERTEX
  8
0
  6
CONTINUOUS
 62
     7
 10
486.0021778129697
 20
5.058288866146238
 42
0.0402282341703426
  0
VERTEX
  8
0
  6
CONTINUOUS
 62
     7
 10
487.3025196657524
 20
5.163414401938661
 42
0.04031551583042946
  0
VERTEX
  8
0
  6
CONTINUOUS
 62
     7
 10
488.5689486216773
 20
5.475541793439424
 42
0.04051141576204392
  0
VERTEX
  8
0
  6
CONTINUOUS
 62
     7
 10
489.7691032684894
 20
5.987481882585714
 42
0.04075983235441923
  0
VERTEX
  8
0
  6
CONTINUOUS
 62
     7
 10
490.8705931556671
 20
6.686732166066837
 42
0.04106008099383986
  0
VERTEX
  8
0
  6
CONTINUOUS
 62
     7
 10
491.8436447586855
 20
7.556083921328609
 42
0.04137779398192187
  0
VERTEX
  8
0
  6
CONTINUOUS
 62
     7
 10
492.6610580729467
 20
8.573463371376498
 42
0.04167556173290486
  0
VERTEX
  8
0
  6
CONTINUOUS
 62
     7
 10
493.2992052336398
 20
9.712124199119204
 42
0.04191649456144062
  0
VERTEX
  8
0
  6
CONTINUOUS
 62
     7
 10
493.7390962624776
 20
10.94112975636098
 42
0
  0
SEQEND
  8
0
  0
POLYLINE
  8
0
  6
CONTINUOUS
 62
     7
 66
     1
 10
0
 20
0
  0
VERTEX
  8
0
  6
CONTINUOUS
 62
     7
 10
496.9314048289556
 20
20.26018562728212
 42
0.01754280247148059
  0
VERTEX
  8
0
  6
CONTINUOUS
 62
     7
 10
495.5899370004203
 20
20.55332861378042
 42
0.01105000106663299
  0
VERTEX
  8
0
  6
CONTINUOUS
 62
     7
 10
494.2336490925239
 20
20.77138152718539
 42
0.008116753947639558
  0
VERTEX
  8
0
  6
CONTINUOUS
 62
     7
 10
492.869275033338
 20
20.93806667291368
 42
0.00653121455291342
  0
VERTEX
  8
0
  6
CONTINUOUS
 62
     7
 10
491.5008428141854
 20
21.06499833982714
 42
0.005600166967224911
  0
VERTEX
  8
0
  6
CONTINUOUS
 62
     7
 10
490.129464668468
 20
21.15887408478449
 42
0.005037299046474346
  0
VERTEX
  8
0
  6
CONTINUOUS
 62
     7
 10
488.7560748062272
 20
21.2236686663077
 42
0.004711430493024612
  0
VERTEX
  8
0
  6
CONTINUOUS
 62
     7
 10
487.3815881704423
 20
21.26174597165706
 42
0.004560874606672297
  0
VERTEX
  8
0
  6
CONTINUOUS
 62
     7
 10
486.0066224349903
 20
21.27438325536233
 42
0.004559742370438895
  0
VERTEX
  8
0
  6
CONTINUOUS
 62
     7
 10
484.6317827739625
 20
21.26199006405943
 42
0.004705488727859031
  0
VERTEX
  8
0
  6
CONTINUOUS
 62
     7
 10
483.2583480273248
 20
21.22420401926932
 42
0.005034824033439912
  0
VERTEX
  8
0
  6
CONTINUOUS
 62
     7
 10
481.8844006311995
 20
21.15966894912224
 42
0.005594377643006591
  0
VERTEX
  8
0
  6
CONTINUOUS
 62
     7
 10
480.5126631807536
 20
21.06607682664444
 42
0.006523128034336469
  0
VERTEX
  8
0
  6
CONTINUOUS
 62
     7
 10
479.143492488479
 20
20.93942309762384
 42
0.008102150586964835
  0
VERTEX
  8
0
  6
CONTINUOUS
 62
     7
 10
477.7783449725727
 20
20.77305200027109
 42
0.01103428390013743
  0
VERTEX
  8
0
  6
CONTINUOUS
 62
     7
 10
476.4199077333646
 20
20.55514866948618
 42
0.01751373987313575
  0
VERTEX
  8
0
  6
CONTINUOUS
 62
     7
 10
475.075787224559
 20
20.26205137394806
 42
0
  0
SEQEND
  8
0
  0
POLYLINE
  8
0
  6
CONTINUOUS
 62
     7
 66
     1
 10
0
 20
0
 70
     1
  0
VERTEX
  8
0
  6
CONTINUOUS
 62
     7
 10
486
 20
15.07009887695313
 42
0.01162476452189756
  0
VERTEX
  8
0
  6
CONTINUOUS
 62
     7
 10
482.5818891266273
 20
14.99160828867686
 42
0.01447217399078521
  0
VERTEX
  8
0
  6
CONTINUOUS
 62
     7
 10
479.1713792691482
 20
14.73808060470511
 42
0.02556038781701941
  0
VERTEX
  8
0
  6
CONTINUOUS
 62
     7
 10
475.7910452185806
 20
14.22591025962467
 42
0.1952839009470676
  0
VERTEX
  8
0
  6
CONTINUOUS
 62
     7
 10
472.85001214316
 20
12.78443255642296
 42
0.193898769165338
  0
VERTEX
  8
0
  6
CONTINUOUS
 62
     7
 10
475.7942839600086
 20
11.34665175964834
 42
0.02553136055714043
  0
VERTEX
  8
0
  6
CONTINUOUS
 62
     7
 10
479.1729289292065
 20
10.83502013040027
 42
0.0144658324255128
  0
VERTEX
  8
0
  6
CONTINUOUS
 62
     7
 10
482.582344894868
 20
10.58164084475829
 42
0.01162275125249993
  0
VERTEX
  8
0
  6
CONTINUOUS
 62
     7
 10
486
 20
10.503173828125
 42
0.01162444772987065
  0
VERTEX
  8
0
  6
CONTINUOUS
 62
     7
 10
489.4181109421925
 20
10.58166215016709
 42
0.01447191320538579
  0
VERTEX
  8
0
  6
CONTINUOUS
 62
     7
 10
492.8286212821456
 20
10.83518367267387
 42
0.02556016153306045
  0
VERTEX
  8
0
  6
CONTINUOUS
 62
     7
 10
496.2089567942722
 20
11.34734461322043
 42
0.1952857525117313
  0
VERTEX
  8
0
  6
CONTINUOUS
 62
     7
 10
499.149987828509
 20
12.78881475813332
 42
0.1938970346387079
  0
VERTEX
  8
0
  6
CONTINUOUS
 62
     7
 10
496.2057157601428
 20
14.22660275370711
 42
0.02553159831798626
  0
VERTEX
  8
0
  6
CONTINUOUS
 62
     7
 10
492.8270722648019
 20
14.73824396651164
 42
0.014466095790134
  0
VERTEX
  8
0
  6
CONTINUOUS
 62
     7
 10
489.4176567800719
 20
14.99162951316865
 42
0.01162307440157528
  0
SEQEND
  8
0
  0
POLYLINE
  8
0
  6
CONTINUOUS
 62
     7
 66
     1
 10
0
 20
0
  0
VERTEX
  8
0
  6
CONTINUOUS
 62
     7
 10
475.0736999511719
 20
20.26150512695312
 42
0.01843635118410121
  0
VERTEX
  8
0
  6
CONTINUOUS
 62
     7
 10
474.0927281980459
 20
20.02168355166498
 42
0.005077713457411355
  0
VERTEX
  8
0
  6
CONTINUOUS
 62
     7
 10
473.1233153901571
 20
19.73862101622251
 42
0.02696900170245065
  0
VERTEX
  8
0
  6
CONTINUOUS
 62
     7
 10
472.1726104271454
 20
19.39874832366537
 42
0.05660757361487111
  0
VERTEX
  8
0
  6
CONTINUOUS
 62
     7
 10
471.2928148625943
 20
18.90714904828949
 42
0.06337923833050824
  0
VERTEX
  8
0
  6
CONTINUOUS
 62
     7
 10
470.5650124159465
 20
18.21049324192239
 42
0.06341668615123823
  0
VERTEX
  8
0
  6
CONTINUOUS
 62
     7
 10
470.0286687861259
 20
17.35648193220872
 42
0.07213583156042287
  0
VERTEX
  8
0
  6
CONTINUOUS
 62
     7
 10
469.7430941642388
 20
16.39153076951115
 42
0.07236455277581537
  0
VERTEX
  8
0
  6
CONTINUOUS
 62
     7
 10
469.7432056499582
 20
15.38527698217656
 42
0.0721230014007444
  0
VERTEX
  8
0
  6
CONTINUOUS
 62
     7
 10
470.0289025447418
 20
14.42056653400342
 42
0.06331747111164614
  0
VERTEX
  8
0
  6
CONTINUOUS
 62
     7
 10
470.56434824941
 20
13.5678784695395
 42
0.06336610898978394
  0
VERTEX
  8
0
  6
CONTINUOUS
 62
     7
 10
471.2919655116744
 20
12.87103107425727
 42
0.05663944402412389
  0
VERTEX
  8
0
  6
CONTINUOUS
 62
     7
 10
472.1716597986451
 20
12.37921855455324
 42
0.02700180119260272
  0
VERTEX
  8
0
  6
CONTINUOUS
 62
     7
 10
473.1225569088974
 20
12.03916970608291
 42
0.005083127334602337
  0
VERTEX
  8
0
  6
CONTINUOUS
 62
     7
 10
474.0924881851635
 20
11.75594058514607
 42
0.01843875788479786
  0
VERTEX
  8
0
  6
CONTINUOUS
 62
     7
 10
475.0736999511719
 20
11.51605224609375
 42
0
  0
SEQEND
  8
0
  0
POLYLINE
  8
0
  6
CONTINUOUS
 62
     7
 66
     1
 10
0
 20
0
  0
VERTEX
  8
0
  6
CONTINUOUS
 62
     7
 10
496.9263000488281
 20
20.26150512695312
 42
-0.01843635118410115
  0
VERTEX
  8
0
  6
CONTINUOUS
 62
     7
 10
497.9072718019541
 20
20.02168355166498
 42
-0.005077713457411355
  0
VERTEX
  8
0
  6
CONTINUOUS
 62
     7
 10
498.8766846098429
 20
19.73862101622251
 42
-0.02696900170245065
  0
VERTEX
  8
0
  6
CONTINUOUS
 62
     7
 10
499.8273895728546
 20
19.39874832366537
 42
-0.05660757361487117
  0
VERTEX
  8
0
  6
CONTINUOUS
 62
     7
 10
500.7071851374057
 20
18.90714904828949
 42
-0.06337923833050824
  0
VERTEX
  8
0
  6
CONTINUOUS
 62
     7
 10
501.4349875840535
 20
18.21049324192239
 42
-0.06341668615123824
  0
VERTEX
  8
0
  6
CONTINUOUS
 62
     7
 10
501.9713312138741
 20
17.35648193220872
 42
-0.07213583156042279
  0
VERTEX
  8
0
  6
CONTINUOUS
 62
     7
 10
502.2569058357612
 20
16.39153076951115
 42
-0.07236455277581437
  0
VERTEX
  8
0
  6
CONTINUOUS
 62
     7
 10
502.2567943500418
 20
15.38527698217656
 42
-0.0721230014007444
  0
VERTEX
  8
0
  6
CONTINUOUS
 62
     7
 10
501.9710974552582
 20
14.42056653400342
 42
-0.06331747111164591
  0
VERTEX
  8
0
  6
CONTINUOUS
 62
     7
 10
501.43565175059
 20
13.5678784695395
 42
-0.06336610898978394
  0
VERTEX
  8
0
  6
CONTINUOUS
 62
     7
 10
500.7080344883256
 20
12.87103107425727
 42
-0.05663944402412389
  0
VERTEX
  8
0
  6
CONTINUOUS
 62
     7
 10
499.8283402013549
 20
12.37921855455324
 42
-0.02700180119260272
  0
VERTEX
  8
0
  6
CONTINUOUS
 62
     7
 10
498.8774430911026
 20
12.03916970608291
 42
-0.005083127334602337
  0
VERTEX
  8
0
  6
CONTINUOUS
 62
     7
 10
497.9075118148365
 20
11.75594058514607
 42
-0.01843875788479786
  0
VERTEX
  8
0
  6
CONTINUOUS
 62
     7
 10
496.9263000488281
 20
11.51605224609375
 42
0
  0
SEQEND
  8
0
  0
POLYLINE
  8
0
  6
CONTINUOUS
 62
     7
 66
     1
 10
0
 20
0
  0
VERTEX
  8
0
  6
CONTINUOUS
 62
     7
 10
346
 20
37.5
 42
-0.07543391315754581
  0
VERTEX
  8
0
  6
CONTINUOUS
 62
     7
 10
352.3175811170321
 20
33.35063142327072
 42
-0.1464565611191417
  0
VERTEX
  8
0
  6
CONTINUOUS
 62
     7
 10
356.3540748048922
 20
27.05257336146085
 42
-0.08474567118459221
  0
VERTEX
  8
0
  6
CONTINUOUS
 62
     7
 10
356.6283672362863
 20
19.50767328608566
 42
0.01758551506592189
  0
VERTEX
  8
0
  6
CONTINUOUS
 62
     7
 10
355.9979615590635
 20
11.94717354209867
 42
0.007047526525493152
  0
VERTEX
  8
0
  6
CONTINUOUS
 62
     7
 10
355.8886907345886
 20
4.361098168039768
 42
-0.004592641193872371
  0
VERTEX
  8
0
  6
CONTINUOUS
 62
     7
 10
355.7011886849932
 20
-3.224357092367039
 42
0.00855665524938617
  0
VERTEX
  8
0
  6
CONTINUOUS
 62
     7
 10
355.5774043786191
 20
-10.81080780135141
 42
-0.002646647279553691
  0
VERTEX
  8
0
  6
CONTINUOUS
 62
     7
 10
355.5962379885108
 20
-18.39839618436975
 42
-0.04501761557815458
  0
VERTEX
  8
0
  6
CONTINUOUS
 62
     7
 10
355.0480873979901
 20
-25.95595915591143
 42
-0.1351069131491799
  0
VERTEX
  8
0
  6
CONTINUOUS
 62
     7
 10
351.8637325999661
 20
-32.74642112309048
 42
-0.08847557538224664
  0
VERTEX
  8
0
  6
CONTINUOUS
 62
     7
 10
346
 20
-37.5
 42
0
  0
SEQEND
  8
0
  0
POLYLINE
  8
0
  6
CONTINUOUS
 62
     7
 66
     1
 10
0
 20
0
  0
VERTEX
  8
0
  6
CONTINUOUS
 62
     7
 10
419.4734649658203
 20
-16.39154052734375
 42
0.02068197641672596
  0
VERTEX
  8
0
  6
CONTINUOUS
 62
     7
 10
417.9627400129573
 20
-16.45401758686068
 42
0.02088565363503924
  0
VERTEX
  8
0
  6
CONTINUOUS
 62
     7
 10
416.4627503757852
 20
-16.64158945703331
 42
0.0213057445336372
  0
VERTEX
  8
0
  6
CONTINUOUS
 62
     7
 10
414.9839724231292
 20
-16.95480028506145
 42
0.0219504172245648
  0
VERTEX
  8
0
  6
CONTINUOUS
 62
     7
 10
413.5376509349104
 20
-17.39454330423858
 42
0.02283094503226145
  0
VERTEX
  8
0
  6
CONTINUOUS
 62
     7
 10
412.1361879028834
 20
-17.96187435942517
 42
0.02395932654634569
  0
VERTEX
  8
0
  6
CONTINUOUS
 62
     7
 10
410.7935348172387
 20
-18.65771901526019
 42
0.02534385598375847
  0
VERTEX
  8
0
  6
CONTINUOUS
 62
     7
 10
409.5255715231703
 20
-19.48242948281604
 42
0.0269816324395888
  0
VERTEX
  8
0
  6
CONTINUOUS
 62
     7
 10
408.3504156982638
 20
-20.43513880261444
 42
0.02884694995877655
  0
VERTEX
  8
0
  6
CONTINUOUS
 62
     7
 10
407.2885551594148
 20
-21.51286493728731
 42
0.03087553015536327
  0
VERTEX
  8
0
  6
CONTINUOUS
 62
     7
 10
406.3626273273369
 20
-22.70935631540852
 42
0.03294763876795988
  0
VERTEX
  8
0
  6
CONTINUOUS
 62
     7
 10
405.5966096020056
 20
-24.01377041775076
 42
0.03487886516161424
  0
VERTEX
  8
0
  6
CONTINUOUS
 62
     7
 10
405.0141931509301
 20
-25.40945496006685
 42
0.03643324829804968
  0
VERTEX
  8
0
  6
CONTINUOUS
 62
     7
 10
404.6362882948018
 20
-26.87331527022354
 42
0.0373711735884087
  0
VERTEX
  8
0
  6
CONTINUOUS
 62
     7
 10
404.478010926768
 20
-28.37634713740787
 42
0.0375028899706198
  0
VERTEX
  8
0
  6
CONTINUOUS
 62
     7
 10
404.5458857046477
 20
-29.88478968367078
 42
0.03686575329634243
  0
VERTEX
  8
0
  6
CONTINUOUS
 62
     7
 10
404.8368212914312
 20
-31.3669317820468
 42
0
  0
SEQEND
  8
0
  0
POLYLINE
  8
0
  6
CONTINUOUS
 62
     7
 66
     1
 10
0
 20
0
  0
VERTEX
  8
0
  6
CONTINUOUS
 62
     7
 10
423
 20
-29.2969970703125
 42
0.03684100915015957
  0
VERTEX
  8
0
  6
CONTINUOUS
 62
     7
 10
420.3248356402441
 20
-29.49398538004671
 42
0.03801003109661982
  0
VERTEX
  8
0
  6
CONTINUOUS
 62
     7
 10
417.7095919964504
 20
-30.08659449703048
 42
0.0404620134488631
  0
VERTEX
  8
0
  6
CONTINUOUS
 62
     7
 10
415.217887000041
 20
-31.07999452506547
 42
0.04428261258127916
  0
VERTEX
  8
0
  6
CONTINUOUS
 62
     7
 10
412.9285733187973
 20
-32.47855553873526
 42
0.0494856361076059
  0
VERTEX
  8
0
  6
CONTINUOUS
 62
     7
 10
410.9404025435135
 20
-34.27746248606573
 42
0.05578176975689338
  0
VERTEX
  8
0
  6
CONTINUOUS
 62
     7
 10
409.3719381984464
 20
-36.45061958611023
 42
0.06202765774141673
  0
VERTEX
  8
0
  6
CONTINUOUS
 62
     7
 10
408.3545338266268
 20
-38.92862880642772
 42
0.06616822561189507
  0
VERTEX
  8
0
  6
CONTINUOUS
 62
     7
 10
407.9999999999999
 20
-41.58428955078125
 42
0.0661142932977493
  0
VERTEX
  8
0
  6
CONTINUOUS
 62
     7
 10
408.3539531246856
 20
-44.23780049723165
 42
0.06200344252645897
  0
VERTEX
  8
0
  6
CONTINUOUS
 62
     7
 10
409.3702152087653
 20
-46.71488925137595
 42
0.05578049654465905
  0
VERTEX
  8
0
  6
CONTINUOUS
 62
     7
 10
410.9377025977029
 20
-48.88812554733448
 42
0.04948567580066475
  0
VERTEX
  8
0
  6
CONTINUOUS
 62
     7
 10
412.9249249200378
 20
-50.68731492131649
 42
0.0442767945980267
  0
VERTEX
  8
0
  6
CONTINUOUS
 62
     7
 10
415.2130601449394
 20
-52.08618403471121
 42
0.04047359625088447
  0
VERTEX
  8
0
  6
CONTINUOUS
 62
     7
 10
417.7047856491424
 20
-53.08049986921475
 42
0.03804200425318702
  0
VERTEX
  8
0
  6
CONTINUOUS
 62
     7
 10
420.3219006902546
 20
-53.67415771768142
 42
0.0368821811917685
  0
VERTEX
  8
0
  6
CONTINUOUS
 62
     7
 10
423
 20
-53.87158203125
 42
0
  0
SEQEND
  8
0
  0
TEXT
  8
0
  6
CONTINUOUS
 62
     7
 10
-69.42857623100281
 20
-9
 40
18
 41
0.8455556517120055
  1
ＥＲＶ－＿ＮＡＢ
  0
ENDSEC
  0
EOF
