  0
SECTION
  2
HEADER
  0
ENDSEC
  0
SECTION
  2
TABLES
  0
TABLE
  2
LTYPE
 70
    22
  0
LTYPE
  2
CONTINUOUS
 70
    64
  3
Solid line
 72
    65
 73
     0
 40
0.000000
  0
LTYPE
  2
DASHED
 70
    64
  3
__ __ __ __ __ __ __ __ __ __ __ __ __ __ __
 72
    65
 73
     2
 40
3.500000
 49
2.000000
 49
-1.500000
  0
LTYPE
  2
CENTER
 70
    64
  3
____ _ ____ _ ____ _ ____ _ ____ _ ____ _ ____
 72
    65
 73
     4
 40
17.500000
 49
13.000000
 49
-1.500000
 49
1.500000
 49
-1.500000
  0
LTYPE
  2
PHANTOM
 70
    64
  3
_____ _ _ _____ _ _ _____ _ _ _____ _ _ ____  
 72
    65
 73
     6
 40
15.500000
 49
8.000000
 49
-1.500000
 49
1.500000
 49
-1.500000
 49
1.500000
 49
-1.500000
  0
LTYPE
  2
DOT
 70
    64
  3
. . . . . . . . . . . . . . . . . . . . . . . .
 72
    65
 73
     2
 40
0.25
 49
0.0
 49
-0.25
  0
ENDTAB
  0
TABLE
  2
LAYER
 70
     1
  0
LAYER
  2
0
 70
     0
 62
     7
  6
CONTINUOUS
  0
ENDTAB
  0
TABLE
  2
STYLE
 70
     1
  0
STYLE
  2
STANDARD
 70
     0
 40
0.000000
 41
1.000000
 50
0.000000
 71
     0
 42
0.200000
  3
txt
  4
BIGFONT
  0
ENDTAB
  0
TABLE
  2
VIEW
 70
     0
  0
ENDTAB
  0
ENDSEC
  0
SECTION
  2
BLOCKS
  0
ENDSEC
  0
SECTION
  2
ENTITIES
  0
LINE
  8
0
  6
CONTINUOUS
 62
     3
 10
241.9022369384766
 20
-300
 11
535.6992797851562
 21
-300
  0
LINE
  8
0
  6
CONTINUOUS
 62
     7
 10
374.5
 20
-372.5
 11
389.5
 21
-372.5
  0
LINE
  8
0
  6
CONTINUOUS
 62
     7
 10
419.5
 20
-226.5
 11
419.5
 21
-373.5
  0
LINE
  8
0
  6
CONTINUOUS
 62
     7
 10
389.5
 20
-227.5
 11
389.5
 21
-242.5
  0
LINE
  8
0
  6
CONTINUOUS
 62
     7
 10
409.5
 20
-227.5
 11
409.5
 21
-372.5
  0
LINE
  8
0
  6
CONTINUOUS
 62
     7
 10
409.5
 20
-227.5
 11
419.5
 21
-227.5
  0
LINE
  8
0
  6
CONTINUOUS
 62
     7
 10
409.5
 20
-372.5
 11
419.5
 21
-372.5
  0
LINE
  8
0
  6
CONTINUOUS
 62
     7
 10
389.5
 20
-247.5
 11
404.5
 21
-247.5
  0
LINE
  8
0
  6
CONTINUOUS
 62
     7
 10
389.5
 20
-352.5
 11
404.5
 21
-352.5
  0
LINE
  8
0
  6
CONTINUOUS
 62
     7
 10
384.5
 20
-230.4266357421875
 11
384.5
 21
-369.5733642578125
  0
LINE
  8
0
  6
CONTINUOUS
 62
     7
 10
389.5
 20
-357.5
 11
389.5
 21
-372.5
  0
LINE
  8
0
  6
CONTINUOUS
 62
     7
 10
384.5
 20
-230.4266357421875
 11
389.5
 21
-230.4266357421875
  0
LINE
  8
0
  6
CONTINUOUS
 62
     7
 10
384.5
 20
-369.5733642578125
 11
389.5
 21
-369.5733642578125
  0
LINE
  8
0
  6
CONTINUOUS
 62
     7
 10
374.5
 20
-227.5
 11
390.5
 21
-227.5
  0
LINE
  8
0
  6
CONTINUOUS
 62
     7
 10
375.3667907714844
 20
-221.6702270507812
 11
374.5
 21
-226.6106872558594
  0
LINE
  8
0
  6
CONTINUOUS
 62
     7
 10
389.6331787109375
 20
-221.6702270507812
 11
390.4999694824219
 21
-226.6107025146484
  0
LINE
  8
0
  6
CONTINUOUS
 62
     7
 10
382.4999694824219
 20
-219.7381744384766
 11
376.94384765625
 21
-220.9320373535156
  0
LINE
  8
0
  6
CONTINUOUS
 62
     7
 10
382.5
 20
-219.7381744384766
 11
388.0560302734375
 21
-220.9320220947266
  0
LINE
  8
0
  6
CONTINUOUS
 62
     7
 10
390.5
 20
-226.6106872558594
 11
390.5
 21
-227.5
  0
LINE
  8
0
  6
CONTINUOUS
 62
     7
 10
352
 20
-226.5
 11
374.5
 21
-226.5
  0
LINE
  8
0
  6
CONTINUOUS
 62
     7
 10
352
 20
-373.5
 11
374.5
 21
-373.5
  0
LINE
  8
0
  6
CONTINUOUS
 62
     7
 10
352
 20
-226.5
 11
352
 21
-373.5
  0
LINE
  8
0
  6
CONTINUOUS
 62
     7
 10
280
 20
-220
 11
280
 21
-260.9867553710938
  0
LINE
  8
0
  6
CONTINUOUS
 62
     7
 10
280
 20
-220
 11
294
 21
-220
  0
LINE
  8
0
  6
CONTINUOUS
 62
     7
 10
280
 20
-380
 11
294
 21
-380
  0
LINE
  8
0
  6
CONTINUOUS
 62
     7
 10
294
 20
-220
 11
294
 21
-380
  0
LINE
  8
0
  6
CONTINUOUS
 62
     7
 10
342
 20
-227.5
 11
352
 21
-227.5
  0
LINE
  8
0
  6
CONTINUOUS
 62
     7
 10
342
 20
-372.5
 11
352
 21
-372.5
  0
LINE
  8
0
  6
CONTINUOUS
 62
     7
 10
299
 20
-326.3078002929687
 11
337
 21
-326.3078002929687
  0
LINE
  8
0
  6
CONTINUOUS
 62
     7
 10
299
 20
-273.6921997070313
 11
337
 21
-273.6921997070313
  0
LINE
  8
0
  6
CONTINUOUS
 62
     7
 10
342
 20
-348.2288208007812
 11
294
 21
-352.0455017089844
  0
LINE
  8
0
  6
CONTINUOUS
 62
     7
 10
294
 20
-357.5014343261719
 11
341.9999694824219
 21
-353.28466796875
  0
LINE
  8
0
  6
CONTINUOUS
 62
     7
 10
342
 20
-251.7711944580078
 11
322
 21
-251.7711944580078
  0
LINE
  8
0
  6
CONTINUOUS
 62
     7
 10
293.9999389648438
 20
-242.49853515625
 11
318.5380859375
 21
-246.1939544677734
  0
LINE
  8
0
  6
CONTINUOUS
 62
     7
 10
294.0000305175781
 20
-247.9545288085938
 11
321.9999389648437
 21
-251.7711791992188
  0
LINE
  8
0
  6
CONTINUOUS
 62
     7
 10
250
 20
-286.5
 11
250
 21
-311
  0
LINE
  8
0
  6
CONTINUOUS
 62
     7
 10
249.9999847412109
 20
-289
 11
280
 21
-289
  0
LINE
  8
0
  6
CONTINUOUS
 62
     7
 10
249.9999847412109
 20
-311
 11
280
 21
-311
  0
LINE
  8
0
  6
CONTINUOUS
 62
     7
 10
276
 20
-245
 11
276
 21
-258.4146728515625
  0
LINE
  8
0
  6
CONTINUOUS
 62
     7
 10
276
 20
-245
 11
280
 21
-245
  0
LINE
  8
0
  6
CONTINUOUS
 62
     7
 10
276
 20
-355
 11
280
 21
-355
  0
LINE
  8
0
  6
CONTINUOUS
 62
     7
 10
276
 20
-328.5956726074219
 11
276
 21
-355
  0
LINE
  8
0
  6
CONTINUOUS
 62
     7
 10
280
 20
-285
 11
280
 21
-315
  0
LINE
  8
0
  6
CONTINUOUS
 62
     7
 10
280
 20
-325.0993041992187
 11
280
 21
-380
  0
LINE
  8
0
  6
CONTINUOUS
 62
     7
 10
280
 20
-315
 11
282.609375
 21
-315
  0
LINE
  8
0
  6
CONTINUOUS
 62
     7
 10
280
 20
-285
 11
282.6983032226562
 21
-285
  0
LINE
  8
0
  6
CONTINUOUS
 62
     7
 10
249.9999847412109
 20
-286.5
 11
275
 21
-286.5
  0
LINE
  8
0
  6
CONTINUOUS
 62
     7
 10
275
 20
-286.5
 11
275
 21
-289
  0
LINE
  8
0
  6
CONTINUOUS
 62
     7
 10
337
 20
-232.0078125
 11
342
 21
-232.0078125
  0
LINE
  8
0
  6
CONTINUOUS
 62
     7
 10
342
 20
-227.5
 11
342
 21
-232.0078125
  0
LINE
  8
0
  6
CONTINUOUS
 62
     7
 10
342
 20
-251.7712097167969
 11
342
 21
-372.5
  0
LINE
  8
0
  6
CONTINUOUS
 62
     7
 10
320.741943359375
 20
-244.8223114013672
 11
322.3185729980469
 21
-239.8637237548828
  0
LINE
  8
0
  6
CONTINUOUS
 62
     7
 10
374.5
 20
-226.5
 11
374.5
 21
-373.5
  0
LINE
  8
0
  6
CONTINUOUS
 62
     7
 10
442
 20
-226.5
 11
442
 21
-373.5
  0
LINE
  8
0
  6
CONTINUOUS
 62
     7
 10
495
 20
-280
 11
495
 21
-320
  0
LINE
  8
0
  6
CONTINUOUS
 62
     7
 10
452
 20
-227.5
 11
442
 21
-227.5
  0
LINE
  8
0
  6
CONTINUOUS
 62
     7
 10
457
 20
-248
 11
452
 21
-248
  0
LINE
  8
0
  6
CONTINUOUS
 62
     7
 10
452
 20
-227.5
 11
452
 21
-372.5
  0
LINE
  8
0
  6
CONTINUOUS
 62
     7
 10
488
 20
-271.5
 11
488
 21
-328.5
  0
LINE
  8
0
  6
CONTINUOUS
 62
     7
 10
494.9999694824219
 20
-279.9999694824219
 11
488
 21
-275.9585266113281
  0
LINE
  8
0
  6
CONTINUOUS
 62
     7
 10
488
 20
-271.5
 11
475.8580322265625
 21
-271.5
  0
LINE
  8
0
  6
CONTINUOUS
 62
     7
 10
495.0000305175781
 20
-320.0000305175781
 11
488.0000610351562
 21
-324.0414733886719
  0
LINE
  8
0
  6
CONTINUOUS
 62
     7
 10
457
 20
-352
 11
457
 21
-248
  0
LINE
  8
0
  6
CONTINUOUS
 62
     7
 10
457
 20
-352
 11
452
 21
-352
  0
LINE
  8
0
  6
CONTINUOUS
 62
     7
 10
452
 20
-372.5
 11
442
 21
-372.5
  0
LINE
  8
0
  6
CONTINUOUS
 62
     7
 10
529
 20
-288
 11
504
 21
-288
  0
LINE
  8
0
  6
CONTINUOUS
 62
     7
 10
529
 20
-288
 11
529
 21
-309.5
  0
LINE
  8
0
  6
CONTINUOUS
 62
     7
 10
529
 20
-309.5
 11
499
 21
-309.5
  0
LINE
  8
0
  6
CONTINUOUS
 62
     7
 10
529
 20
-290.5
 11
499
 21
-290.5
  0
LINE
  8
0
  6
CONTINUOUS
 62
     7
 10
499
 20
-287.5
 11
499
 21
-312.5
  0
LINE
  8
0
  6
CONTINUOUS
 62
     7
 10
499
 20
-312.5
 11
495
 21
-312.5
  0
LINE
  8
0
  6
CONTINUOUS
 62
     7
 10
499
 20
-287.5
 11
495
 21
-287.5
  0
LINE
  8
0
  6
CONTINUOUS
 62
     7
 10
504
 20
-288
 11
504
 21
-290.5
  0
LINE
  8
0
  6
CONTINUOUS
 62
     7
 10
488
 20
-328.5
 11
475.8580322265625
 21
-328.5
  0
LINE
  8
0
  6
CONTINUOUS
 62
     7
 10
476.4999694824219
 20
-294.0823974609375
 11
457
 21
-289.03125
  0
LINE
  8
0
  6
CONTINUOUS
 62
     7
 10
476.4999694824219
 20
-280.9352722167969
 11
457
 21
-267.1353149414062
  0
LINE
  8
0
  6
CONTINUOUS
 62
     7
 10
457.0000305175781
 20
-253.2694702148438
 11
476.5
 21
-272.1205749511719
  0
LINE
  8
0
  6
CONTINUOUS
 62
     7
 10
476.4999389648438
 20
-308.8154296875
 11
456.9999694824219
 21
-313.8665466308594
  0
LINE
  8
0
  6
CONTINUOUS
 62
     7
 10
457
 20
-334.9861450195312
 11
476.4999694824219
 21
-321.1861877441406
  0
LINE
  8
0
  6
CONTINUOUS
 62
     7
 10
457
 20
-346.7305603027344
 11
476.4999694824219
 21
-327.8794555664062
  0
LINE
  8
0
  6
CONTINUOUS
 62
     7
 10
419.5
 20
-226.5
 11
442
 21
-226.5
  0
LINE
  8
0
  6
CONTINUOUS
 62
     7
 10
419.5
 20
-373.5
 11
442
 21
-373.5
  0
LINE
  8
0
  6
CONTINUOUS
 62
     3
 10
-88.5
 20
-300
 11
88.5
 21
-300
  0
LINE
  8
0
  6
CONTINUOUS
 62
     3
 10
0
 20
-211.5
 11
0
 21
-388.5
  0
LINE
  8
0
  6
CONTINUOUS
 62
     7
 10
-10.88452243804932
 20
-220.1305084228516
 11
-8.4945068359375
 21
-220.4522552490234
  0
LINE
  8
0
  6
CONTINUOUS
 62
     7
 10
-15.07006359100342
 20
-196.3928527832031
 11
-10.77886009216309
 21
-220.7294769287109
  0
LINE
  8
0
  6
CONTINUOUS
 62
     7
 10
-17.08880424499512
 20
-221.2244873046875
 11
-19.22466468811035
 21
-222.3442687988281
  0
LINE
  8
0
  6
CONTINUOUS
 62
     7
 10
-21.27434921264648
 20
-197.4868316650391
 11
-16.9831485748291
 21
-221.8234558105469
  0
LINE
  8
0
  6
CONTINUOUS
 62
     7
 10
3
 20
-286.5
 11
3
 21
-292.5
  0
LINE
  8
0
  6
CONTINUOUS
 62
     7
 10
-3
 20
-286.5
 11
-3
 21
-292.5
  0
LINE
  8
0
  6
CONTINUOUS
 62
     7
 10
-3
 20
-292.5
 11
3
 21
-292.5
  0
LINE
  8
0
  6
CONTINUOUS
 62
     7
 10
-3
 20
-286.5
 11
3
 21
-286.5
  0
LINE
  8
0
  6
CONTINUOUS
 62
     7
 10
374.5
 20
73.5
 11
374.5
 21
20.80316162109375
  0
LINE
  8
0
  6
CONTINUOUS
 62
     7
 10
374.5
 20
-72.5
 11
384.5
 21
-72.5
  0
LINE
  8
0
  6
CONTINUOUS
 62
     7
 10
374.5
 20
72.5
 11
384.5
 21
72.5
  0
LINE
  8
0
  6
CONTINUOUS
 62
     7
 10
419.5
 20
73.5
 11
419.5
 21
-73.5
  0
LINE
  8
0
  6
CONTINUOUS
 62
     7
 10
409.5
 20
72.5
 11
409.5
 21
-72.5
  0
LINE
  8
0
  6
CONTINUOUS
 62
     7
 10
409.5
 20
72.5
 11
419.5
 21
72.5
  0
LINE
  8
0
  6
CONTINUOUS
 62
     7
 10
409.5
 20
-72.5
 11
419.5
 21
-72.5
  0
LINE
  8
0
  6
CONTINUOUS
 62
     7
 10
389.5
 20
52.5
 11
404.5
 21
52.5
  0
LINE
  8
0
  6
CONTINUOUS
 62
     7
 10
389.5
 20
-52.5
 11
404.5
 21
-52.5
  0
LINE
  8
0
  6
CONTINUOUS
 62
     7
 10
384.5
 20
72.5
 11
384.5
 21
21.24783325195312
  0
LINE
  8
0
  6
CONTINUOUS
 62
     7
 10
389.5
 20
9.123565673828125
 11
389.5
 21
-20.39105224609375
  0
LINE
  8
0
  6
CONTINUOUS
 62
     7
 10
384.5
 20
-20.39105224609375
 11
389.5
 21
-20.39105224609375
  0
LINE
  8
0
  6
CONTINUOUS
 62
     7
 10
384.5
 20
-20.39105224609375
 11
384.5
 21
-72.5
  0
LINE
  8
0
  6
CONTINUOUS
 62
     7
 10
374.5
 20
10.97433471679687
 11
374.5
 21
-73.5
  0
LINE
  8
0
  6
CONTINUOUS
 62
     3
 10
536.5400390625
 20
0
 11
235
 21
0
  0
LINE
  8
0
  6
CONTINUOUS
 62
     7
 10
352
 20
73.5
 11
374.5
 21
73.5
  0
LINE
  8
0
  6
CONTINUOUS
 62
     7
 10
352
 20
-73.5
 11
374.5
 21
-73.5
  0
LINE
  8
0
  6
CONTINUOUS
 62
     7
 10
352
 20
73.5
 11
352
 21
-73.5
  0
LINE
  8
0
  6
CONTINUOUS
 62
     7
 10
280
 20
79.99996948242188
 11
280
 21
35.571044921875
  0
LINE
  8
0
  6
CONTINUOUS
 62
     7
 10
280
 20
79.99996948242188
 11
294
 21
79.99996948242188
  0
LINE
  8
0
  6
CONTINUOUS
 62
     7
 10
280
 20
-80
 11
294
 21
-80
  0
LINE
  8
0
  6
CONTINUOUS
 62
     7
 10
294
 20
79.99996948242188
 11
294
 21
-80
  0
LINE
  8
0
  6
CONTINUOUS
 62
     7
 10
342
 20
72.5
 11
342
 21
-29.2969970703125
  0
LINE
  8
0
  6
CONTINUOUS
 62
     7
 10
342
 20
-72.5
 11
352
 21
-72.5
  0
LINE
  8
0
  6
CONTINUOUS
 62
     7
 10
342
 20
72.5
 11
352
 21
72.5
  0
LINE
  8
0
  6
CONTINUOUS
 62
     7
 10
342
 20
-53.87158203125
 11
342
 21
-72.5
  0
LINE
  8
0
  6
CONTINUOUS
 62
     7
 10
317.1650085449219
 20
-27.3770580291748
 11
322.4540100097656
 21
-44.5843620300293
  0
LINE
  8
0
  6
CONTINUOUS
 62
     7
 10
299
 20
-25.12686157226563
 11
316.4733276367187
 21
-25.12686157226563
  0
LINE
  8
0
  6
CONTINUOUS
 62
     7
 10
299
 20
28.68206787109375
 11
337
 21
28.68206787109375
  0
LINE
  8
0
  6
CONTINUOUS
 62
     7
 10
299
 20
6.48492431640625
 11
337
 21
6.48492431640625
  0
LINE
  8
0
  6
CONTINUOUS
 62
     7
 10
322.397705078125
 20
-44.3948974609375
 11
322
 21
-44.3948974609375
  0
LINE
  8
0
  6
CONTINUOUS
 62
     7
 10
326.3605346679688
 20
-50.2457275390625
 11
322
 21
-50.2457275390625
  0
LINE
  8
0
  6
CONTINUOUS
 62
     7
 10
294
 20
-48.15165328979492
 11
322
 21
-44.39489364624023
  0
LINE
  8
0
  6
CONTINUOUS
 62
     7
 10
322
 20
-50.24573135375977
 11
294
 21
-54.00249099731445
  0
LINE
  8
0
  6
CONTINUOUS
 62
     7
 10
276
 20
55
 11
276
 21
37.95217895507813
  0
LINE
  8
0
  6
CONTINUOUS
 62
     7
 10
276
 20
-55
 11
280
 21
-55
  0
LINE
  8
0
  6
CONTINUOUS
 62
     7
 10
276
 20
55
 11
280
 21
55
  0
LINE
  8
0
  6
CONTINUOUS
 62
     7
 10
250
 20
11
 11
250
 21
-11
  0
LINE
  8
0
  6
CONTINUOUS
 62
     7
 10
250
 20
-11
 11
280
 21
-11
  0
LINE
  8
0
  6
CONTINUOUS
 62
     7
 10
250
 20
11
 11
280
 21
11
  0
LINE
  8
0
  6
CONTINUOUS
 62
     7
 10
280
 20
-27.09478759765625
 11
280
 21
-80
  0
LINE
  8
0
  6
CONTINUOUS
 62
     7
 10
280
 20
15
 11
280
 21
-15
  0
LINE
  8
0
  6
CONTINUOUS
 62
     7
 10
276
 20
-30.82443237304688
 11
276
 21
-55
  0
LINE
  8
0
  6
CONTINUOUS
 62
     7
 10
280
 20
15
 11
282.9285888671875
 21
15
  0
LINE
  8
0
  6
CONTINUOUS
 62
     7
 10
280
 20
-15
 11
284.2694091796875
 21
-15
  0
LINE
  8
0
  6
CONTINUOUS
 62
     7
 10
250
 20
3
 11
275
 21
3
  0
LINE
  8
0
  6
CONTINUOUS
 62
     7
 10
250
 20
-3
 11
275
 21
-3
  0
LINE
  8
0
  6
CONTINUOUS
 62
     7
 10
275
 20
3
 11
275
 21
-3
  0
LINE
  8
0
  6
CONTINUOUS
 62
     7
 10
337
 20
-29.2969970703125
 11
342
 21
-29.2969970703125
  0
LINE
  8
0
  6
CONTINUOUS
 62
     7
 10
337
 20
-53.87158203125
 11
342
 21
-53.87158203125
  0
LINE
  8
0
  6
CONTINUOUS
 62
     7
 10
294
 20
57.50146865844727
 11
342
 21
54.10739517211914
  0
LINE
  8
0
  6
CONTINUOUS
 62
     7
 10
294
 20
52.04541778564453
 11
341.9999694824219
 21
47.28733444213867
  0
LINE
  8
0
  6
CONTINUOUS
 62
     7
 10
328.2245788574219
 20
-12.42587280273438
 11
342
 21
-12.42587280273438
  0
LINE
  8
0
  6
CONTINUOUS
 62
     7
 10
495
 20
20
 11
495
 21
-20
  0
LINE
  8
0
  6
CONTINUOUS
 62
     7
 10
449
 20
72.5
 11
442
 21
72.5
  0
LINE
  8
0
  6
CONTINUOUS
 62
     7
 10
457
 20
52
 11
452
 21
52
  0
LINE
  8
0
  6
CONTINUOUS
 62
     7
 10
449
 20
72.5
 11
449
 21
63.92559814453125
  0
LINE
  8
0
  6
CONTINUOUS
 62
     7
 10
452
 20
63.92559814453125
 11
452
 21
-63.92559814453125
  0
LINE
  8
0
  6
CONTINUOUS
 62
     7
 10
488
 20
28.5
 11
488
 21
-28.5
  0
LINE
  8
0
  6
CONTINUOUS
 62
     7
 10
495
 20
20.00010299682617
 11
488
 21
24.04154586791992
  0
LINE
  8
0
  6
CONTINUOUS
 62
     7
 10
488
 20
28.5
 11
475.8580322265625
 21
28.5
  0
LINE
  8
0
  6
CONTINUOUS
 62
     7
 10
495
 20
-19.99994659423828
 11
488
 21
-24.04138946533203
  0
LINE
  8
0
  6
CONTINUOUS
 62
     7
 10
488
 20
-28.5
 11
475.8580322265625
 21
-28.5
  0
LINE
  8
0
  6
CONTINUOUS
 62
     7
 10
457
 20
-52
 11
457
 21
52
  0
LINE
  8
0
  6
CONTINUOUS
 62
     7
 10
457
 20
-52
 11
452
 21
-52
  0
LINE
  8
0
  6
CONTINUOUS
 62
     7
 10
449
 20
-72.5
 11
442
 21
-72.5
  0
LINE
  8
0
  6
CONTINUOUS
 62
     7
 10
452
 20
63.92559814453125
 11
449
 21
63.92559814453125
  0
LINE
  8
0
  6
CONTINUOUS
 62
     7
 10
452
 20
-63.92559814453125
 11
449
 21
-63.92559814453125
  0
LINE
  8
0
  6
CONTINUOUS
 62
     7
 10
529
 20
9.5
 11
529
 21
-9.5
  0
LINE
  8
0
  6
CONTINUOUS
 62
     7
 10
529
 20
-9.5
 11
499
 21
-9.5
  0
LINE
  8
0
  6
CONTINUOUS
 62
     7
 10
529
 20
9.5
 11
499
 21
9.5
  0
LINE
  8
0
  6
CONTINUOUS
 62
     7
 10
499
 20
12.5
 11
499
 21
-12.5
  0
LINE
  8
0
  6
CONTINUOUS
 62
     7
 10
499
 20
-12.5
 11
495
 21
-12.5
  0
LINE
  8
0
  6
CONTINUOUS
 62
     7
 10
499
 20
12.5
 11
495
 21
12.5
  0
LINE
  8
0
  6
CONTINUOUS
 62
     7
 10
529
 20
3
 11
504
 21
3
  0
LINE
  8
0
  6
CONTINUOUS
 62
     7
 10
529
 20
-3
 11
504
 21
-3
  0
LINE
  8
0
  6
CONTINUOUS
 62
     7
 10
504
 20
3
 11
504
 21
-3
  0
LINE
  8
0
  6
CONTINUOUS
 62
     7
 10
476.4999694824219
 20
5.917619705200195
 11
457
 21
10.96875286102295
  0
LINE
  8
0
  6
CONTINUOUS
 62
     7
 10
476.5
 20
19.064697265625
 11
457
 21
32.86468505859375
  0
LINE
  8
0
  6
CONTINUOUS
 62
     7
 10
457
 20
46.73051071166992
 11
476.4999694824219
 21
27.87940979003906
  0
LINE
  8
0
  6
CONTINUOUS
 62
     7
 10
476.5000305175781
 20
-5.917574882507324
 11
457.0000305175781
 21
-10.96871566772461
  0
LINE
  8
0
  6
CONTINUOUS
 62
     7
 10
476.5
 20
-19.06472206115723
 11
457.0000305175781
 21
-32.86471176147461
  0
LINE
  8
0
  6
CONTINUOUS
 62
     7
 10
457
 20
-46.73051071166992
 11
476.4999389648438
 21
-27.87944030761719
  0
LINE
  8
0
  6
CONTINUOUS
 62
     7
 10
449
 20
-63.92559814453125
 11
449
 21
-72.5
  0
LINE
  8
0
  6
CONTINUOUS
 62
     7
 10
419.5
 20
73.5
 11
442
 21
73.5
  0
LINE
  8
0
  6
CONTINUOUS
 62
     7
 10
419.5
 20
-73.5
 11
442
 21
-73.5
  0
LINE
  8
0
  6
CONTINUOUS
 62
     7
 10
442
 20
73.5
 11
442
 21
-73.5
  0
LINE
  8
0
  6
CONTINUOUS
 62
     7
 10
-19.92662811279297
 20
-186.9900207519531
 11
-12.95586109161377
 21
-226.5232086181641
  0
LINE
  8
0
  6
CONTINUOUS
 62
     7
 10
359.0723571777344
 20
-209.8900909423828
 11
403.4101867675781
 21
-209.8900909423828
  0
LINE
  8
0
  6
CONTINUOUS
 62
     7
 10
382.5
 20
-188.3558959960938
 11
382.5
 21
-231.1182708740234
  0
ARC
  8
0
  6
CONTINUOUS
 62
     7
 10
394.5
 20
-242.5
 40
4.999999999999981
 50
179.9999776881996
 51
270.0000280040023
  0
ARC
  8
0
  6
CONTINUOUS
 62
     7
 10
389.5
 20
-242.5
 40
4.999999999999981
 50
179.9999776881996
 51
270.0000280040023
  0
ARC
  8
0
  6
CONTINUOUS
 62
     7
 10
389.5
 20
-357.5
 40
4.999999999999981
 50
89.99992737239761
 51
179.9999640278213
  0
ARC
  8
0
  6
CONTINUOUS
 62
     7
 10
394.5
 20
-357.5
 40
4.999999999999981
 50
89.99992737239761
 51
179.9999640278213
  0
ARC
  8
0
  6
CONTINUOUS
 62
     7
 10
404.5
 20
-242.5
 40
5.000000000000004
 50
269.9999974955215
 51
0
  0
ARC
  8
0
  6
CONTINUOUS
 62
     7
 10
404.5
 20
-357.5
 40
5
 50
0
 51
90.00000250447847
  0
ARC
  8
0
  6
CONTINUOUS
 62
     7
 10
337
 20
-268.6921997070313
 40
5.000000000000004
 50
269.9999974955215
 51
0
  0
ARC
  8
0
  6
CONTINUOUS
 62
     7
 10
299
 20
-268.6921997070313
 40
5
 50
179.999991348578
 51
270.0000006832456
  0
ARC
  8
0
  6
CONTINUOUS
 62
     7
 10
299
 20
-331.3078002929687
 40
5.000000000000004
 50
90.00000250447847
 51
180.0000050089563
  0
ARC
  8
0
  6
CONTINUOUS
 62
     7
 10
337
 20
-331.3078002929687
 40
5
 50
0
 51
90.00000250447847
  0
ARC
  8
0
  6
CONTINUOUS
 62
     7
 10
318.8359985351562
 20
-244.2162780761719
 40
1.999999999999984
 50
261.4356711065674
 51
342.3614940911165
  0
ARC
  8
0
  6
CONTINUOUS
 62
     7
 10
-18.1722412109375
 20
-196.9398651123047
 40
3.150000095367433
 50
9.999998855319467
 51
189.9999620293669
  0
CIRCLE
  8
0
  6
CONTINUOUS
 62
     7
 10
0
 20
-300
 40
80
  0
ARC
  8
0
  6
CONTINUOUS
 62
     7
 10
0
 20
-300
 40
10.99999999999999
 50
105.8266231510974
 51
74.17337821539326
  0
CIRCLE
  8
0
  6
CONTINUOUS
 62
     7
 10
0
 20
-300
 40
55
  0
CIRCLE
  8
0
  6
CONTINUOUS
 62
     7
 10
0
 20
-300
 40
50
  0
ARC
  8
0
  6
CONTINUOUS
 62
     3
 10
0
 20
-300
 40
65
 50
351.1501170622253
 51
8.849882937774694
  0
CIRCLE
  8
0
  6
CONTINUOUS
 62
     7
 10
65
 20
-300
 40
6
  0
CIRCLE
  8
0
  6
CONTINUOUS
 62
     7
 10
0
 20
-235
 40
6
  0
ARC
  8
0
  6
CONTINUOUS
 62
     3
 10
0
 20
-300
 40
65
 50
81.15011956670348
 51
98.84988544225286
  0
CIRCLE
  8
0
  6
CONTINUOUS
 62
     7
 10
-65
 20
-300
 40
6
  0
ARC
  8
0
  6
CONTINUOUS
 62
     3
 10
0
 20
-300
 40
65
 50
171.1501152409925
 51
188.8498811165419
  0
CIRCLE
  8
0
  6
CONTINUOUS
 62
     7
 10
0
 20
-365
 40
6
  0
ARC
  8
0
  6
CONTINUOUS
 62
     3
 10
0
 20
-300
 40
65.00000000000001
 50
261.1501145577471
 51
278.8498804332965
  0
ARC
  8
0
  6
CONTINUOUS
 62
     7
 10
389.5
 20
-57.5
 40
4.999999999999997
 50
89.99998201391097
 51
179.9999640278213
  0
ARC
  8
0
  6
CONTINUOUS
 62
     7
 10
389.5
 20
57.5
 40
4.999999999999981
 50
179.9999776881996
 51
270.0000280040023
  0
ARC
  8
0
  6
CONTINUOUS
 62
     7
 10
404.5
 20
-57.5
 40
5
 50
0
 51
90.00000250447847
  0
ARC
  8
0
  6
CONTINUOUS
 62
     7
 10
404.5
 20
57.5
 40
4.999999999999997
 50
269.9999974955215
 51
0
  0
ARC
  8
0
  6
CONTINUOUS
 62
     7
 10
299
 20
33.68206787109375
 40
5
 50
179.999991348578
 51
270.0000006832456
  0
ARC
  8
0
  6
CONTINUOUS
 62
     7
 10
299
 20
11.48492431640625
 40
5
 50
179.999991348578
 51
270.0000006832456
  0
ARC
  8
0
  6
CONTINUOUS
 62
     7
 10
275
 20
0
 40
3
 50
269.9999974955215
 51
90.00000250447847
  0
ARC
  8
0
  6
CONTINUOUS
 62
     7
 10
337
 20
33.68206787109375
 40
5.000000000000001
 50
269.9999974955215
 51
0
  0
ARC
  8
0
  6
CONTINUOUS
 62
     7
 10
337
 20
11.48492431640625
 40
5
 50
269.9999974955215
 51
360
  0
ARC
  8
0
  6
CONTINUOUS
 62
     7
 10
299
 20
-30.12686157226563
 40
5.000000000000001
 50
90.00000250447847
 51
180.0000050089563
  0
ARC
  8
0
  6
CONTINUOUS
 62
     7
 10
504
 20
0
 40
3
 50
89.99998201391097
 51
269.9999460417318
  0
POLYLINE
  8
0
  6
CONTINUOUS
 62
     7
 66
     1
 10
0
 20
0
  0
VERTEX
  8
0
  6
CONTINUOUS
 62
     7
 10
390.061189192087
 20
-224.1081479795829
 42
0.08272214436005063
  0
VERTEX
  8
0
  6
CONTINUOUS
 62
     7
 10
394.3481326217577
 20
-220.9067989025597
 42
0.08385195724974907
  0
VERTEX
  8
0
  6
CONTINUOUS
 62
     7
 10
397.3558385509185
 20
-216.4818604724657
 42
0.08471352835312887
  0
VERTEX
  8
0
  6
CONTINUOUS
 62
     7
 10
398.7339010333826
 20
-211.3125010270074
 42
0.08490394484121092
  0
VERTEX
  8
0
  6
CONTINUOUS
 62
     7
 10
398.316633618275
 20
-205.9801493042962
 42
0.08436954756308532
  0
VERTEX
  8
0
  6
CONTINUOUS
 62
     7
 10
396.1548502984401
 20
-201.0869038798029
 42
0.08333436534514893
  0
VERTEX
  8
0
  6
CONTINUOUS
 62
     7
 10
392.505071478934
 20
-197.1746333523448
 42
0.0822640760755176
  0
VERTEX
  8
0
  6
CONTINUOUS
 62
     7
 10
387.7827009051663
 20
-194.6575649971801
 42
0.08162575954467678
  0
VERTEX
  8
0
  6
CONTINUOUS
 62
     7
 10
382.5
 20
-193.7898559570312
 42
0.08158651728712935
  0
VERTEX
  8
0
  6
CONTINUOUS
 62
     7
 10
377.2197300902632
 20
-194.6567438212063
 42
0.08224709535876715
  0
VERTEX
  8
0
  6
CONTINUOUS
 62
     7
 10
372.4978138242716
 20
-197.1724213062727
 42
0.08333889015942572
  0
VERTEX
  8
0
  6
CONTINUOUS
 62
     7
 10
368.8469676925434
 20
-201.0841539537639
 42
0.08437845610601137
  0
VERTEX
  8
0
  6
CONTINUOUS
 62
     7
 10
366.6840281944521
 20
-205.9775299915169
 42
0.08490760073461573
  0
VERTEX
  8
0
  6
CONTINUOUS
 62
     7
 10
366.2658742511385
 20
-211.3100454668092
 42
0.08470970460368188
  0
VERTEX
  8
0
  6
CONTINUOUS
 62
     7
 10
367.6430272189461
 20
-216.4793823841288
 42
0.08383810240638162
  0
VERTEX
  8
0
  6
CONTINUOUS
 62
     7
 10
370.6493426858557
 20
-220.9041628187437
 42
0.08273731688226664
  0
VERTEX
  8
0
  6
CONTINUOUS
 62
     7
 10
374.936402016816
 20
-224.1069037398442
 42
0
  0
SEQEND
  8
0
  0
POLYLINE
  8
0
  6
CONTINUOUS
 62
     7
 66
     1
 10
0
 20
0
 70
     1
  0
VERTEX
  8
0
  6
CONTINUOUS
 62
     7
 10
392.5
 20
-209.8900909423828
 42
0.1005697614596673
  0
VERTEX
  8
0
  6
CONTINUOUS
 62
     7
 10
391.7286164258952
 20
-206.0972835948851
 42
0.09931459426856534
  0
VERTEX
  8
0
  6
CONTINUOUS
 62
     7
 10
389.5449283026197
 20
-202.900797913141
 42
0.09762475566249365
  0
VERTEX
  8
0
  6
CONTINUOUS
 62
     7
 10
386.3027735203133
 20
-200.7818698241244
 42
0.09645742494749279
  0
VERTEX
  8
0
  6
CONTINUOUS
 62
     7
 10
382.5
 20
-200.0420074462891
 42
0.0964368343300559
  0
VERTEX
  8
0
  6
CONTINUOUS
 62
     7
 10
378.6979889324393
 20
-200.7815611270046
 42
0.09759325526353925
  0
VERTEX
  8
0
  6
CONTINUOUS
 62
     7
 10
375.4565369725482
 20
-202.8993658033249
 42
0.09935255147168257
  0
VERTEX
  8
0
  6
CONTINUOUS
 62
     7
 10
373.2715980621025
 20
-206.0967774812675
 42
0.10058399225545
  0
VERTEX
  8
0
  6
CONTINUOUS
 62
     7
 10
372.5
 20
-209.8900909423828
 42
0.1005699380586784
  0
VERTEX
  8
0
  6
CONTINUOUS
 62
     7
 10
373.2713844715514
 20
-213.6828980014489
 42
0.09931486592913767
  0
VERTEX
  8
0
  6
CONTINUOUS
 62
     7
 10
375.455076428439
 20
-216.8793809132591
 42
0.09762481604127975
  0
VERTEX
  8
0
  6
CONTINUOUS
 62
     7
 10
378.6972352694489
 20
-218.9983027098581
 42
0.09645692972530474
  0
VERTEX
  8
0
  6
CONTINUOUS
 62
     7
 10
382.5
 20
-219.7381591796875
 42
0.09643659111139537
  0
VERTEX
  8
0
  6
CONTINUOUS
 62
     7
 10
386.3020116123553
 20
-218.9986076263891
 42
0.09759332041092413
  0
VERTEX
  8
0
  6
CONTINUOUS
 62
     7
 10
389.5434655186984
 20
-216.8808059607914
 42
0.0993528272708499
  0
VERTEX
  8
0
  6
CONTINUOUS
 62
     7
 10
391.7284049781671
 20
-213.6833948232787
 42
0.1005839080411472
  0
SEQEND
  8
0
  0
POLYLINE
  8
0
  6
CONTINUOUS
 62
     7
 66
     1
 10
0
 20
0
  0
VERTEX
  8
0
  6
CONTINUOUS
 62
     7
 10
389.633260319332
 20
-221.6705082286607
 42
0.2015082714047511
  0
VERTEX
  8
0
  6
CONTINUOUS
 62
     7
 10
388.9032570372444
 20
-221.1620278178304
 42
0.03155962249728161
  0
VERTEX
  8
0
  6
CONTINUOUS
 62
     7
 10
388.013428586751
 20
-220.9229466748142
 42
0.01542694082227293
  0
VERTEX
  8
0
  6
CONTINUOUS
 62
     7
 10
387.1057895615068
 20
-220.7635852299206
 42
0.01021026469516494
  0
VERTEX
  8
0
  6
CONTINUOUS
 62
     7
 10
386.1902648884376
 20
-220.6497806231095
 42
0.00782924774678115
  0
VERTEX
  8
0
  6
CONTINUOUS
 62
     7
 10
385.2711859274283
 20
-220.5686921155886
 42
0.006588713842202576
  0
VERTEX
  8
0
  6
CONTINUOUS
 62
     7
 10
384.3499521814701
 20
-220.5139474174719
 42
0.005931101374146533
  0
VERTEX
  8
0
  6
CONTINUOUS
 62
     7
 10
383.4275498075577
 20
-220.4821798476608
 42
0.005641265167937867
  0
VERTEX
  8
0
  6
CONTINUOUS
 62
     7
 10
382.5046231181426
 20
-220.4716952056555
 42
0.005639189148662546
  0
VERTEX
  8
0
  6
CONTINUOUS
 62
     7
 10
381.5818052347443
 20
-220.481968535918
 42
0.005918164220035085
  0
VERTEX
  8
0
  6
CONTINUOUS
 62
     7
 10
380.6606368483845
 20
-220.5134566653092
 42
0.006584376605021844
  0
VERTEX
  8
0
  6
CONTINUOUS
 62
     7
 10
379.7386271257537
 20
-220.5679774050531
 42
0.007814520412727555
  0
VERTEX
  8
0
  6
CONTINUOUS
 62
     7
 10
378.8191934726263
 20
-220.6487926334559
 42
0.01018488360751993
  0
VERTEX
  8
0
  6
CONTINUOUS
 62
     7
 10
377.9029309451888
 20
-220.7623111264578
 42
0.01540565567865772
  0
VERTEX
  8
0
  6
CONTINUOUS
 62
     7
 10
376.9926603793591
 20
-220.9216651729646
 42
0.0314174236979872
  0
VERTEX
  8
0
  6
CONTINUOUS
 62
     7
 10
376.1013798084896
 20
-221.1603987084411
 42
0.1997036642486191
  0
VERTEX
  8
0
  6
CONTINUOUS
 62
     7
 10
375.3671489644616
 20
-221.6682280128126
 42
0
  0
SEQEND
  8
0
  0
POLYLINE
  8
0
  6
CONTINUOUS
 62
     7
 66
     1
 10
0
 20
0
  0
VERTEX
  8
0
  6
CONTINUOUS
 62
     7
 10
337
 20
-232.0080261230469
 42
0.02729414574267297
  0
VERTEX
  8
0
  6
CONTINUOUS
 62
     7
 10
334.536234187923
 20
-232.1422310448878
 42
0.02858769292558586
  0
VERTEX
  8
0
  6
CONTINUOUS
 62
     7
 10
332.1034241697899
 20
-232.5493497021221
 42
0.03145287426883771
  0
VERTEX
  8
0
  6
CONTINUOUS
 62
     7
 10
329.7359716608767
 20
-233.2440100413826
 42
0.03644156390584443
  0
VERTEX
  8
0
  6
CONTINUOUS
 62
     7
 10
327.4843202072273
 20
-234.2509047233417
 42
0.04462440548515278
  0
VERTEX
  8
0
  6
CONTINUOUS
 62
     7
 10
325.424100239892
 20
-235.6053429745781
 42
0.05749376049333178
  0
VERTEX
  8
0
  6
CONTINUOUS
 62
     7
 10
323.6801817719918
 20
-237.3453519546986
 42
0.07545535955645857
  0
VERTEX
  8
0
  6
CONTINUOUS
 62
     7
 10
322.4537965337367
 20
-239.4773277993729
 42
0.09188341514557241
  0
VERTEX
  8
0
  6
CONTINUOUS
 62
     7
 10
322
 20
-241.8895263671875
 42
0.09187005358218477
  0
VERTEX
  8
0
  6
CONTINUOUS
 62
     7
 10
322.453661654036
 20
-244.301371930502
 42
0.07541336874226552
  0
VERTEX
  8
0
  6
CONTINUOUS
 62
     7
 10
323.6789273509098
 20
-246.43210472917
 42
0.05747327667524911
  0
VERTEX
  8
0
  6
CONTINUOUS
 62
     7
 10
325.4212560441566
 20
-248.1714353925668
 42
0.04463179785896394
  0
VERTEX
  8
0
  6
CONTINUOUS
 62
     7
 10
327.4806837570289
 20
-249.5261814628025
 42
0.03644950507326258
  0
VERTEX
  8
0
  6
CONTINUOUS
 62
     7
 10
329.7318960601078
 20
-250.5335560707012
 42
0.03145601781678806
  0
VERTEX
  8
0
  6
CONTINUOUS
 62
     7
 10
332.0989113193412
 20
-251.2286757836646
 42
0.02860280347113898
  0
VERTEX
  8
0
  6
CONTINUOUS
 62
     7
 10
334.5326458328389
 20
-251.6364277777836
 42
0.02729781560604385
  0
VERTEX
  8
0
  6
CONTINUOUS
 62
     7
 10
336.9966412697866
 20
-251.7710263636084
 42
0
  0
SEQEND
  8
0
  0
POLYLINE
  8
0
  6
CONTINUOUS
 62
     7
 66
     1
 10
0
 20
0
  0
VERTEX
  8
0
  6
CONTINUOUS
 62
     7
 10
276.0000690381156
 20
-258.4146099540828
 42
-0.1732920784153117
  0
VERTEX
  8
0
  6
CONTINUOUS
 62
     7
 10
282.1839993497964
 20
-263.8742647553859
 42
-0.1212092049340027
  0
VERTEX
  8
0
  6
CONTINUOUS
 62
     7
 10
283.1857894860881
 20
-272.1458181009053
 42
-0.0003663815376344817
  0
VERTEX
  8
0
  6
CONTINUOUS
 62
     7
 10
282.5617617818889
 20
-280.542142371198
 42
0.007283536024579504
  0
VERTEX
  8
0
  6
CONTINUOUS
 62
     7
 10
282.0657430018173
 20
-288.9470736120044
 42
0.01061071921223172
  0
VERTEX
  8
0
  6
CONTINUOUS
 62
     7
 10
281.8876863966273
 20
-297.3632397230252
 42
0.01021215195777679
  0
VERTEX
  8
0
  6
CONTINUOUS
 62
     7
 10
282.0615278066106
 20
-305.7789427115484
 42
0.006671870884651029
  0
VERTEX
  8
0
  6
CONTINUOUS
 62
     7
 10
282.5421919249837
 20
-314.1837970924046
 42
-0.1117217932665743
  0
VERTEX
  8
0
  6
CONTINUOUS
 62
     7
 10
281.6062275587632
 20
-322.4769794767263
 42
-0.147152679289853
  0
VERTEX
  8
0
  6
CONTINUOUS
 62
     7
 10
276.0023825019858
 20
-328.595008025307
 42
0
  0
SEQEND
  8
0
  0
POLYLINE
  8
0
  6
CONTINUOUS
 62
     7
 66
     1
 10
0
 20
0
  0
VERTEX
  8
0
  6
CONTINUOUS
 62
     7
 10
374.7619022221351
 20
10.93737814818254
 42
0.04188730367415408
  0
VERTEX
  8
0
  6
CONTINUOUS
 62
     7
 10
375.2020344841995
 20
9.709403999588023
 42
0.04165594837380736
  0
VERTEX
  8
0
  6
CONTINUOUS
 62
     7
 10
375.8402812820294
 20
8.571480997584224
 42
0.04136510392950526
  0
VERTEX
  8
0
  6
CONTINUOUS
 62
     7
 10
376.6577381641795
 20
7.554627661301531
 42
0.04106114708348518
  0
VERTEX
  8
0
  6
CONTINUOUS
 62
     7
 10
377.6310482054422
 20
6.685491964297059
 42
0.0407735773251913
  0
VERTEX
  8
0
  6
CONTINUOUS
 62
     7
 10
378.7331206473257
 20
5.986312499169612
 42
0.04052878174776913
  0
VERTEX
  8
0
  6
CONTINUOUS
 62
     7
 10
379.9339797017338
 20
5.474564569895142
 42
0.04034729443310841
  0
VERTEX
  8
0
  6
CONTINUOUS
 62
     7
 10
381.2015544560752
 20
5.162753377309826
 42
0.04023511476117915
  0
VERTEX
  8
0
  6
CONTINUOUS
 62
     7
 10
382.5021778129697
 20
5.058288866146238
 42
0.04022823417034838
  0
VERTEX
  8
0
  6
CONTINUOUS
 62
     7
 10
383.8025196657523
 20
5.163414401938658
 42
0.04031551583044991
  0
VERTEX
  8
0
  6
CONTINUOUS
 62
     7
 10
385.0689486216772
 20
5.475541793439418
 42
0.04051141576209753
  0
VERTEX
  8
0
  6
CONTINUOUS
 62
     7
 10
386.2691032684894
 20
5.987481882585707
 42
0.04075983235442168
  0
VERTEX
  8
0
  6
CONTINUOUS
 62
     7
 10
387.3705931556671
 20
6.686732166066828
 42
0.04106008099384164
  0
VERTEX
  8
0
  6
CONTINUOUS
 62
     7
 10
388.3436447586855
 20
7.556083921328601
 42
0.04137779398194945
  0
VERTEX
  8
0
  6
CONTINUOUS
 62
     7
 10
389.1610580729468
 20
8.573463371376487
 42
0.04167556173286838
  0
VERTEX
  8
0
  6
CONTINUOUS
 62
     7
 10
389.7992052336398
 20
9.712124199119197
 42
0.0419164945613988
  0
VERTEX
  8
0
  6
CONTINUOUS
 62
     7
 10
390.2390962624776
 20
10.94112975636097
 42
0
  0
SEQEND
  8
0
  0
POLYLINE
  8
0
  6
CONTINUOUS
 62
     7
 66
     1
 10
0
 20
0
  0
VERTEX
  8
0
  6
CONTINUOUS
 62
     7
 10
393.4314048289556
 20
20.26018562728211
 42
0.0175428024714746
  0
VERTEX
  8
0
  6
CONTINUOUS
 62
     7
 10
392.0899370004203
 20
20.55332861378042
 42
0.01105000106661794
  0
VERTEX
  8
0
  6
CONTINUOUS
 62
     7
 10
390.733649092524
 20
20.77138152718538
 42
0.00811675394763384
  0
VERTEX
  8
0
  6
CONTINUOUS
 62
     7
 10
389.369275033338
 20
20.93806667291368
 42
0.006531214552906759
  0
VERTEX
  8
0
  6
CONTINUOUS
 62
     7
 10
388.0008428141854
 20
21.06499833982713
 42
0.005600166967224967
  0
VERTEX
  8
0
  6
CONTINUOUS
 62
     7
 10
386.6294646684681
 20
21.1588740847845
 42
0.005037299046460523
  0
VERTEX
  8
0
  6
CONTINUOUS
 62
     7
 10
385.2560748062273
 20
21.2236686663077
 42
0.004711430493019671
  0
VERTEX
  8
0
  6
CONTINUOUS
 62
     7
 10
383.8815881704424
 20
21.26174597165706
 42
0.004560874606666912
  0
VERTEX
  8
0
  6
CONTINUOUS
 62
     7
 10
382.5066224349903
 20
21.27438325536233
 42
0.004559742370437119
  0
VERTEX
  8
0
  6
CONTINUOUS
 62
     7
 10
381.1317827739626
 20
21.26199006405944
 42
0.004705488727858587
  0
VERTEX
  8
0
  6
CONTINUOUS
 62
     7
 10
379.7583480273248
 20
21.22420401926933
 42
0.005034824033437691
  0
VERTEX
  8
0
  6
CONTINUOUS
 62
     7
 10
378.3844006311996
 20
21.15966894912225
 42
0.005594377643009145
  0
VERTEX
  8
0
  6
CONTINUOUS
 62
     7
 10
377.0126631807536
 20
21.06607682664444
 42
0.006523128034339801
  0
VERTEX
  8
0
  6
CONTINUOUS
 62
     7
 10
375.6434924884791
 20
20.93942309762384
 42
0.008102150586959728
  0
VERTEX
  8
0
  6
CONTINUOUS
 62
     7
 10
374.2783449725728
 20
20.7730520002711
 42
0.01103428390014309
  0
VERTEX
  8
0
  6
CONTINUOUS
 62
     7
 10
372.9199077333647
 20
20.55514866948618
 42
0.01751373987313781
  0
VERTEX
  8
0
  6
CONTINUOUS
 62
     7
 10
371.5757872245591
 20
20.26205137394807
 42
0
  0
SEQEND
  8
0
  0
POLYLINE
  8
0
  6
CONTINUOUS
 62
     7
 66
     1
 10
0
 20
0
 70
     1
  0
VERTEX
  8
0
  6
CONTINUOUS
 62
     7
 10
382.5
 20
15.07009887695313
 42
0.01162476452189673
  0
VERTEX
  8
0
  6
CONTINUOUS
 62
     7
 10
379.0818891266273
 20
14.99160828867686
 42
0.01447217399078266
  0
VERTEX
  8
0
  6
CONTINUOUS
 62
     7
 10
375.6713792691482
 20
14.73808060470511
 42
0.02556038781702019
  0
VERTEX
  8
0
  6
CONTINUOUS
 62
     7
 10
372.2910452185806
 20
14.22591025962467
 42
0.1952839009470553
  0
VERTEX
  8
0
  6
CONTINUOUS
 62
     7
 10
369.35001214316
 20
12.78443255642295
 42
0.1938987691653302
  0
VERTEX
  8
0
  6
CONTINUOUS
 62
     7
 10
372.2942839600086
 20
11.34665175964834
 42
0.02553136055714088
  0
VERTEX
  8
0
  6
CONTINUOUS
 62
     7
 10
375.6729289292065
 20
10.83502013040028
 42
0.01446583242551547
  0
VERTEX
  8
0
  6
CONTINUOUS
 62
     7
 10
379.082344894868
 20
10.58164084475829
 42
0.01162275125249971
  0
VERTEX
  8
0
  6
CONTINUOUS
 62
     7
 10
382.5
 20
10.503173828125
 42
0.01162444772987131
  0
VERTEX
  8
0
  6
CONTINUOUS
 62
     7
 10
385.9181109421924
 20
10.58166215016709
 42
0.01447191320538534
  0
VERTEX
  8
0
  6
CONTINUOUS
 62
     7
 10
389.3286212821456
 20
10.83518367267387
 42
0.02556016153305534
  0
VERTEX
  8
0
  6
CONTINUOUS
 62
     7
 10
392.7089567942722
 20
11.34734461322044
 42
0.1952857525117251
  0
VERTEX
  8
0
  6
CONTINUOUS
 62
     7
 10
395.649987828509
 20
12.78881475813335
 42
0.1938970346386666
  0
VERTEX
  8
0
  6
CONTINUOUS
 62
     7
 10
392.7057157601428
 20
14.22660275370711
 42
0.02553159831797682
  0
VERTEX
  8
0
  6
CONTINUOUS
 62
     7
 10
389.3270722648019
 20
14.73824396651164
 42
0.01446609579013705
  0
VERTEX
  8
0
  6
CONTINUOUS
 62
     7
 10
385.9176567800718
 20
14.99162951316865
 42
0.01162307440157711
  0
SEQEND
  8
0
  0
POLYLINE
  8
0
  6
CONTINUOUS
 62
     7
 66
     1
 10
0
 20
0
  0
VERTEX
  8
0
  6
CONTINUOUS
 62
     7
 10
371.5736999511719
 20
20.26150512695312
 42
0.01843635118410121
  0
VERTEX
  8
0
  6
CONTINUOUS
 62
     7
 10
370.5927281980459
 20
20.02168355166498
 42
0.005077713457411355
  0
VERTEX
  8
0
  6
CONTINUOUS
 62
     7
 10
369.6233153901571
 20
19.73862101622251
 42
0.02696900170245065
  0
VERTEX
  8
0
  6
CONTINUOUS
 62
     7
 10
368.6726104271454
 20
19.39874832366537
 42
0.05660757361487111
  0
VERTEX
  8
0
  6
CONTINUOUS
 62
     7
 10
367.7928148625943
 20
18.90714904828949
 42
0.06337923833050824
  0
VERTEX
  8
0
  6
CONTINUOUS
 62
     7
 10
367.0650124159465
 20
18.21049324192239
 42
0.06341668615123823
  0
VERTEX
  8
0
  6
CONTINUOUS
 62
     7
 10
366.5286687861259
 20
17.35648193220872
 42
0.07213583156042287
  0
VERTEX
  8
0
  6
CONTINUOUS
 62
     7
 10
366.2430941642388
 20
16.39153076951115
 42
0.07236455277581537
  0
VERTEX
  8
0
  6
CONTINUOUS
 62
     7
 10
366.2432056499582
 20
15.38527698217656
 42
0.07212300140074317
  0
VERTEX
  8
0
  6
CONTINUOUS
 62
     7
 10
366.5289025447418
 20
14.42056653400342
 42
0.06331747111164614
  0
VERTEX
  8
0
  6
CONTINUOUS
 62
     7
 10
367.06434824941
 20
13.5678784695395
 42
0.06336610898978071
  0
VERTEX
  8
0
  6
CONTINUOUS
 62
     7
 10
367.7919655116744
 20
12.87103107425727
 42
0.05663944402412389
  0
VERTEX
  8
0
  6
CONTINUOUS
 62
     7
 10
368.6716597986451
 20
12.37921855455324
 42
0.02700180119260272
  0
VERTEX
  8
0
  6
CONTINUOUS
 62
     7
 10
369.6225569088974
 20
12.03916970608291
 42
0.005083127334602337
  0
VERTEX
  8
0
  6
CONTINUOUS
 62
     7
 10
370.5924881851635
 20
11.75594058514607
 42
0.01843875788479786
  0
VERTEX
  8
0
  6
CONTINUOUS
 62
     7
 10
371.5736999511719
 20
11.51605224609375
 42
0
  0
SEQEND
  8
0
  0
POLYLINE
  8
0
  6
CONTINUOUS
 62
     7
 66
     1
 10
0
 20
0
  0
VERTEX
  8
0
  6
CONTINUOUS
 62
     7
 10
393.4263000488281
 20
20.26150512695312
 42
-0.01843635118410115
  0
VERTEX
  8
0
  6
CONTINUOUS
 62
     7
 10
394.4072718019541
 20
20.02168355166498
 42
-0.005077713457411355
  0
VERTEX
  8
0
  6
CONTINUOUS
 62
     7
 10
395.3766846098429
 20
19.73862101622251
 42
-0.02696900170245065
  0
VERTEX
  8
0
  6
CONTINUOUS
 62
     7
 10
396.3273895728546
 20
19.39874832366537
 42
-0.05660757361487117
  0
VERTEX
  8
0
  6
CONTINUOUS
 62
     7
 10
397.2071851374057
 20
18.90714904828949
 42
-0.06337923833050824
  0
VERTEX
  8
0
  6
CONTINUOUS
 62
     7
 10
397.9349875840535
 20
18.21049324192239
 42
-0.06341668615123824
  0
VERTEX
  8
0
  6
CONTINUOUS
 62
     7
 10
398.4713312138741
 20
17.35648193220872
 42
-0.07213583156042279
  0
VERTEX
  8
0
  6
CONTINUOUS
 62
     7
 10
398.7569058357612
 20
16.39153076951115
 42
-0.07236455277581437
  0
VERTEX
  8
0
  6
CONTINUOUS
 62
     7
 10
398.7567943500418
 20
15.38527698217656
 42
-0.0721230014007444
  0
VERTEX
  8
0
  6
CONTINUOUS
 62
     7
 10
398.4710974552582
 20
14.42056653400342
 42
-0.06331747111164591
  0
VERTEX
  8
0
  6
CONTINUOUS
 62
     7
 10
397.93565175059
 20
13.5678784695395
 42
-0.06336610898978394
  0
VERTEX
  8
0
  6
CONTINUOUS
 62
     7
 10
397.2080344883256
 20
12.87103107425727
 42
-0.05663944402412389
  0
VERTEX
  8
0
  6
CONTINUOUS
 62
     7
 10
396.3283402013549
 20
12.37921855455324
 42
-0.02700180119260272
  0
VERTEX
  8
0
  6
CONTINUOUS
 62
     7
 10
395.3774430911026
 20
12.03916970608291
 42
-0.005083127334602337
  0
VERTEX
  8
0
  6
CONTINUOUS
 62
     7
 10
394.4075118148365
 20
11.75594058514607
 42
-0.01843875788479786
  0
VERTEX
  8
0
  6
CONTINUOUS
 62
     7
 10
393.4263000488281
 20
11.51605224609375
 42
0
  0
SEQEND
  8
0
  0
POLYLINE
  8
0
  6
CONTINUOUS
 62
     7
 66
     1
 10
0
 20
0
  0
VERTEX
  8
0
  6
CONTINUOUS
 62
     7
 10
328.2258666681806
 20
-12.42597278012289
 42
0.01863018118450763
  0
VERTEX
  8
0
  6
CONTINUOUS
 62
     7
 10
326.9472908110446
 20
-12.72581608317094
 42
0.01914897136677063
  0
VERTEX
  8
0
  6
CONTINUOUS
 62
     7
 10
325.69488786198
 20
-13.12128933044655
 42
0.01982313497678499
  0
VERTEX
  8
0
  6
CONTINUOUS
 62
     7
 10
324.4768998562337
 20
-13.61308389514611
 42
0.02065958604679442
  0
VERTEX
  8
0
  6
CONTINUOUS
 62
     7
 10
323.3024574780722
 20
-14.2018077555583
 42
0.02166350506311449
  0
VERTEX
  8
0
  6
CONTINUOUS
 62
     7
 10
322.1817690088009
 20
-14.88777030190832
 42
0.02283527298842306
  0
VERTEX
  8
0
  6
CONTINUOUS
 62
     7
 10
321.1262837696584
 20
-15.67068178680392
 42
0.02416589556079097
  0
VERTEX
  8
0
  6
CONTINUOUS
 62
     7
 10
320.1487937110761
 20
-16.54924800064175
 42
0.0256307478012182
  0
VERTEX
  8
0
  6
CONTINUOUS
 62
     7
 10
319.263415118363
 20
-17.52064952177599
 42
0.02718211632633529
  0
VERTEX
  8
0
  6
CONTINUOUS
 62
     7
 10
318.4853690610602
 20
-18.57991870748717
 42
0.02874234952373213
  0
VERTEX
  8
0
  6
CONTINUOUS
 62
     7
 10
317.8304653762589
 20
-19.71927340352003
 42
0.0302013602956813
  0
VERTEX
  8
0
  6
CONTINUOUS
 62
     7
 10
317.3142120274042
 20
-20.92753437162162
 42
0.03142373984173261
  0
VERTEX
  8
0
  6
CONTINUOUS
 62
     7
 10
316.9505464102389
 20
-22.18982491187344
 42
0.03226953547381808
  0
VERTEX
  8
0
  6
CONTINUOUS
 62
     7
 10
316.7503284684354
 20
-23.48777879738565
 42
0.03261578128552609
  0
VERTEX
  8
0
  6
CONTINUOUS
 62
     7
 10
316.7198890397498
 20
-24.79996770015599
 42
0.03242754396010072
  0
VERTEX
  8
0
  6
CONTINUOUS
 62
     7
 10
316.8599828146145
 20
-26.10446893128929
 42
0.0317515777361622
  0
VERTEX
  8
0
  6
CONTINUOUS
 62
     7
 10
317.1661273747767
 20
-27.38079637226241
 42
0
  0
SEQEND
  8
0
  0
POLYLINE
  8
0
  6
CONTINUOUS
 62
     7
 66
     1
 10
0
 20
0
  0
VERTEX
  8
0
  6
CONTINUOUS
 62
     7
 10
337
 20
-29.2969970703125
 42
0.03684100915016069
  0
VERTEX
  8
0
  6
CONTINUOUS
 62
     7
 10
334.3248356402441
 20
-29.49398538004669
 42
0.03801003109662488
  0
VERTEX
  8
0
  6
CONTINUOUS
 62
     7
 10
331.7095919964505
 20
-30.08659449703045
 42
0.04046201344888641
  0
VERTEX
  8
0
  6
CONTINUOUS
 62
     7
 10
329.217887000041
 20
-31.07999452506545
 42
0.04428261258127549
  0
VERTEX
  8
0
  6
CONTINUOUS
 62
     7
 10
326.9285733187973
 20
-32.47855553873524
 42
0.04948563610756317
  0
VERTEX
  8
0
  6
CONTINUOUS
 62
     7
 10
324.9404025435135
 20
-34.27746248606573
 42
0.05578176975687745
  0
VERTEX
  8
0
  6
CONTINUOUS
 62
     7
 10
323.3719381984464
 20
-36.45061958611024
 42
0.06202765774140023
  0
VERTEX
  8
0
  6
CONTINUOUS
 62
     7
 10
322.3545338266268
 20
-38.92862880642772
 42
0.06616822561189518
  0
VERTEX
  8
0
  6
CONTINUOUS
 62
     7
 10
322
 20
-41.58428955078125
 42
0.06611429329772901
  0
VERTEX
  8
0
  6
CONTINUOUS
 62
     7
 10
322.3539531246856
 20
-44.23780049723165
 42
0.06200344252648048
  0
VERTEX
  8
0
  6
CONTINUOUS
 62
     7
 10
323.3702152087653
 20
-46.71488925137595
 42
0.05578049654464067
  0
VERTEX
  8
0
  6
CONTINUOUS
 62
     7
 10
324.9377025977029
 20
-48.88812554733447
 42
0.04948567580066787
  0
VERTEX
  8
0
  6
CONTINUOUS
 62
     7
 10
326.9249249200378
 20
-50.68731492131647
 42
0.04427679459802826
  0
VERTEX
  8
0
  6
CONTINUOUS
 62
     7
 10
329.2130601449394
 20
-52.0861840347112
 42
0.0404735962508749
  0
VERTEX
  8
0
  6
CONTINUOUS
 62
     7
 10
331.7047856491423
 20
-53.08049986921473
 42
0.03804200425318968
  0
VERTEX
  8
0
  6
CONTINUOUS
 62
     7
 10
334.3219006902546
 20
-53.67415771768141
 42
0.03688218119177317
  0
VERTEX
  8
0
  6
CONTINUOUS
 62
     7
 10
337
 20
-53.87158203125
 42
0
  0
SEQEND
  8
0
  0
POLYLINE
  8
0
  6
CONTINUOUS
 62
     7
 66
     1
 10
0
 20
0
  0
VERTEX
  8
0
  6
CONTINUOUS
 62
     7
 10
276.0005609189186
 20
37.95217259517374
 42
-0.2025952453709609
  0
VERTEX
  8
0
  6
CONTINUOUS
 62
     7
 10
282.7619724738529
 20
31.81737819769076
 42
-0.1113159613900907
  0
VERTEX
  8
0
  6
CONTINUOUS
 62
     7
 10
283.6758480757823
 20
22.56371110192877
 42
0.002982222419762048
  0
VERTEX
  8
0
  6
CONTINUOUS
 62
     7
 10
282.7928628948298
 20
13.22579390915218
 42
0.02910618138500928
  0
VERTEX
  8
0
  6
CONTINUOUS
 62
     7
 10
282.7248274934071
 20
3.851539784709818
 42
0.01883125156364912
  0
VERTEX
  8
0
  6
CONTINUOUS
 62
     7
 10
283.5915053577223
 20
-5.485678585625902
 42
-0.03365229345007666
  0
VERTEX
  8
0
  6
CONTINUOUS
 62
     7
 10
284.2728046176281
 20
-14.83369268863839
 42
-0.1197262810499237
  0
VERTEX
  8
0
  6
CONTINUOUS
 62
     7
 10
282.2228048665738
 20
-23.89508494788411
 42
-0.1044977235268088
  0
VERTEX
  8
0
  6
CONTINUOUS
 62
     7
 10
276.0017297443529
 20
-30.82306357070092
 42
0
  0
SEQEND
  8
0
  0
TEXT
  8
0
  6
CONTINUOUS
 62
     7
 10
-60.42857265472412
 20
-9
 40
18
 41
0.8463385726223475
  1
ＥＲＶ－＿ＡＡ
  0
ENDSEC
  0
EOF
