  0
SECTION
  2
HEADER
  0
ENDSEC
  0
SECTION
  2
TABLES
  0
TABLE
  2
LTYPE
 70
    22
  0
LTYPE
  2
CONTINUOUS
 70
    64
  3
Solid line
 72
    65
 73
     0
 40
0.000000
  0
LTYPE
  2
DASHED
 70
    64
  3
__ __ __ __ __ __ __ __ __ __ __ __ __ __ __
 72
    65
 73
     2
 40
3.500000
 49
2.000000
 49
-1.500000
  0
LTYPE
  2
CENTER
 70
    64
  3
____ _ ____ _ ____ _ ____ _ ____ _ ____ _ ____
 72
    65
 73
     4
 40
17.500000
 49
13.000000
 49
-1.500000
 49
1.500000
 49
-1.500000
  0
LTYPE
  2
PHANTOM
 70
    64
  3
_____ _ _ _____ _ _ _____ _ _ _____ _ _ ____  
 72
    65
 73
     6
 40
15.500000
 49
8.000000
 49
-1.500000
 49
1.500000
 49
-1.500000
 49
1.500000
 49
-1.500000
  0
LTYPE
  2
DOT
 70
    64
  3
. . . . . . . . . . . . . . . . . . . . . . . .
 72
    65
 73
     2
 40
0.25
 49
0.0
 49
-0.25
  0
ENDTAB
  0
TABLE
  2
LAYER
 70
     1
  0
LAYER
  2
0
 70
     0
 62
     7
  6
CONTINUOUS
  0
ENDTAB
  0
TABLE
  2
STYLE
 70
     1
  0
STYLE
  2
STANDARD
 70
     0
 40
0.000000
 41
1.000000
 50
0.000000
 71
     0
 42
0.200000
  3
txt
  4
BIGFONT
  0
ENDTAB
  0
TABLE
  2
VIEW
 70
     0
  0
ENDTAB
  0
ENDSEC
  0
SECTION
  2
BLOCKS
  0
ENDSEC
  0
SECTION
  2
ENTITIES
  0
LINE
  8
0
  6
CONTINUOUS
 62
     3
 10
426.5
 20
-250
 11
185
 21
-250
  0
LINE
  8
0
  6
CONTINUOUS
 62
     7
 10
324.5
 20
-176.5
 11
324.5
 21
-323.5
  0
LINE
  8
0
  6
CONTINUOUS
 62
     7
 10
377.5
 20
-230.0000152587891
 11
377.5
 21
-270
  0
LINE
  8
0
  6
CONTINUOUS
 62
     7
 10
334.5
 20
-177.5
 11
324.5
 21
-177.5
  0
LINE
  8
0
  6
CONTINUOUS
 62
     7
 10
339.5
 20
-198
 11
334.5
 21
-198
  0
LINE
  8
0
  6
CONTINUOUS
 62
     7
 10
334.5
 20
-177.5
 11
334.5
 21
-322.5
  0
LINE
  8
0
  6
CONTINUOUS
 62
     7
 10
370.5
 20
-221.5
 11
370.5
 21
-278.5
  0
LINE
  8
0
  6
CONTINUOUS
 62
     7
 10
377.5
 20
-229.9999694824219
 11
370.5000305175781
 21
-225.9585266113281
  0
LINE
  8
0
  6
CONTINUOUS
 62
     7
 10
370.5
 20
-221.5
 11
358.3580322265625
 21
-221.5
  0
LINE
  8
0
  6
CONTINUOUS
 62
     7
 10
377.5000305175781
 20
-270
 11
370.5000610351563
 21
-274.0414428710937
  0
LINE
  8
0
  6
CONTINUOUS
 62
     7
 10
339.5
 20
-302
 11
339.5
 21
-198
  0
LINE
  8
0
  6
CONTINUOUS
 62
     7
 10
339.5
 20
-302
 11
334.5
 21
-302
  0
LINE
  8
0
  6
CONTINUOUS
 62
     7
 10
334.5
 20
-322.5
 11
324.5
 21
-322.5
  0
LINE
  8
0
  6
CONTINUOUS
 62
     7
 10
411.5
 20
-238
 11
386.5
 21
-238
  0
LINE
  8
0
  6
CONTINUOUS
 62
     7
 10
411.5
 20
-238
 11
411.5
 21
-259.5
  0
LINE
  8
0
  6
CONTINUOUS
 62
     7
 10
411.5
 20
-259.5
 11
381.5
 21
-259.5
  0
LINE
  8
0
  6
CONTINUOUS
 62
     7
 10
411.5
 20
-240.5
 11
381.5
 21
-240.5
  0
LINE
  8
0
  6
CONTINUOUS
 62
     7
 10
381.5
 20
-237.5
 11
381.5
 21
-262.5
  0
LINE
  8
0
  6
CONTINUOUS
 62
     7
 10
381.5
 20
-262.5
 11
377.5
 21
-262.5
  0
LINE
  8
0
  6
CONTINUOUS
 62
     7
 10
381.5
 20
-237.5
 11
377.5
 21
-237.5
  0
LINE
  8
0
  6
CONTINUOUS
 62
     7
 10
386.5
 20
-238
 11
386.5
 21
-240.5
  0
LINE
  8
0
  6
CONTINUOUS
 62
     7
 10
370.5
 20
-278.5
 11
358.3580322265625
 21
-278.5
  0
LINE
  8
0
  6
CONTINUOUS
 62
     7
 10
358.9999694824219
 20
-244.0823822021484
 11
339.5
 21
-239.0312652587891
  0
LINE
  8
0
  6
CONTINUOUS
 62
     7
 10
358.9999694824219
 20
-230.935302734375
 11
339.5
 21
-217.1353302001953
  0
LINE
  8
0
  6
CONTINUOUS
 62
     7
 10
339.5
 20
-203.2694702148438
 11
358.9999694824219
 21
-222.1205596923828
  0
LINE
  8
0
  6
CONTINUOUS
 62
     7
 10
358.9999694824219
 20
-258.8154602050781
 11
339.5
 21
-263.8665771484375
  0
LINE
  8
0
  6
CONTINUOUS
 62
     7
 10
339.5
 20
-284.9861450195312
 11
358.9999694824219
 21
-271.1861877441406
  0
LINE
  8
0
  6
CONTINUOUS
 62
     7
 10
339.5
 20
-296.7305297851562
 11
358.9999694824219
 21
-277.8794555664062
  0
LINE
  8
0
  6
CONTINUOUS
 62
     7
 10
302
 20
-176.5
 11
324.5
 21
-176.5
  0
LINE
  8
0
  6
CONTINUOUS
 62
     7
 10
302
 20
-323.5
 11
324.5
 21
-323.5
  0
LINE
  8
0
  6
CONTINUOUS
 62
     7
 10
302
 20
-176.5
 11
302
 21
-323.5
  0
LINE
  8
0
  6
CONTINUOUS
 62
     7
 10
230
 20
-170
 11
230
 21
-210.9867553710938
  0
LINE
  8
0
  6
CONTINUOUS
 62
     7
 10
230
 20
-170
 11
244
 21
-170
  0
LINE
  8
0
  6
CONTINUOUS
 62
     7
 10
230
 20
-330
 11
244
 21
-330
  0
LINE
  8
0
  6
CONTINUOUS
 62
     7
 10
244
 20
-170
 11
244
 21
-330
  0
LINE
  8
0
  6
CONTINUOUS
 62
     7
 10
292
 20
-177.5
 11
302
 21
-177.5
  0
LINE
  8
0
  6
CONTINUOUS
 62
     7
 10
292
 20
-322.5
 11
302
 21
-322.5
  0
LINE
  8
0
  6
CONTINUOUS
 62
     7
 10
249
 20
-276.3078002929687
 11
287
 21
-276.3078002929687
  0
LINE
  8
0
  6
CONTINUOUS
 62
     7
 10
249
 20
-223.6921997070313
 11
287
 21
-223.6921997070313
  0
LINE
  8
0
  6
CONTINUOUS
 62
     7
 10
292
 20
-298.2287902832031
 11
244
 21
-302.0454711914062
  0
LINE
  8
0
  6
CONTINUOUS
 62
     7
 10
244.0000152587891
 20
-307.50146484375
 11
292
 21
-303.28466796875
  0
LINE
  8
0
  6
CONTINUOUS
 62
     7
 10
292
 20
-201.7711944580078
 11
272
 21
-201.7711944580078
  0
LINE
  8
0
  6
CONTINUOUS
 62
     7
 10
244.0000152587891
 20
-192.4985504150391
 11
268.5381469726562
 21
-196.1939697265625
  0
LINE
  8
0
  6
CONTINUOUS
 62
     7
 10
244.0000152587891
 20
-197.9545440673828
 11
271.9999389648437
 21
-201.7711944580078
  0
LINE
  8
0
  6
CONTINUOUS
 62
     7
 10
200
 20
-236.5
 11
200
 21
-261
  0
LINE
  8
0
  6
CONTINUOUS
 62
     7
 10
200
 20
-239
 11
230
 21
-239
  0
LINE
  8
0
  6
CONTINUOUS
 62
     7
 10
200
 20
-261
 11
230
 21
-261
  0
LINE
  8
0
  6
CONTINUOUS
 62
     7
 10
226
 20
-195
 11
226
 21
-208.4146728515625
  0
LINE
  8
0
  6
CONTINUOUS
 62
     7
 10
226
 20
-195
 11
230
 21
-195
  0
LINE
  8
0
  6
CONTINUOUS
 62
     7
 10
226
 20
-305
 11
230
 21
-305
  0
LINE
  8
0
  6
CONTINUOUS
 62
     7
 10
226
 20
-278.5956726074219
 11
226
 21
-305
  0
LINE
  8
0
  6
CONTINUOUS
 62
     7
 10
230
 20
-235
 11
230
 21
-265
  0
LINE
  8
0
  6
CONTINUOUS
 62
     7
 10
230
 20
-275.0993041992187
 11
230
 21
-330
  0
LINE
  8
0
  6
CONTINUOUS
 62
     7
 10
230
 20
-265
 11
232.5799865722656
 21
-265
  0
LINE
  8
0
  6
CONTINUOUS
 62
     7
 10
230
 20
-235
 11
232.2677917480469
 21
-235
  0
LINE
  8
0
  6
CONTINUOUS
 62
     7
 10
200
 20
-236.5
 11
225
 21
-236.5
  0
LINE
  8
0
  6
CONTINUOUS
 62
     7
 10
225
 20
-236.5
 11
225
 21
-239
  0
LINE
  8
0
  6
CONTINUOUS
 62
     7
 10
287
 20
-182.0078125
 11
292
 21
-182.0078125
  0
LINE
  8
0
  6
CONTINUOUS
 62
     7
 10
292
 20
-177.5
 11
292
 21
-182.0078125
  0
LINE
  8
0
  6
CONTINUOUS
 62
     7
 10
292
 20
-201.7711944580078
 11
292
 21
-322.5
  0
LINE
  8
0
  6
CONTINUOUS
 62
     7
 10
270.7419738769531
 20
-194.8222961425781
 11
272.318603515625
 21
-189.8637084960937
  0
LINE
  8
0
  6
CONTINUOUS
 62
     3
 10
426.5
 20
0
 11
185
 21
0
  0
LINE
  8
0
  6
CONTINUOUS
 62
     7
 10
377.5
 20
20
 11
377.5
 21
-20
  0
LINE
  8
0
  6
CONTINUOUS
 62
     7
 10
331.5
 20
72.5
 11
324.5
 21
72.5
  0
LINE
  8
0
  6
CONTINUOUS
 62
     7
 10
339.5
 20
52
 11
334.5
 21
52
  0
LINE
  8
0
  6
CONTINUOUS
 62
     7
 10
331.5
 20
72.5
 11
331.5
 21
63.92559814453125
  0
LINE
  8
0
  6
CONTINUOUS
 62
     7
 10
334.5
 20
63.92559814453125
 11
334.5
 21
-63.92559814453125
  0
LINE
  8
0
  6
CONTINUOUS
 62
     7
 10
370.5
 20
28.5
 11
370.5
 21
-28.5
  0
LINE
  8
0
  6
CONTINUOUS
 62
     7
 10
377.4999694824219
 20
20.00008583068848
 11
370.5
 21
24.04152870178223
  0
LINE
  8
0
  6
CONTINUOUS
 62
     7
 10
370.5
 20
28.5
 11
358.3580322265625
 21
28.5
  0
LINE
  8
0
  6
CONTINUOUS
 62
     7
 10
377.5
 20
-19.99993515014648
 11
370.5
 21
-24.0413761138916
  0
LINE
  8
0
  6
CONTINUOUS
 62
     7
 10
370.5
 20
-28.5
 11
358.3580322265625
 21
-28.5
  0
LINE
  8
0
  6
CONTINUOUS
 62
     7
 10
339.5
 20
-52
 11
339.5
 21
52
  0
LINE
  8
0
  6
CONTINUOUS
 62
     7
 10
339.5
 20
-52
 11
334.5
 21
-52
  0
LINE
  8
0
  6
CONTINUOUS
 62
     7
 10
331.5
 20
-72.5
 11
324.5
 21
-72.5
  0
LINE
  8
0
  6
CONTINUOUS
 62
     7
 10
334.5
 20
63.92559814453125
 11
331.5
 21
63.92559814453125
  0
LINE
  8
0
  6
CONTINUOUS
 62
     7
 10
334.5
 20
-63.92559814453125
 11
331.5
 21
-63.92559814453125
  0
LINE
  8
0
  6
CONTINUOUS
 62
     7
 10
411.5
 20
9.5
 11
411.5
 21
-9.5
  0
LINE
  8
0
  6
CONTINUOUS
 62
     7
 10
411.5
 20
-9.5
 11
381.5
 21
-9.5
  0
LINE
  8
0
  6
CONTINUOUS
 62
     7
 10
411.5
 20
9.5
 11
381.5
 21
9.5
  0
LINE
  8
0
  6
CONTINUOUS
 62
     7
 10
381.5
 20
12.5
 11
381.5
 21
-12.5
  0
LINE
  8
0
  6
CONTINUOUS
 62
     7
 10
381.5
 20
-12.5
 11
377.5
 21
-12.5
  0
LINE
  8
0
  6
CONTINUOUS
 62
     7
 10
381.5
 20
12.5
 11
377.5
 21
12.5
  0
LINE
  8
0
  6
CONTINUOUS
 62
     7
 10
411.5
 20
3
 11
386.5
 21
3
  0
LINE
  8
0
  6
CONTINUOUS
 62
     7
 10
411.5
 20
-3
 11
386.5
 21
-3
  0
LINE
  8
0
  6
CONTINUOUS
 62
     7
 10
386.5
 20
3
 11
386.5
 21
-3
  0
LINE
  8
0
  6
CONTINUOUS
 62
     7
 10
358.9999694824219
 20
5.917615413665771
 11
339.5000305175781
 21
10.9687442779541
  0
LINE
  8
0
  6
CONTINUOUS
 62
     7
 10
358.9999694824219
 20
19.06468772888184
 11
339.5
 21
32.86465835571289
  0
LINE
  8
0
  6
CONTINUOUS
 62
     7
 10
339.5
 20
46.73052978515625
 11
358.9999694824219
 21
27.87942695617676
  0
LINE
  8
0
  6
CONTINUOUS
 62
     7
 10
359
 20
-5.917582035064697
 11
339.5
 21
-10.96871852874756
  0
LINE
  8
0
  6
CONTINUOUS
 62
     7
 10
358.9999694824219
 20
-19.0647144317627
 11
339.5
 21
-32.86469650268555
  0
LINE
  8
0
  6
CONTINUOUS
 62
     7
 10
339.5
 20
-46.73053359985352
 11
358.9999389648438
 21
-27.87945747375488
  0
LINE
  8
0
  6
CONTINUOUS
 62
     7
 10
331.5
 20
-63.92559814453125
 11
331.5
 21
-72.5
  0
LINE
  8
0
  6
CONTINUOUS
 62
     7
 10
302
 20
73.5
 11
324.5
 21
73.5
  0
LINE
  8
0
  6
CONTINUOUS
 62
     7
 10
302
 20
-73.5
 11
324.5
 21
-73.5
  0
LINE
  8
0
  6
CONTINUOUS
 62
     7
 10
302
 20
73.5
 11
302
 21
-73.5
  0
LINE
  8
0
  6
CONTINUOUS
 62
     7
 10
324.5
 20
73.5
 11
324.5
 21
-73.5
  0
LINE
  8
0
  6
CONTINUOUS
 62
     7
 10
230
 20
79.99996948242188
 11
230
 21
35.571044921875
  0
LINE
  8
0
  6
CONTINUOUS
 62
     7
 10
230
 20
79.99996948242188
 11
244
 21
79.99996948242188
  0
LINE
  8
0
  6
CONTINUOUS
 62
     7
 10
230
 20
-80
 11
244
 21
-80
  0
LINE
  8
0
  6
CONTINUOUS
 62
     7
 10
244
 20
79.99996948242188
 11
244
 21
-80
  0
LINE
  8
0
  6
CONTINUOUS
 62
     7
 10
292
 20
72.5
 11
292
 21
-29.2969970703125
  0
LINE
  8
0
  6
CONTINUOUS
 62
     7
 10
292
 20
-72.5
 11
302
 21
-72.5
  0
LINE
  8
0
  6
CONTINUOUS
 62
     7
 10
292
 20
72.5
 11
302
 21
72.5
  0
LINE
  8
0
  6
CONTINUOUS
 62
     7
 10
292
 20
-53.87158203125
 11
292
 21
-72.5
  0
LINE
  8
0
  6
CONTINUOUS
 62
     7
 10
267.1649780273437
 20
-27.37706565856934
 11
272.4539794921875
 21
-44.58436965942383
  0
LINE
  8
0
  6
CONTINUOUS
 62
     7
 10
249
 20
-25.12686157226563
 11
266.4733276367187
 21
-25.12686157226563
  0
LINE
  8
0
  6
CONTINUOUS
 62
     7
 10
249
 20
28.68206787109375
 11
287
 21
28.68206787109375
  0
LINE
  8
0
  6
CONTINUOUS
 62
     7
 10
249
 20
6.48492431640625
 11
287
 21
6.48492431640625
  0
LINE
  8
0
  6
CONTINUOUS
 62
     7
 10
272.397705078125
 20
-44.3948974609375
 11
272
 21
-44.3948974609375
  0
LINE
  8
0
  6
CONTINUOUS
 62
     7
 10
276.3605346679688
 20
-50.2457275390625
 11
272
 21
-50.2457275390625
  0
LINE
  8
0
  6
CONTINUOUS
 62
     7
 10
244
 20
-48.15165710449219
 11
272
 21
-44.3948974609375
  0
LINE
  8
0
  6
CONTINUOUS
 62
     7
 10
272
 20
-50.24573516845703
 11
244
 21
-54.00249862670898
  0
LINE
  8
0
  6
CONTINUOUS
 62
     7
 10
226
 20
55
 11
226
 21
37.95217895507813
  0
LINE
  8
0
  6
CONTINUOUS
 62
     7
 10
226
 20
-55
 11
230
 21
-55
  0
LINE
  8
0
  6
CONTINUOUS
 62
     7
 10
226
 20
55
 11
230
 21
55
  0
LINE
  8
0
  6
CONTINUOUS
 62
     7
 10
200
 20
11
 11
200
 21
-11
  0
LINE
  8
0
  6
CONTINUOUS
 62
     7
 10
200
 20
-11
 11
230
 21
-11
  0
LINE
  8
0
  6
CONTINUOUS
 62
     7
 10
200
 20
11
 11
230
 21
11
  0
LINE
  8
0
  6
CONTINUOUS
 62
     7
 10
230
 20
-27.09478759765625
 11
230
 21
-80
  0
LINE
  8
0
  6
CONTINUOUS
 62
     7
 10
230
 20
15
 11
230
 21
-15
  0
LINE
  8
0
  6
CONTINUOUS
 62
     7
 10
226
 20
-30.82443237304688
 11
226
 21
-55
  0
LINE
  8
0
  6
CONTINUOUS
 62
     7
 10
230
 20
15
 11
232.9286041259766
 21
15
  0
LINE
  8
0
  6
CONTINUOUS
 62
     7
 10
230
 20
-15
 11
234.2694244384766
 21
-15
  0
LINE
  8
0
  6
CONTINUOUS
 62
     7
 10
200
 20
3
 11
225
 21
3
  0
LINE
  8
0
  6
CONTINUOUS
 62
     7
 10
200
 20
-3
 11
225
 21
-3
  0
LINE
  8
0
  6
CONTINUOUS
 62
     7
 10
225
 20
3
 11
225
 21
-3
  0
LINE
  8
0
  6
CONTINUOUS
 62
     7
 10
287
 20
-29.2969970703125
 11
292
 21
-29.2969970703125
  0
LINE
  8
0
  6
CONTINUOUS
 62
     7
 10
287
 20
-53.87158203125
 11
292
 21
-53.87158203125
  0
LINE
  8
0
  6
CONTINUOUS
 62
     7
 10
244
 20
57.50146102905273
 11
292
 21
54.10739135742187
  0
LINE
  8
0
  6
CONTINUOUS
 62
     7
 10
244
 20
52.0454216003418
 11
292
 21
47.28733444213867
  0
LINE
  8
0
  6
CONTINUOUS
 62
     7
 10
278.2245788574219
 20
-12.42587280273438
 11
292
 21
-12.42587280273438
  0
LINE
  8
0
  6
CONTINUOUS
 62
     3
 10
-95
 20
-250
 11
95
 21
-250
  0
LINE
  8
0
  6
CONTINUOUS
 62
     3
 10
0
 20
-155
 11
0
 21
-345
  0
LINE
  8
0
  6
CONTINUOUS
 62
     7
 10
3
 20
-236.5
 11
3
 21
-242.5
  0
LINE
  8
0
  6
CONTINUOUS
 62
     7
 10
-3
 20
-236.5
 11
-3
 21
-242.5
  0
LINE
  8
0
  6
CONTINUOUS
 62
     7
 10
-3
 20
-242.5
 11
3
 21
-242.5
  0
LINE
  8
0
  6
CONTINUOUS
 62
     7
 10
-3
 20
-236.5
 11
3
 21
-236.5
  0
ARC
  8
0
  6
CONTINUOUS
 62
     7
 10
287
 20
-218.6921997070313
 40
5.000000000000004
 50
269.9999974955215
 51
0
  0
ARC
  8
0
  6
CONTINUOUS
 62
     7
 10
249
 20
-218.6921997070313
 40
5
 50
179.999991348578
 51
270.0000006832453
  0
ARC
  8
0
  6
CONTINUOUS
 62
     7
 10
249
 20
-281.3078002929687
 40
5.000000000000004
 50
90.00000250447815
 51
180.0000050089563
  0
ARC
  8
0
  6
CONTINUOUS
 62
     7
 10
287
 20
-281.3078002929687
 40
5
 50
0
 51
90.00000250447847
  0
ARC
  8
0
  6
CONTINUOUS
 62
     7
 10
268.8359985351562
 20
-194.2162780761719
 40
1.999999999999984
 50
261.4356711065674
 51
342.3614940911165
  0
ARC
  8
0
  6
CONTINUOUS
 62
     7
 10
386.5
 20
0
 40
3
 50
89.99998201391097
 51
269.9999460417318
  0
ARC
  8
0
  6
CONTINUOUS
 62
     7
 10
249
 20
33.68206787109375
 40
5
 50
179.999991348578
 51
270.0000006832453
  0
ARC
  8
0
  6
CONTINUOUS
 62
     7
 10
249
 20
11.48492431640625
 40
5
 50
179.999991348578
 51
270.0000006832453
  0
ARC
  8
0
  6
CONTINUOUS
 62
     7
 10
225
 20
0
 40
3
 50
269.9999974955221
 51
90.00000250447792
  0
ARC
  8
0
  6
CONTINUOUS
 62
     7
 10
287
 20
33.68206787109375
 40
5.000000000000001
 50
269.9999974955215
 51
0
  0
ARC
  8
0
  6
CONTINUOUS
 62
     7
 10
287
 20
11.48492431640625
 40
5
 50
269.9999974955215
 51
360
  0
ARC
  8
0
  6
CONTINUOUS
 62
     7
 10
249
 20
-30.12686157226563
 40
5.000000000000001
 50
90.00000250447815
 51
180.0000050089563
  0
CIRCLE
  8
0
  6
CONTINUOUS
 62
     7
 10
0
 20
-250
 40
80
  0
ARC
  8
0
  6
CONTINUOUS
 62
     7
 10
0
 20
-250
 40
11.00000000000001
 50
105.8266231510974
 51
74.17337821539321
  0
CIRCLE
  8
0
  6
CONTINUOUS
 62
     7
 10
0
 20
-250
 40
55
  0
CIRCLE
  8
0
  6
CONTINUOUS
 62
     7
 10
0
 20
-250
 40
50
  0
ARC
  8
0
  6
CONTINUOUS
 62
     3
 10
0
 20
-250
 40
65
 50
351.1501170622253
 51
8.84988293777467
  0
CIRCLE
  8
0
  6
CONTINUOUS
 62
     7
 10
65
 20
-250
 40
6
  0
CIRCLE
  8
0
  6
CONTINUOUS
 62
     7
 10
0
 20
-185
 40
6
  0
ARC
  8
0
  6
CONTINUOUS
 62
     3
 10
0
 20
-250
 40
65
 50
81.15011956670348
 51
98.84988544225286
  0
CIRCLE
  8
0
  6
CONTINUOUS
 62
     7
 10
-65
 20
-250
 40
6
  0
ARC
  8
0
  6
CONTINUOUS
 62
     3
 10
0
 20
-250
 40
65
 50
171.1501152409925
 51
188.8498811165419
  0
CIRCLE
  8
0
  6
CONTINUOUS
 62
     7
 10
0
 20
-315
 40
6
  0
ARC
  8
0
  6
CONTINUOUS
 62
     3
 10
0
 20
-250
 40
65.00000000000001
 50
261.1501145577471
 51
278.8498804332965
  0
POLYLINE
  8
0
  6
CONTINUOUS
 62
     7
 66
     1
 10
0
 20
0
  0
VERTEX
  8
0
  6
CONTINUOUS
 62
     7
 10
287
 20
-182.0080261230469
 42
0.02729414574270897
  0
VERTEX
  8
0
  6
CONTINUOUS
 62
     7
 10
284.536234187923
 20
-182.1422310448878
 42
0.02858769292556869
  0
VERTEX
  8
0
  6
CONTINUOUS
 62
     7
 10
282.1034241697899
 20
-182.5493497021221
 42
0.03145287426880398
  0
VERTEX
  8
0
  6
CONTINUOUS
 62
     7
 10
279.7359716608767
 20
-183.2440100413826
 42
0.03644156390585433
  0
VERTEX
  8
0
  6
CONTINUOUS
 62
     7
 10
277.4843202072273
 20
-184.2509047233418
 42
0.04462440548513909
  0
VERTEX
  8
0
  6
CONTINUOUS
 62
     7
 10
275.424100239892
 20
-185.6053429745781
 42
0.05749376049335551
  0
VERTEX
  8
0
  6
CONTINUOUS
 62
     7
 10
273.6801817719918
 20
-187.3453519546986
 42
0.07545535955646449
  0
VERTEX
  8
0
  6
CONTINUOUS
 62
     7
 10
272.4537965337367
 20
-189.477327799373
 42
0.09188341514557387
  0
VERTEX
  8
0
  6
CONTINUOUS
 62
     7
 10
272
 20
-191.8895263671875
 42
0.09187005358216159
  0
VERTEX
  8
0
  6
CONTINUOUS
 62
     7
 10
272.453661654036
 20
-194.301371930502
 42
0.07541336874226698
  0
VERTEX
  8
0
  6
CONTINUOUS
 62
     7
 10
273.6789273509099
 20
-196.4321047291699
 42
0.05747327667528921
  0
VERTEX
  8
0
  6
CONTINUOUS
 62
     7
 10
275.4212560441567
 20
-198.1714353925668
 42
0.04463179785894836
  0
VERTEX
  8
0
  6
CONTINUOUS
 62
     7
 10
277.4806837570289
 20
-199.5261814628025
 42
0.03644950507324012
  0
VERTEX
  8
0
  6
CONTINUOUS
 62
     7
 10
279.7318960601078
 20
-200.5335560707013
 42
0.03145601781677051
  0
VERTEX
  8
0
  6
CONTINUOUS
 62
     7
 10
282.0989113193413
 20
-201.2286757836646
 42
0.02860280347113298
  0
VERTEX
  8
0
  6
CONTINUOUS
 62
     7
 10
284.5326458328389
 20
-201.6364277777836
 42
0.02729781560604363
  0
VERTEX
  8
0
  6
CONTINUOUS
 62
     7
 10
286.9966412697866
 20
-201.7710263636084
 42
0
  0
SEQEND
  8
0
  0
POLYLINE
  8
0
  6
CONTINUOUS
 62
     7
 66
     1
 10
0
 20
0
  0
VERTEX
  8
0
  6
CONTINUOUS
 62
     7
 10
226.0000690381155
 20
-208.4146099540828
 42
-0.1732920695471
  0
VERTEX
  8
0
  6
CONTINUOUS
 62
     7
 10
232.1839992342869
 20
-213.8742645097122
 42
-0.1212092110179122
  0
VERTEX
  8
0
  6
CONTINUOUS
 62
     7
 10
233.1857895178493
 20
-222.1458175587588
 42
-0.0003663663967205917
  0
VERTEX
  8
0
  6
CONTINUOUS
 62
     7
 10
232.5617620317513
 20
-230.5421415535638
 42
0.00728351350202109
  0
VERTEX
  8
0
  6
CONTINUOUS
 62
     7
 10
232.0657433621178
 20
-238.9470727147105
 42
0.01061071879668819
  0
VERTEX
  8
0
  6
CONTINUOUS
 62
     7
 10
231.8876863964719
 20
-247.3632385466677
 42
0.01021215237865615
  0
VERTEX
  8
0
  6
CONTINUOUS
 62
     7
 10
232.0615274361141
 20
-255.7789412693955
 42
0.006671917188319322
  0
VERTEX
  8
0
  6
CONTINUOUS
 62
     7
 10
232.5421915845469
 20
-264.1837954570141
 42
-0.1117223752134542
  0
VERTEX
  8
0
  6
CONTINUOUS
 62
     7
 10
231.6062224974438
 20
-272.4769763199708
 42
-0.1471515966559482
  0
VERTEX
  8
0
  6
CONTINUOUS
 62
     7
 10
226.0023823106381
 20
-278.5950113362793
 42
0
  0
SEQEND
  8
0
  0
POLYLINE
  8
0
  6
CONTINUOUS
 62
     7
 66
     1
 10
0
 20
0
  0
VERTEX
  8
0
  6
CONTINUOUS
 62
     7
 10
278.2258666681806
 20
-12.4259727801229
 42
0.01863018118449608
  0
VERTEX
  8
0
  6
CONTINUOUS
 62
     7
 10
276.9472908110445
 20
-12.72581608317096
 42
0.01914897136678362
  0
VERTEX
  8
0
  6
CONTINUOUS
 62
     7
 10
275.69488786198
 20
-13.12128933044658
 42
0.01982313497678843
  0
VERTEX
  8
0
  6
CONTINUOUS
 62
     7
 10
274.4768998562336
 20
-13.61308389514614
 42
0.02065958604675638
  0
VERTEX
  8
0
  6
CONTINUOUS
 62
     7
 10
273.3024574780721
 20
-14.20180775555834
 42
0.0216635050631608
  0
VERTEX
  8
0
  6
CONTINUOUS
 62
     7
 10
272.1817690088008
 20
-14.88777030190836
 42
0.02283527298842106
  0
VERTEX
  8
0
  6
CONTINUOUS
 62
     7
 10
271.1262837696584
 20
-15.67068178680397
 42
0.02416589556081596
  0
VERTEX
  8
0
  6
CONTINUOUS
 62
     7
 10
270.148793711076
 20
-16.5492480006418
 42
0.0256307478011842
  0
VERTEX
  8
0
  6
CONTINUOUS
 62
     7
 10
269.263415118363
 20
-17.52064952177604
 42
0.02718211632637096
  0
VERTEX
  8
0
  6
CONTINUOUS
 62
     7
 10
268.4853690610602
 20
-18.57991870748724
 42
0.0287423495236918
  0
VERTEX
  8
0
  6
CONTINUOUS
 62
     7
 10
267.8304653762589
 20
-19.7192734035201
 42
0.03020136029568163
  0
VERTEX
  8
0
  6
CONTINUOUS
 62
     7
 10
267.3142120274042
 20
-20.9275343716217
 42
0.0314237398416916
  0
VERTEX
  8
0
  6
CONTINUOUS
 62
     7
 10
266.9505464102389
 20
-22.18982491187352
 42
0.03226953547381886
  0
VERTEX
  8
0
  6
CONTINUOUS
 62
     7
 10
266.7503284684354
 20
-23.48777879738574
 42
0.03261578128557022
  0
VERTEX
  8
0
  6
CONTINUOUS
 62
     7
 10
266.7198890397498
 20
-24.79996770015607
 42
0.03242754396014362
  0
VERTEX
  8
0
  6
CONTINUOUS
 62
     7
 10
266.8599828146145
 20
-26.10446893128937
 42
0.03175157773620355
  0
VERTEX
  8
0
  6
CONTINUOUS
 62
     7
 10
267.1661273747768
 20
-27.38079637226249
 42
0
  0
SEQEND
  8
0
  0
POLYLINE
  8
0
  6
CONTINUOUS
 62
     7
 66
     1
 10
0
 20
0
  0
VERTEX
  8
0
  6
CONTINUOUS
 62
     7
 10
287
 20
-29.2969970703125
 42
0.03684100915015569
  0
VERTEX
  8
0
  6
CONTINUOUS
 62
     7
 10
284.3248356402441
 20
-29.49398538004669
 42
0.03801003109662183
  0
VERTEX
  8
0
  6
CONTINUOUS
 62
     7
 10
281.7095919964505
 20
-30.08659449703045
 42
0.04046201344888641
  0
VERTEX
  8
0
  6
CONTINUOUS
 62
     7
 10
279.217887000041
 20
-31.07999452506545
 42
0.04428261258127772
  0
VERTEX
  8
0
  6
CONTINUOUS
 62
     7
 10
276.9285733187973
 20
-32.47855553873525
 42
0.0494856361075645
  0
VERTEX
  8
0
  6
CONTINUOUS
 62
     7
 10
274.9404025435135
 20
-34.27746248606573
 42
0.05578176975687745
  0
VERTEX
  8
0
  6
CONTINUOUS
 62
     7
 10
273.3719381984464
 20
-36.45061958611024
 42
0.0620276577413999
  0
VERTEX
  8
0
  6
CONTINUOUS
 62
     7
 10
272.3545338266268
 20
-38.92862880642772
 42
0.06616822561189518
  0
VERTEX
  8
0
  6
CONTINUOUS
 62
     7
 10
272
 20
-41.58428955078125
 42
0.06611429329777183
  0
VERTEX
  8
0
  6
CONTINUOUS
 62
     7
 10
272.3539531246856
 20
-44.23780049723165
 42
0.06200344252648048
  0
VERTEX
  8
0
  6
CONTINUOUS
 62
     7
 10
273.3702152087653
 20
-46.71488925137595
 42
0.05578049654465626
  0
VERTEX
  8
0
  6
CONTINUOUS
 62
     7
 10
274.9377025977029
 20
-48.88812554733447
 42
0.04948567580068289
  0
VERTEX
  8
0
  6
CONTINUOUS
 62
     7
 10
276.9249249200378
 20
-50.68731492131647
 42
0.04427679459803582
  0
VERTEX
  8
0
  6
CONTINUOUS
 62
     7
 10
279.2130601449394
 20
-52.08618403471119
 42
0.04047359625088624
  0
VERTEX
  8
0
  6
CONTINUOUS
 62
     7
 10
281.7047856491424
 20
-53.08049986921474
 42
0.03804200425318257
  0
VERTEX
  8
0
  6
CONTINUOUS
 62
     7
 10
284.3219006902545
 20
-53.67415771768141
 42
0.03688218119177183
  0
VERTEX
  8
0
  6
CONTINUOUS
 62
     7
 10
287
 20
-53.87158203125
 42
0
  0
SEQEND
  8
0
  0
POLYLINE
  8
0
  6
CONTINUOUS
 62
     7
 66
     1
 10
0
 20
0
  0
VERTEX
  8
0
  6
CONTINUOUS
 62
     7
 10
226.0005609189186
 20
37.95217259517376
 42
-0.2025952453709607
  0
VERTEX
  8
0
  6
CONTINUOUS
 62
     7
 10
232.7619724738529
 20
31.8173781976908
 42
-0.1113159613900874
  0
VERTEX
  8
0
  6
CONTINUOUS
 62
     7
 10
233.6758480757823
 20
22.56371110192882
 42
0.00298222241977093
  0
VERTEX
  8
0
  6
CONTINUOUS
 62
     7
 10
232.7928628948298
 20
13.22579390915222
 42
0.02910618138500017
  0
VERTEX
  8
0
  6
CONTINUOUS
 62
     7
 10
232.7248274934071
 20
3.851539784709862
 42
0.01883125156364612
  0
VERTEX
  8
0
  6
CONTINUOUS
 62
     7
 10
233.5915053577223
 20
-5.485678585625859
 42
-0.03365229345007668
  0
VERTEX
  8
0
  6
CONTINUOUS
 62
     7
 10
234.2728046176281
 20
-14.83369268863834
 42
-0.1197262810499176
  0
VERTEX
  8
0
  6
CONTINUOUS
 62
     7
 10
232.2228048665738
 20
-23.89508494788407
 42
-0.1044977235268115
  0
VERTEX
  8
0
  6
CONTINUOUS
 62
     7
 10
226.001729744353
 20
-30.82306357070089
 42
0
  0
SEQEND
  8
0
  0
TEXT
  8
0
  6
CONTINUOUS
 62
     7
 10
-35.35714530944824
 20
-7.5
 40
15
 41
0.8489110518474969
  1
ＥＲＶ－Ａ
  0
ENDSEC
  0
EOF
