  0
SECTION
  2
HEADER
  0
ENDSEC
  0
SECTION
  2
TABLES
  0
TABLE
  2
LTYPE
 70
    22
  0
LTYPE
  2
CONTINUOUS
 70
    64
  3
Solid line
 72
    65
 73
     0
 40
0.000000
  0
LTYPE
  2
DASHED
 70
    64
  3
__ __ __ __ __ __ __ __ __ __ __ __ __ __ __
 72
    65
 73
     2
 40
3.500000
 49
2.000000
 49
-1.500000
  0
LTYPE
  2
CENTER
 70
    64
  3
____ _ ____ _ ____ _ ____ _ ____ _ ____ _ ____
 72
    65
 73
     4
 40
17.500000
 49
13.000000
 49
-1.500000
 49
1.500000
 49
-1.500000
  0
LTYPE
  2
PHANTOM
 70
    64
  3
_____ _ _ _____ _ _ _____ _ _ _____ _ _ ____  
 72
    65
 73
     6
 40
15.500000
 49
8.000000
 49
-1.500000
 49
1.500000
 49
-1.500000
 49
1.500000
 49
-1.500000
  0
LTYPE
  2
DOT
 70
    64
  3
. . . . . . . . . . . . . . . . . . . . . . . .
 72
    65
 73
     2
 40
0.25
 49
0.0
 49
-0.25
  0
ENDTAB
  0
TABLE
  2
LAYER
 70
     1
  0
LAYER
  2
0
 70
     0
 62
     7
  6
CONTINUOUS
  0
ENDTAB
  0
TABLE
  2
STYLE
 70
     1
  0
STYLE
  2
STANDARD
 70
     0
 40
0.000000
 41
1.000000
 50
0.000000
 71
     0
 42
0.200000
  3
txt
  4
BIGFONT
  0
ENDTAB
  0
TABLE
  2
VIEW
 70
     0
  0
ENDTAB
  0
ENDSEC
  0
SECTION
  2
BLOCKS
  0
ENDSEC
  0
SECTION
  2
ENTITIES
  0
LINE
  8
0
  6
CONTINUOUS
 62
     3
 10
430
 20
-650
 11
1045
 21
-650
  0
LINE
  8
0
  6
CONTINUOUS
 62
     7
 10
610
 20
-860
 11
975
 21
-860
  0
LINE
  8
0
  6
CONTINUOUS
 62
     7
 10
610
 20
-825
 11
680
 21
-825
  0
LINE
  8
0
  6
CONTINUOUS
 62
     7
 10
610
 20
-825
 11
610
 21
-860
  0
LINE
  8
0
  6
CONTINUOUS
 62
     7
 10
975
 20
-825
 11
975
 21
-860
  0
LINE
  8
0
  6
CONTINUOUS
 62
     7
 10
748.3955078125
 20
-682.4609985351562
 11
856.010498046875
 21
-810.7115478515625
  0
LINE
  8
0
  6
CONTINUOUS
 62
     7
 10
886.65234375
 20
-825
 11
975
 21
-825
  0
LINE
  8
0
  6
CONTINUOUS
 62
     3
 10
645
 20
-810
 11
645
 21
-875
  0
LINE
  8
0
  6
CONTINUOUS
 62
     3
 10
940
 20
-810
 11
940
 21
-875
  0
LINE
  8
0
  6
CONTINUOUS
 62
     7
 10
599
 20
-560
 11
599
 21
-740
  0
LINE
  8
0
  6
CONTINUOUS
 62
     7
 10
630
 20
-517.5
 11
630
 21
-782.5
  0
LINE
  8
0
  6
CONTINUOUS
 62
     7
 10
610
 20
-782.5
 11
633.2677001953125
 21
-782.5
  0
LINE
  8
0
  6
CONTINUOUS
 62
     7
 10
610
 20
-517.5
 11
660.0001220703125
 21
-517.5
  0
LINE
  8
0
  6
CONTINUOUS
 62
     7
 10
598.9998779296875
 20
-559.9999389648438
 11
609.9999389648438
 21
-548.9998779296875
  0
LINE
  8
0
  6
CONTINUOUS
 62
     7
 10
599
 20
-739.9999389648437
 11
610
 21
-751
  0
LINE
  8
0
  6
CONTINUOUS
 62
     7
 10
610
 20
-517.5
 11
610
 21
-782.5
  0
LINE
  8
0
  6
CONTINUOUS
 62
     7
 10
725
 20
-472.5
 11
725
 21
-618.1822509765625
  0
LINE
  8
0
  6
CONTINUOUS
 62
     7
 10
700
 20
-472.5
 11
700
 21
-805
  0
LINE
  8
0
  6
CONTINUOUS
 62
     7
 10
685
 20
-472.5
 11
725
 21
-472.5
  0
LINE
  8
0
  6
CONTINUOUS
 62
     7
 10
660
 20
-517.4999389648438
 11
686.3073120117187
 21
-515.1983642578125
  0
LINE
  8
0
  6
CONTINUOUS
 62
     3
 10
680
 20
-635
 11
680
 21
-665
  0
LINE
  8
0
  6
CONTINUOUS
 62
     3
 10
678
 20
-740
 11
678
 21
-770
  0
LINE
  8
0
  6
CONTINUOUS
 62
     3
 10
663
 20
-755
 11
693
 21
-755
  0
LINE
  8
0
  6
CONTINUOUS
 62
     7
 10
685
 20
-472.5
 11
685
 21
-508.9227294921875
  0
LINE
  8
0
  6
CONTINUOUS
 62
     7
 10
450
 20
-597.5
 11
450
 21
-697.5
  0
LINE
  8
0
  6
CONTINUOUS
 62
     7
 10
450
 20
-697.5
 11
590
 21
-697.5
  0
LINE
  8
0
  6
CONTINUOUS
 62
     7
 10
590
 20
-595
 11
590
 21
-705
  0
LINE
  8
0
  6
CONTINUOUS
 62
     7
 10
590
 20
-595
 11
599
 21
-595
  0
LINE
  8
0
  6
CONTINUOUS
 62
     7
 10
590
 20
-705
 11
599
 21
-705
  0
LINE
  8
0
  6
DASHED
 62
     7
 10
657.5
 20
-825
 11
657.5
 21
-860
  0
LINE
  8
0
  6
DASHED
 62
     7
 10
632.5
 20
-825
 11
632.5
 21
-860
  0
LINE
  8
0
  6
DASHED
 62
     7
 10
927.5
 20
-825
 11
927.5
 21
-860
  0
LINE
  8
0
  6
DASHED
 62
     7
 10
952.5
 20
-825
 11
952.5
 21
-860
  0
LINE
  8
0
  6
CONTINUOUS
 62
     7
 10
450
 20
-597.5
 11
560
 21
-597.5
  0
LINE
  8
0
  6
CONTINUOUS
 62
     7
 10
638.617919921875
 20
-726.4981689453125
 11
634.452392578125
 21
-774.1090087890625
  0
LINE
  8
0
  6
CONTINUOUS
 62
     7
 10
688.4854125976562
 20
-650
 11
680.0001220703125
 21
-641.5147094726562
  0
LINE
  8
0
  6
CONTINUOUS
 62
     7
 10
680.0000610351563
 20
-641.5147705078125
 11
671.5147705078125
 21
-650.0000610351562
  0
LINE
  8
0
  6
CONTINUOUS
 62
     7
 10
679.9999389648437
 20
-658.4852905273438
 11
671.5146484375
 21
-650.0000610351562
  0
LINE
  8
0
  6
CONTINUOUS
 62
     7
 10
688.4852294921875
 20
-649.9999389648438
 11
679.9999389648437
 21
-658.4852905273438
  0
LINE
  8
0
  6
CONTINUOUS
 62
     7
 10
450
 20
-602.5
 11
590
 21
-602.5
  0
LINE
  8
0
  6
CONTINUOUS
 62
     7
 10
678.0000610351563
 20
-746.5146484375
 11
669.5147094726562
 21
-755
  0
LINE
  8
0
  6
CONTINUOUS
 62
     7
 10
678
 20
-763.4852905273437
 11
669.5147094726562
 21
-755.0000610351563
  0
LINE
  8
0
  6
CONTINUOUS
 62
     7
 10
686.4852905273438
 20
-755
 11
677.9999389648437
 21
-763.4852905273437
  0
LINE
  8
0
  6
CONTINUOUS
 62
     7
 10
686.4853515625
 20
-755
 11
678.0000610351563
 21
-746.5147094726562
  0
LINE
  8
0
  6
CONTINUOUS
 62
     7
 10
560
 20
-597.5
 11
560
 21
-602.5
  0
LINE
  8
0
  6
CONTINUOUS
 62
     7
 10
805
 20
-466.2999877929688
 11
805
 21
-749.9195556640625
  0
LINE
  8
0
  6
CONTINUOUS
 62
     7
 10
730
 20
-470
 11
800
 21
-470
  0
LINE
  8
0
  6
CONTINUOUS
 62
     7
 10
724.9999389648438
 20
-475.0000305175781
 11
730
 21
-470.0000305175781
  0
LINE
  8
0
  6
CONTINUOUS
 62
     7
 10
799.9999389648437
 20
-470.0000610351563
 11
804.9999389648437
 21
-475.0000915527344
  0
LINE
  8
0
  6
CONTINUOUS
 62
     7
 10
739.0001220703125
 20
-460
 11
771.0000610351563
 21
-460
  0
LINE
  8
0
  6
CONTINUOUS
 62
     7
 10
735.3602905273437
 20
-469.9999694824219
 11
738.9999389648438
 21
-460.0000305175781
  0
LINE
  8
0
  6
CONTINUOUS
 62
     7
 10
774.6397705078125
 20
-470
 11
771.0000610351563
 21
-459.9999694824219
  0
LINE
  8
0
  6
CONTINUOUS
 62
     7
 10
730
 20
-477.0777587890625
 11
800
 21
-477.0777587890625
  0
LINE
  8
0
  6
CONTINUOUS
 62
     7
 10
730
 20
-515.5732421875
 11
800
 21
-515.5732421875
  0
LINE
  8
0
  6
CONTINUOUS
 62
     7
 10
730
 20
-530.2942504882813
 11
800
 21
-530.2942504882813
  0
LINE
  8
0
  6
CONTINUOUS
 62
     7
 10
730
 20
-545.9464111328125
 11
800
 21
-545.9464111328125
  0
LINE
  8
0
  6
CONTINUOUS
 62
     7
 10
730
 20
-563.0659790039062
 11
800
 21
-563.0659790039062
  0
LINE
  8
0
  6
CONTINUOUS
 62
     7
 10
730
 20
-600.02099609375
 11
800
 21
-600.02099609375
  0
LINE
  8
0
  6
CONTINUOUS
 62
     7
 10
730
 20
-619.71923828125
 11
800
 21
-619.71923828125
  0
LINE
  8
0
  6
CONTINUOUS
 62
     7
 10
730
 20
-639.5905151367188
 11
800
 21
-639.5905151367188
  0
LINE
  8
0
  6
CONTINUOUS
 62
     7
 10
734.35302734375
 20
-660.4093627929687
 11
800
 21
-660.4093627929687
  0
LINE
  8
0
  6
CONTINUOUS
 62
     7
 10
746.5660400390625
 20
-680.28076171875
 11
800
 21
-680.28076171875
  0
LINE
  8
0
  6
CONTINUOUS
 62
     7
 10
763.0947265625
 20
-699.9788208007813
 11
800
 21
-699.9788208007813
  0
LINE
  8
0
  6
CONTINUOUS
 62
     7
 10
794.1038818359375
 20
-736.9341430664063
 11
800
 21
-736.9341430664063
  0
LINE
  8
0
  6
CONTINUOUS
 62
     7
 10
742.5
 20
-457
 11
743.7954711914062
 21
-449.6527099609375
  0
LINE
  8
0
  6
CONTINUOUS
 62
     7
 10
766.2044067382813
 20
-449.6527404785156
 11
767.4999389648438
 21
-457.0000610351563
  0
LINE
  8
0
  6
CONTINUOUS
 62
     7
 10
745.76513671875
 20
-448
 11
764.23486328125
 21
-448
  0
LINE
  8
0
  6
CONTINUOUS
 62
     7
 10
745.341796875
 20
-448.0452880859375
 11
754.57666015625
 21
-446.0452880859375
  0
LINE
  8
0
  6
CONTINUOUS
 62
     7
 10
755.42333984375
 20
-446.0453186035156
 11
764.658203125
 21
-448.0453186035156
  0
LINE
  8
0
  6
CONTINUOUS
 62
     7
 10
742.5
 20
-457
 11
742.5
 21
-460
  0
LINE
  8
0
  6
CONTINUOUS
 62
     7
 10
767.5
 20
-457.0000305175781
 11
767.5
 21
-460
  0
LINE
  8
0
  6
CONTINUOUS
 62
     7
 10
952
 20
-535
 11
952
 21
-612
  0
LINE
  8
0
  6
CONTINUOUS
 62
     7
 10
926.1124267578125
 20
-480.0697326660156
 11
862.7383422851563
 21
-476.7484436035156
  0
LINE
  8
0
  6
CONTINUOUS
 62
     7
 10
926.112548828125
 20
-819.9303588867188
 11
873.2816162109375
 21
-822.6990966796875
  0
LINE
  8
0
  6
CONTINUOUS
 62
     7
 10
952
 20
-765
 11
946.499755859375
 21
-765
  0
LINE
  8
0
  6
CONTINUOUS
 62
     7
 10
952
 20
-535
 11
946.499755859375
 21
-535
  0
LINE
  8
0
  6
CONTINUOUS
 62
     7
 10
943.5491943359375
 20
-532.5411987304688
 11
935.4251708984375
 21
-488.2516784667969
  0
LINE
  8
0
  6
CONTINUOUS
 62
     7
 10
943.5491333007813
 20
-767.458740234375
 11
935.4251098632812
 21
-811.748291015625
  0
LINE
  8
0
  6
CONTINUOUS
 62
     7
 10
944
 20
-535
 11
944
 21
-765
  0
LINE
  8
0
  6
CONTINUOUS
 62
     7
 10
858
 20
-470.5
 11
858
 21
-812.911376953125
  0
LINE
  8
0
  6
CONTINUOUS
 62
     7
 10
1027
 20
-622.5
 11
1027
 21
-674
  0
LINE
  8
0
  6
CONTINUOUS
 62
     7
 10
1027
 20
-626
 11
957
 21
-626
  0
LINE
  8
0
  6
CONTINUOUS
 62
     7
 10
1027
 20
-674
 11
957
 21
-674
  0
LINE
  8
0
  6
CONTINUOUS
 62
     7
 10
957
 20
-612
 11
952
 21
-612
  0
LINE
  8
0
  6
CONTINUOUS
 62
     7
 10
957
 20
-688
 11
952
 21
-688
  0
LINE
  8
0
  6
CONTINUOUS
 62
     7
 10
1027
 20
-622.5
 11
957
 21
-622.5
  0
LINE
  8
0
  6
CONTINUOUS
 62
     7
 10
957
 20
-612
 11
957
 21
-688
  0
LINE
  8
0
  6
CONTINUOUS
 62
     7
 10
853.7999877929688
 20
-466.2999877929688
 11
805
 21
-466.2999877929688
  0
LINE
  8
0
  6
CONTINUOUS
 62
     7
 10
952
 20
-688
 11
952
 21
-765
  0
LINE
  8
0
  6
CONTINUOUS
 62
     3
 10
-229.8504638671875
 20
-650
 11
229.8504638671875
 21
-650
  0
LINE
  8
0
  6
CONTINUOUS
 62
     3
 10
0
 20
-386
 11
0
 21
-880
  0
LINE
  8
0
  6
CONTINUOUS
 62
     3
 10
51.24951553344727
 20
-561.2320556640625
 11
66.24953460693359
 21
-535.2512817382813
  0
LINE
  8
0
  6
CONTINUOUS
 62
     3
 10
-51.250732421875
 20
-561.2328491210938
 11
-66.25076293945313
 21
-535.2520141601562
  0
LINE
  8
0
  6
CONTINUOUS
 62
     3
 10
-51.2502326965332
 20
-738.767333984375
 11
-66.25026702880859
 21
-764.7481689453125
  0
LINE
  8
0
  6
CONTINUOUS
 62
     3
 10
51.24931716918945
 20
-738.7677612304688
 11
66.24937438964844
 21
-764.7486572265625
  0
LINE
  8
0
  6
CONTINUOUS
 62
     7
 10
212.5
 20
-685
 11
212.5
 21
-860
  0
LINE
  8
0
  6
CONTINUOUS
 62
     7
 10
-212.5
 20
-685
 11
-212.5
 21
-860
  0
LINE
  8
0
  6
CONTINUOUS
 62
     7
 10
-212.5
 20
-860
 11
-102.5
 21
-860
  0
LINE
  8
0
  6
CONTINUOUS
 62
     7
 10
-212.5
 20
-825
 11
-102.5
 21
-825
  0
LINE
  8
0
  6
CONTINUOUS
 62
     3
 10
-175
 20
-810
 11
-175
 21
-875
  0
LINE
  8
0
  6
CONTINUOUS
 62
     3
 10
175
 20
-810
 11
175
 21
-875
  0
LINE
  8
0
  6
CONTINUOUS
 62
     7
 10
-102.5
 20
-825
 11
-102.5
 21
-860
  0
LINE
  8
0
  6
CONTINUOUS
 62
     7
 10
102.5
 20
-825
 11
102.5
 21
-860
  0
LINE
  8
0
  6
CONTINUOUS
 62
     7
 10
-94.5
 20
-835
 11
-33
 21
-835
  0
LINE
  8
0
  6
CONTINUOUS
 62
     7
 10
-99.5
 20
-855
 11
99.5
 21
-855
  0
LINE
  8
0
  6
CONTINUOUS
 62
     7
 10
102.5
 20
-860
 11
212.5
 21
-860
  0
LINE
  8
0
  6
CONTINUOUS
 62
     7
 10
102.5
 20
-825
 11
212.5
 21
-825
  0
LINE
  8
0
  6
CONTINUOUS
 62
     7
 10
102.4995727539062
 20
-825.0001220703125
 11
93.20901489257813
 21
-772.3106689453125
  0
LINE
  8
0
  6
CONTINUOUS
 62
     7
 10
122.6533966064453
 20
-812.6047973632813
 11
120.0000228881836
 21
-797.5567626953125
  0
LINE
  8
0
  6
CONTINUOUS
 62
     7
 10
-122.6534576416016
 20
-812.6047973632813
 11
-120.0000076293945
 21
-797.5563354492188
  0
LINE
  8
0
  6
CONTINUOUS
 62
     7
 10
-120
 20
-709.42431640625
 11
-120
 21
-797.5543823242188
  0
LINE
  8
0
  6
CONTINUOUS
 62
     7
 10
120
 20
-709.42431640625
 11
120
 21
-797.5545043945312
  0
LINE
  8
0
  6
CONTINUOUS
 62
     3
 10
136.2721405029297
 20
-593.5538330078125
 11
163.9885864257813
 21
-582.0733032226563
  0
LINE
  8
0
  6
CONTINUOUS
 62
     3
 10
56.44467544555664
 20
-513.7272338867188
 11
67.92516326904297
 21
-486.0108947753906
  0
LINE
  8
0
  6
CONTINUOUS
 62
     3
 10
-56.44672012329102
 20
-513.72802734375
 11
-67.92724609375
 21
-486.0115661621094
  0
LINE
  8
0
  6
CONTINUOUS
 62
     3
 10
-136.2722625732422
 20
-593.5547485351563
 11
-163.988525390625
 21
-582.0742797851562
  0
LINE
  8
0
  6
CONTINUOUS
 62
     3
 10
-136.2725830078125
 20
-706.4451293945312
 11
-163.9889221191406
 21
-717.9255981445313
  0
LINE
  8
0
  6
CONTINUOUS
 62
     3
 10
-56.44816589355469
 20
-786.2713623046875
 11
-67.92867279052734
 21
-813.9877319335938
  0
LINE
  8
0
  6
CONTINUOUS
 62
     3
 10
56.44288635253906
 20
-786.2734985351562
 11
67.92339324951172
 21
-813.9898681640625
  0
LINE
  8
0
  6
CONTINUOUS
 62
     3
 10
136.2715454101563
 20
-706.4466552734375
 11
163.9879760742187
 21
-717.9271850585937
  0
LINE
  8
0
  6
CONTINUOUS
 62
     7
 10
-19.364990234375
 20
-477.9978332519531
 11
-19.364990234375
 21
-506.55908203125
  0
LINE
  8
0
  6
CONTINUOUS
 62
     7
 10
19.36492919921875
 20
-477.9978332519531
 11
19.36492919921875
 21
-506.55908203125
  0
LINE
  8
0
  6
CONTINUOUS
 62
     7
 10
-102.5000228881836
 20
-825
 11
-93.20937347412109
 21
-772.3106079101562
  0
LINE
  8
0
  6
DASHED
 62
     7
 10
-162.5
 20
-825
 11
-162.5
 21
-860
  0
LINE
  8
0
  6
DASHED
 62
     7
 10
-187.5
 20
-825
 11
-187.5
 21
-860
  0
LINE
  8
0
  6
DASHED
 62
     7
 10
187.5
 20
-825
 11
187.5
 21
-860
  0
LINE
  8
0
  6
DASHED
 62
     7
 10
162.5
 20
-825
 11
162.5
 21
-860
  0
LINE
  8
0
  6
CONTINUOUS
 62
     7
 10
-12.5
 20
-597.5
 11
12.5
 21
-597.5
  0
LINE
  8
0
  6
CONTINUOUS
 62
     7
 10
-12.5
 20
-611.5
 11
12.5
 21
-611.5
  0
LINE
  8
0
  6
CONTINUOUS
 62
     7
 10
12.5
 20
-597.5
 11
12.5
 21
-611.5
  0
LINE
  8
0
  6
CONTINUOUS
 62
     7
 10
-12.5
 20
-597.5
 11
-12.5
 21
-611.5
  0
LINE
  8
0
  6
CONTINUOUS
 62
     7
 10
33
 20
-835
 11
94.5
 21
-835
  0
LINE
  8
0
  6
CONTINUOUS
 62
     3
 10
108.2701416015625
 20
-755
 11
140.75732421875
 21
-755
  0
LINE
  8
0
  6
CONTINUOUS
 62
     7
 10
147.1500244140625
 20
-658.071044921875
 11
147.1500244140625
 21
-641.928955078125
  0
LINE
  8
0
  6
CONTINUOUS
 62
     7
 10
138.1500244140625
 20
-658.507568359375
 11
138.1500244140625
 21
-641.492431640625
  0
LINE
  8
0
  6
CONTINUOUS
 62
     7
 10
138.1500091552734
 20
-658.507568359375
 11
132.2384033203125
 21
-658.3228149414062
  0
LINE
  8
0
  6
CONTINUOUS
 62
     7
 10
138.1500091552734
 20
-641.492431640625
 11
132.2383422851562
 21
-641.6771240234375
  0
LINE
  8
0
  6
CONTINUOUS
 62
     7
 10
147.1500244140625
 20
-658.071044921875
 11
138.1500244140625
 21
-658.071044921875
  0
LINE
  8
0
  6
CONTINUOUS
 62
     7
 10
147.1500244140625
 20
-641.928955078125
 11
138.1500244140625
 21
-641.928955078125
  0
LINE
  8
0
  6
CONTINUOUS
 62
     7
 10
134.6500244140625
 20
-763.071044921875
 11
134.6500244140625
 21
-746.928955078125
  0
LINE
  8
0
  6
CONTINUOUS
 62
     7
 10
125.6500244140625
 20
-763.507568359375
 11
125.6500244140625
 21
-746.492431640625
  0
LINE
  8
0
  6
CONTINUOUS
 62
     7
 10
125.6499633789063
 20
-763.507568359375
 11
119.9999465942383
 21
-763.3309936523437
  0
LINE
  8
0
  6
CONTINUOUS
 62
     7
 10
125.6499938964844
 20
-746.492431640625
 11
119.9999771118164
 21
-746.6690063476563
  0
LINE
  8
0
  6
CONTINUOUS
 62
     7
 10
134.6500244140625
 20
-763.071044921875
 11
125.6500244140625
 21
-763.071044921875
  0
LINE
  8
0
  6
CONTINUOUS
 62
     7
 10
134.6500244140625
 20
-746.928955078125
 11
125.6500244140625
 21
-746.928955078125
  0
LINE
  8
0
  6
CONTINUOUS
 62
     3
 10
125.650032043457
 20
-755
 11
134.6500396728516
 21
-746.9288940429687
  0
LINE
  8
0
  6
CONTINUOUS
 62
     3
 10
125.6500244140625
 20
-746.9288940429687
 11
134.6500244140625
 21
-755
  0
LINE
  8
0
  6
CONTINUOUS
 62
     3
 10
134.6500244140625
 20
-755
 11
125.650032043457
 21
-763.0711059570313
  0
LINE
  8
0
  6
CONTINUOUS
 62
     3
 10
125.6500244140625
 20
-755
 11
134.6500244140625
 21
-763.0711059570313
  0
LINE
  8
0
  6
CONTINUOUS
 62
     7
 10
134.6500244140625
 20
-755
 11
125.6500244140625
 21
-755
  0
LINE
  8
0
  6
CONTINUOUS
 62
     3
 10
138.1500091552734
 20
-649.9999389648438
 11
147.1500091552734
 21
-641.9288940429688
  0
LINE
  8
0
  6
CONTINUOUS
 62
     3
 10
138.1500854492187
 20
-641.928955078125
 11
147.1500854492188
 21
-650.0000610351562
  0
LINE
  8
0
  6
CONTINUOUS
 62
     3
 10
147.1500244140625
 20
-650
 11
138.1500244140625
 21
-658.071044921875
  0
LINE
  8
0
  6
CONTINUOUS
 62
     3
 10
138.1500244140625
 20
-650
 11
147.1500244140625
 21
-658.071044921875
  0
LINE
  8
0
  6
CONTINUOUS
 62
     7
 10
147.1500244140625
 20
-650
 11
138.1500244140625
 21
-650
  0
LINE
  8
0
  6
CONTINUOUS
 62
     7
 10
49.97900009155273
 20
-477.0776977539062
 11
48.89379119873047
 21
-478.201416015625
  0
LINE
  8
0
  6
CONTINUOUS
 62
     7
 10
-49.97900390625
 20
-477.0777893066406
 11
-48.89386749267578
 21
-478.2014465332031
  0
LINE
  8
0
  6
CONTINUOUS
 62
     7
 10
-30.85337257385254
 20
-474.7517395019531
 11
-29.99991035461426
 21
-472.517578125
  0
LINE
  8
0
  6
CONTINUOUS
 62
     7
 10
30.85334587097168
 20
-474.7517700195312
 11
29.99991607666016
 21
-472.5176391601562
  0
LINE
  8
0
  6
CONTINUOUS
 62
     7
 10
-15.99993896484375
 20
-460
 11
16.00006103515625
 21
-460
  0
LINE
  8
0
  6
CONTINUOUS
 62
     7
 10
20.04729461669922
 20
-471.1197814941406
 11
16.00002098083496
 21
-460
  0
LINE
  8
0
  6
CONTINUOUS
 62
     7
 10
-20.04726791381836
 20
-471.119873046875
 11
-15.99997329711914
 21
-460
  0
LINE
  8
0
  6
CONTINUOUS
 62
     7
 10
11.11700248718262
 20
-449.1568908691406
 11
12.49995613098145
 21
-457.0000305175781
  0
LINE
  8
0
  6
CONTINUOUS
 62
     7
 10
4.999977588653564
 20
-446.9976806640625
 11
10.01995849609375
 21
-448.0286560058594
  0
LINE
  8
0
  6
CONTINUOUS
 62
     7
 10
5
 20
-411
 11
5
 21
-454.2000122070313
  0
LINE
  8
0
  6
CONTINUOUS
 62
     7
 10
-11.11707782745361
 20
-449.1568908691406
 11
-12.50003147125244
 21
-457
  0
LINE
  8
0
  6
CONTINUOUS
 62
     7
 10
-4.999977588653564
 20
-446.9976196289063
 11
-10.01995944976807
 21
-448.0285949707031
  0
LINE
  8
0
  6
CONTINUOUS
 62
     7
 10
-5
 20
-411
 11
-5
 21
-454.2000122070313
  0
LINE
  8
0
  6
CONTINUOUS
 62
     7
 10
12.5
 20
-457.0000305175781
 11
12.5
 21
-460
  0
LINE
  8
0
  6
CONTINUOUS
 62
     7
 10
-12.5
 20
-457
 11
-12.5
 21
-460
  0
LINE
  8
0
  6
CONTINUOUS
 62
     3
 10
430
 20
0
 11
1045
 21
0
  0
LINE
  8
0
  6
CONTINUOUS
 62
     7
 10
599
 20
90
 11
599
 21
-90
  0
LINE
  8
0
  6
CONTINUOUS
 62
     7
 10
630
 20
132.5
 11
630
 21
-132.5
  0
LINE
  8
0
  6
CONTINUOUS
 62
     7
 10
610
 20
-132.5
 11
659.9988403320313
 21
-132.5
  0
LINE
  8
0
  6
CONTINUOUS
 62
     7
 10
610
 20
132.5
 11
660.0001220703125
 21
132.5
  0
LINE
  8
0
  6
CONTINUOUS
 62
     7
 10
598.9999389648437
 20
90.00018310546875
 11
610
 21
101.0002136230469
  0
LINE
  8
0
  6
CONTINUOUS
 62
     7
 10
599.0000610351563
 20
-89.99997711181641
 11
610.0000610351562
 21
-100.9999618530273
  0
LINE
  8
0
  6
CONTINUOUS
 62
     7
 10
610
 20
197.5
 11
610
 21
136.1569213867187
  0
LINE
  8
0
  6
CONTINUOUS
 62
     7
 10
725
 20
194.5
 11
725
 21
-194.5
  0
LINE
  8
0
  6
CONTINUOUS
 62
     7
 10
700
 20
212.5
 11
700
 21
25.98077392578125
  0
LINE
  8
0
  6
CONTINUOUS
 62
     7
 10
660.0000610351562
 20
132.5003967285156
 11
686.307373046875
 21
134.8019866943359
  0
LINE
  8
0
  6
CONTINUOUS
 62
     7
 10
659.9988403320313
 20
-132.4998168945312
 11
686.3074340820312
 21
-134.8015289306641
  0
LINE
  8
0
  6
CONTINUOUS
 62
     7
 10
975
 20
197.5
 11
975
 21
140.2745361328125
  0
LINE
  8
0
  6
CONTINUOUS
 62
     7
 10
625
 20
-212.5
 11
960
 21
-212.5
  0
LINE
  8
0
  6
CONTINUOUS
 62
     7
 10
625
 20
212.5
 11
960
 21
212.5
  0
LINE
  8
0
  6
CONTINUOUS
 62
     7
 10
975
 20
-140.2745361328125
 11
975
 21
-197.5
  0
LINE
  8
0
  6
CONTINUOUS
 62
     7
 10
942.6639404296875
 20
122.2846450805664
 11
962.3885498046875
 21
125.4660263061523
  0
LINE
  8
0
  6
CONTINUOUS
 62
     7
 10
942.6640625
 20
-122.28466796875
 11
962.3884887695312
 21
-125.4660263061523
  0
LINE
  8
0
  6
CONTINUOUS
 62
     7
 10
700
 20
-25.98077392578125
 11
700
 21
-212.5
  0
LINE
  8
0
  6
CONTINUOUS
 62
     3
 10
940
 20
195
 11
940
 21
155
  0
LINE
  8
0
  6
CONTINUOUS
 62
     3
 10
645
 20
195
 11
645
 21
155
  0
LINE
  8
0
  6
CONTINUOUS
 62
     3
 10
625
 20
-175
 11
665
 21
-175
  0
LINE
  8
0
  6
CONTINUOUS
 62
     3
 10
625
 20
175
 11
665
 21
175
  0
LINE
  8
0
  6
CONTINUOUS
 62
     3
 10
645
 20
-155
 11
645
 21
-195
  0
LINE
  8
0
  6
CONTINUOUS
 62
     3
 10
940
 20
-155
 11
940
 21
-195
  0
LINE
  8
0
  6
CONTINUOUS
 62
     3
 10
920
 20
175
 11
960
 21
175
  0
LINE
  8
0
  6
CONTINUOUS
 62
     3
 10
920
 20
-175
 11
960
 21
-175
  0
LINE
  8
0
  6
CONTINUOUS
 62
     7
 10
450
 20
47.5
 11
450
 21
-47.5
  0
LINE
  8
0
  6
CONTINUOUS
 62
     7
 10
590
 20
55
 11
590
 21
-55
  0
LINE
  8
0
  6
CONTINUOUS
 62
     7
 10
590
 20
55
 11
599
 21
55
  0
LINE
  8
0
  6
CONTINUOUS
 62
     7
 10
590
 20
-55
 11
599
 21
-55
  0
LINE
  8
0
  6
CONTINUOUS
 62
     7
 10
450
 20
47.5
 11
590
 21
47.5
  0
LINE
  8
0
  6
CONTINUOUS
 62
     7
 10
450
 20
-47.5
 11
590
 21
-47.5
  0
LINE
  8
0
  6
CONTINUOUS
 62
     7
 10
450
 20
12.5
 11
567.5
 21
12.5
  0
LINE
  8
0
  6
CONTINUOUS
 62
     7
 10
450
 20
-12.5
 11
567.5
 21
-12.5
  0
LINE
  8
0
  6
CONTINUOUS
 62
     7
 10
610
 20
132.5
 11
610
 21
-132.5
  0
LINE
  8
0
  6
CONTINUOUS
 62
     7
 10
610
 20
-136.0249633789063
 11
610
 21
-197.5
  0
LINE
  8
0
  6
CONTINUOUS
 62
     7
 10
725
 20
-194.5
 11
860
 21
-194.5
  0
LINE
  8
0
  6
CONTINUOUS
 62
     7
 10
725
 20
194.5
 11
860
 21
194.5
  0
LINE
  8
0
  6
CONTINUOUS
 62
     3
 10
680
 20
-123.7423095703125
 11
680
 21
-152.74560546875
  0
LINE
  8
0
  6
CONTINUOUS
 62
     7
 10
671.928955078125
 20
-147.1500244140625
 11
688.071044921875
 21
-147.1500244140625
  0
LINE
  8
0
  6
CONTINUOUS
 62
     7
 10
671.492431640625
 20
-138.1500244140625
 11
688.507568359375
 21
-138.1500244140625
  0
LINE
  8
0
  6
CONTINUOUS
 62
     7
 10
671.4923706054688
 20
-138.1499786376953
 11
671.6371459960938
 21
-133.5181427001953
  0
LINE
  8
0
  6
CONTINUOUS
 62
     7
 10
688.5075073242187
 20
-138.1500091552734
 11
688.4133911132812
 21
-135.1381072998047
  0
LINE
  8
0
  6
CONTINUOUS
 62
     7
 10
671.928955078125
 20
-147.1500244140625
 11
671.928955078125
 21
-138.1500244140625
  0
LINE
  8
0
  6
CONTINUOUS
 62
     7
 10
688.071044921875
 20
-147.1500244140625
 11
688.071044921875
 21
-138.1500244140625
  0
LINE
  8
0
  6
CONTINUOUS
 62
     3
 10
679.9999389648437
 20
-138.1499786376953
 11
688.0709838867188
 21
-147.1499786376953
  0
LINE
  8
0
  6
CONTINUOUS
 62
     3
 10
688.0711059570313
 20
-138.1499481201172
 11
680
 21
-147.1499938964844
  0
LINE
  8
0
  6
CONTINUOUS
 62
     7
 10
680
 20
-147.1500244140625
 11
680
 21
-138.1500244140625
  0
LINE
  8
0
  6
CONTINUOUS
 62
     3
 10
680
 20
-138.1500701904297
 11
671.928955078125
 21
-147.1500701904297
  0
LINE
  8
0
  6
CONTINUOUS
 62
     3
 10
680
 20
-147.1500549316406
 11
671.928955078125
 21
-138.1500549316406
  0
LINE
  8
0
  6
CONTINUOUS
 62
     7
 10
560
 20
12.5
 11
560
 21
-12.5
  0
LINE
  8
0
  6
CONTINUOUS
 62
     7
 10
730
 20
-180
 11
800
 21
-180
  0
LINE
  8
0
  6
CONTINUOUS
 62
     7
 10
730
 20
180
 11
800
 21
180
  0
LINE
  8
0
  6
CONTINUOUS
 62
     7
 10
725
 20
175
 11
730
 21
179.9999847412109
  0
LINE
  8
0
  6
CONTINUOUS
 62
     7
 10
799.9999389648437
 20
179.9999694824219
 11
804.9999389648437
 21
174.9999847412109
  0
LINE
  8
0
  6
CONTINUOUS
 62
     7
 10
724.9999389648438
 20
-174.9999542236328
 11
730
 21
-179.9999847412109
  0
LINE
  8
0
  6
CONTINUOUS
 62
     7
 10
800
 20
-180.0000152587891
 11
805
 21
-175.0000305175781
  0
LINE
  8
0
  6
CONTINUOUS
 62
     7
 10
730
 20
172.9221801757813
 11
800
 21
172.9221801757813
  0
LINE
  8
0
  6
CONTINUOUS
 62
     7
 10
730
 20
157.6149291992188
 11
800
 21
157.6149291992188
  0
LINE
  8
0
  6
CONTINUOUS
 62
     7
 10
730
 20
146.8772583007812
 11
800
 21
146.8772583007812
  0
LINE
  8
0
  6
CONTINUOUS
 62
     7
 10
730
 20
134.4267578125
 11
800
 21
134.4267578125
  0
LINE
  8
0
  6
CONTINUOUS
 62
     7
 10
730
 20
119.7057495117187
 11
800
 21
119.7057495117187
  0
LINE
  8
0
  6
CONTINUOUS
 62
     7
 10
730
 20
49.97906494140625
 11
800
 21
49.97906494140625
  0
LINE
  8
0
  6
CONTINUOUS
 62
     7
 10
730
 20
29.99993896484375
 11
800
 21
29.99993896484375
  0
LINE
  8
0
  6
CONTINUOUS
 62
     7
 10
730
 20
-29.99993896484375
 11
800
 21
-29.99993896484375
  0
LINE
  8
0
  6
CONTINUOUS
 62
     7
 10
730
 20
-49.97900390625
 11
800
 21
-49.97900390625
  0
LINE
  8
0
  6
CONTINUOUS
 62
     7
 10
730
 20
-119.7056274414063
 11
800
 21
-119.7056274414063
  0
LINE
  8
0
  6
CONTINUOUS
 62
     7
 10
730
 20
-134.4266357421875
 11
800
 21
-134.4266357421875
  0
LINE
  8
0
  6
CONTINUOUS
 62
     7
 10
730
 20
-146.8770446777344
 11
800
 21
-146.8770446777344
  0
LINE
  8
0
  6
CONTINUOUS
 62
     7
 10
730
 20
-157.6150207519531
 11
800
 21
-157.6150207519531
  0
LINE
  8
0
  6
CONTINUOUS
 62
     7
 10
730
 20
-172.9222412109375
 11
800
 21
-172.9222412109375
  0
LINE
  8
0
  6
CONTINUOUS
 62
     7
 10
735
 20
5
 11
775
 21
5
  0
LINE
  8
0
  6
CONTINUOUS
 62
     7
 10
735
 20
-5
 11
775
 21
-5
  0
LINE
  8
0
  6
CONTINUOUS
 62
     7
 10
805
 20
-183.7000122070312
 11
805
 21
183.7000122070312
  0
LINE
  8
0
  6
CONTINUOUS
 62
     7
 10
952
 20
-115
 11
952
 21
-38
  0
LINE
  8
0
  6
CONTINUOUS
 62
     7
 10
926.1124877929687
 20
-169.9302368164062
 11
862.7383422851563
 21
-173.2515411376953
  0
LINE
  8
0
  6
CONTINUOUS
 62
     7
 10
926.1126098632813
 20
169.9304504394531
 11
862.7384033203125
 21
173.2517547607422
  0
LINE
  8
0
  6
CONTINUOUS
 62
     7
 10
952
 20
115
 11
946.499755859375
 21
115
  0
LINE
  8
0
  6
CONTINUOUS
 62
     7
 10
952
 20
-115
 11
946.499755859375
 21
-115
  0
LINE
  8
0
  6
CONTINUOUS
 62
     7
 10
943.5492553710937
 20
-117.4589080810547
 11
935.42529296875
 21
-161.7483673095703
  0
LINE
  8
0
  6
CONTINUOUS
 62
     7
 10
943.5491333007813
 20
117.4587631225586
 11
935.4251708984375
 21
161.748291015625
  0
LINE
  8
0
  6
CONTINUOUS
 62
     7
 10
944
 20
-115
 11
944
 21
115
  0
LINE
  8
0
  6
CONTINUOUS
 62
     7
 10
858
 20
-179.5
 11
858
 21
179.5
  0
LINE
  8
0
  6
CONTINUOUS
 62
     7
 10
1027
 20
-24
 11
1027
 21
24
  0
LINE
  8
0
  6
CONTINUOUS
 62
     7
 10
1027
 20
-24
 11
957
 21
-24
  0
LINE
  8
0
  6
CONTINUOUS
 62
     7
 10
1027
 20
24
 11
957
 21
24
  0
LINE
  8
0
  6
CONTINUOUS
 62
     7
 10
957
 20
-38
 11
952
 21
-38
  0
LINE
  8
0
  6
CONTINUOUS
 62
     7
 10
957
 20
38
 11
952
 21
38
  0
LINE
  8
0
  6
CONTINUOUS
 62
     7
 10
1027
 20
-7
 11
957
 21
-7
  0
LINE
  8
0
  6
CONTINUOUS
 62
     7
 10
1027
 20
7
 11
957
 21
7
  0
LINE
  8
0
  6
CONTINUOUS
 62
     3
 10
834
 20
-42.89898681640625
 11
834
 21
-7.89898681640625
  0
LINE
  8
0
  6
CONTINUOUS
 62
     3
 10
851.5
 20
-25.39898681640625
 11
816.5
 21
-25.39898681640625
  0
LINE
  8
0
  6
CONTINUOUS
 62
     7
 10
853.7999877929688
 20
183.7000122070312
 11
805
 21
183.7000122070312
  0
LINE
  8
0
  6
CONTINUOUS
 62
     7
 10
853.7999877929688
 20
-183.7000122070312
 11
805
 21
-183.7000122070312
  0
LINE
  8
0
  6
CONTINUOUS
 62
     7
 10
957
 20
-38
 11
957
 21
38
  0
LINE
  8
0
  6
CONTINUOUS
 62
     7
 10
952
 20
38
 11
952
 21
115
  0
LINE
  8
0
  6
CONTINUOUS
 62
     7
 10
846.0206909179688
 20
-25.3990478515625
 11
833.9998779296875
 21
-13.37827587127686
  0
LINE
  8
0
  6
CONTINUOUS
 62
     7
 10
834
 20
-13.3782434463501
 11
821.9791870117188
 21
-25.39905548095703
  0
LINE
  8
0
  6
CONTINUOUS
 62
     7
 10
821.9793701171875
 20
-25.39891624450684
 11
834.0001220703125
 21
-37.41968536376953
  0
LINE
  8
0
  6
CONTINUOUS
 62
     7
 10
833.9999389648437
 20
-37.41984558105469
 11
846.020751953125
 21
-25.39903259277344
  0
LINE
  8
0
  6
CONTINUOUS
 62
     7
 10
725.4110717773437
 20
-431
 11
785.0169677734375
 21
-431
  0
LINE
  8
0
  6
CONTINUOUS
 62
     7
 10
755
 20
-400.4874267578125
 11
755
 21
-474.2637634277344
  0
ARC
  8
0
  6
CONTINUOUS
 62
     7
 10
680
 20
-805
 40
19.99999999999996
 50
270.0000179860893
 51
0
  0
ARC
  8
0
  6
CONTINUOUS
 62
     7
 10
886.65234375
 20
-785
 40
40.00000000000004
 50
219.9999869972261
 51
270.0000179860893
  0
ARC
  8
0
  6
CONTINUOUS
 62
     7
 10
825
 20
-618.1822509765625
 40
99.99999999999996
 50
179.9999776881997
 51
219.9999833547605
  0
ARC
  8
0
  6
CONTINUOUS
 62
     7
 10
554.7567749023437
 20
-767.136474609375
 40
79.99999999999997
 50
313.6728929920274
 51
354.9999280015804
  0
ARC
  8
0
  6
CONTINUOUS
 62
     7
 10
633.6368408203125
 20
-726.0623779296875
 40
5.000000000000021
 50
355.0000172209265
 51
89.99998201391031
  0
ARC
  8
0
  6
CONTINUOUS
 62
     7
 10
675
 20
-506.1494445800781
 40
9.999999999999964
 50
274.9999964962948
 51
0
  0
CIRCLE
  8
0
  6
CONTINUOUS
 62
     3
 10
678
 20
-755
 40
8.507550239562988
  0
CIRCLE
  8
0
  6
CONTINUOUS
 62
     3
 10
680
 20
-650
 40
8.507550239562988
  0
ARC
  8
0
  6
CONTINUOUS
 62
     7
 10
685
 20
-500.2554321289063
 40
15
 50
274.9999964962946
 51
0
  0
ARC
  8
0
  6
CONTINUOUS
 62
     7
 10
755
 20
-431
 40
25
 50
306.4238458862582
 51
233.5761318019415
  0
CIRCLE
  8
0
  6
CONTINUOUS
 62
     7
 10
755
 20
-431
 40
15
  0
ARC
  8
0
  6
CONTINUOUS
 62
     7
 10
745.76513671875
 20
-450
 40
1.999999999999985
 50
89.99998201391097
 51
170.0000206677889
  0
ARC
  8
0
  6
CONTINUOUS
 62
     7
 10
764.23486328125
 20
-450
 40
1.999999999999964
 50
9.999994586450628
 51
89.99998201391097
  0
ARC
  8
0
  6
CONTINUOUS
 62
     7
 10
736.5936279296875
 20
-455.9440612792969
 40
6.000000000000009
 50
349.8636347103541
 51
53.57615411374161
  0
ARC
  8
0
  6
CONTINUOUS
 62
     7
 10
773.4063720703125
 20
-455.9440612792969
 40
6.000000000000024
 50
126.4238645555929
 51
189.9999620293671
  0
ARC
  8
0
  6
CONTINUOUS
 62
     7
 10
863
 20
-471.7551879882812
 40
4.999999999999963
 50
179.9999640278213
 51
266.9998810714519
  0
ARC
  8
0
  6
CONTINUOUS
 62
     7
 10
946.499755859375
 20
-768
 40
3.000000000000034
 50
89.99998201390989
 51
169.6057684885177
  0
ARC
  8
0
  6
CONTINUOUS
 62
     7
 10
946.499755859375
 20
-532
 40
3.000000000000043
 50
190.3942861529962
 51
269.9999633445768
  0
ARC
  8
0
  6
CONTINUOUS
 62
     7
 10
925.589111328125
 20
-809.944091796875
 40
9.999999999999947
 50
272.9999190318288
 51
349.6058112908856
  0
ARC
  8
0
  6
CONTINUOUS
 62
     7
 10
925.589111328125
 20
-490.0559387207031
 40
9.999999999999979
 50
10.39415455816887
 51
87.00002632665797
  0
ARC
  8
0
  6
CONTINUOUS
 62
     7
 10
853.7999877929688
 20
-470.5
 40
4.199999809265188
 50
359.999959018865
 51
89.99996152334371
  0
CIRCLE
  8
0
  6
CONTINUOUS
 62
     7
 10
0
 20
-650
 40
90
  0
CIRCLE
  8
0
  6
CONTINUOUS
 62
     7
 10
0
 20
-650
 40
132.5
  0
ARC
  8
0
  6
CONTINUOUS
 62
     3
 10
0
 20
-650
 40
117.5
 50
352.6806463420093
 51
7.319326337234041
  0
ARC
  8
0
  6
CONTINUOUS
 62
     3
 10
0
 20
-650
 40
117.5
 50
52.6806650871343
 51
67.31933483707533
  0
ARC
  8
0
  6
CONTINUOUS
 62
     3
 10
0
 20
-650
 40
117.5
 50
112.6806633416918
 51
127.3193296765383
  0
ARC
  8
0
  6
CONTINUOUS
 62
     3
 10
0
 20
-650
 40
117.5
 50
172.6806513509656
 51
187.3193313461904
  0
ARC
  8
0
  6
CONTINUOUS
 62
     3
 10
0
 20
-650
 40
117.5
 50
232.6806566630834
 51
247.3193366583082
  0
ARC
  8
0
  6
CONTINUOUS
 62
     3
 10
0
 20
-650
 40
117.5
 50
292.6806515025463
 51
307.3193314977711
  0
ARC
  8
0
  6
CONTINUOUS
 62
     7
 10
0
 20
-685
 40
212.5
 50
0
 51
179.9999640278213
  0
ARC
  8
0
  6
CONTINUOUS
 62
     7
 10
94.5
 20
-827
 40
8.000000000000053
 50
270.0000179860893
 51
0
  0
ARC
  8
0
  6
CONTINUOUS
 62
     7
 10
99.5
 20
-858
 40
3
 50
0
 51
89.9999820139107
  0
ARC
  8
0
  6
CONTINUOUS
 62
     7
 10
-99.5
 20
-858
 40
3.000000000000034
 50
89.9999820139107
 51
179.9999640278219
  0
ARC
  8
0
  6
CONTINUOUS
 62
     7
 10
-94.5
 20
-827
 40
7.999999999999996
 50
179.9999776881995
 51
270.000028004002
  0
ARC
  8
0
  6
CONTINUOUS
 62
     7
 10
-137.4259033203125
 20
-810
 40
14.99999999999994
 50
270.0000179860893
 51
349.9999772390186
  0
ARC
  8
0
  6
CONTINUOUS
 62
     7
 10
137.4259033203125
 20
-810
 40
15
 50
189.9999656718325
 51
270.0000179860893
  0
ARC
  8
0
  6
CONTINUOUS
 62
     7
 10
78.43731689453125
 20
-774.915283203125
 40
14.99999999999998
 50
10.00000824682919
 51
122.1257357939305
  0
ARC
  8
0
  6
CONTINUOUS
 62
     7
 10
-78.437255859375
 20
-774.915283203125
 40
15.00000000000005
 50
57.87424872445833
 51
170.0000206677892
  0
ARC
  8
0
  6
CONTINUOUS
 62
     7
 10
135
 20
-709.42431640625
 40
15.00000000000002
 50
156.2418886603622
 51
179.9999640278215
  0
ARC
  8
0
  6
CONTINUOUS
 62
     7
 10
-135
 20
-709.42431640625
 40
15
 50
0
 51
23.75813342406704
  0
ARC
  8
0
  6
CONTINUOUS
 62
     3
 10
0
 20
-650
 40
162.5
 50
17.20928316106158
 51
27.79072833646124
  0
ARC
  8
0
  6
CONTINUOUS
 62
     3
 10
0
 20
-650
 40
162.5
 50
62.20928782839527
 51
72.79073983398408
  0
ARC
  8
0
  6
CONTINUOUS
 62
     3
 10
0
 20
-650
 40
162.5
 50
107.2093676278098
 51
117.7908059730203
  0
ARC
  8
0
  6
CONTINUOUS
 62
     3
 10
0
 20
-650
 40
162.5
 50
152.2093586347651
 51
162.790810640354
  0
ARC
  8
0
  6
CONTINUOUS
 62
     3
 10
0
 20
-650
 40
162.5
 50
197.2092849822944
 51
207.7907369878832
  0
ARC
  8
0
  6
CONTINUOUS
 62
     3
 10
0
 20
-650
 40
162.5
 50
242.2092623288714
 51
252.7907006740819
  0
ARC
  8
0
  6
CONTINUOUS
 62
     3
 10
0
 20
-650
 40
162.5
 50
287.2092123546917
 51
297.7906643602805
  0
ARC
  8
0
  6
CONTINUOUS
 62
     3
 10
0
 20
-650
 40
162.5
 50
332.2091231069243
 51
342.7905597445875
  0
ARC
  8
0
  6
CONTINUOUS
 62
     7
 10
0
 20
-650
 40
47.49999999999995
 50
105.2575454498303
 51
74.74246957703872
  0
ARC
  8
0
  6
CONTINUOUS
 62
     7
 10
14.36492919921875
 20
-477.9978332519531
 40
5
 50
0
 51
86.03046731359598
  0
ARC
  8
0
  6
CONTINUOUS
 62
     7
 10
-14.364990234375
 20
-477.9978332519531
 40
5.000000000000004
 50
93.96955135573867
 51
179.9999640278213
  0
ARC
  8
0
  6
CONTINUOUS
 62
     7
 10
-34.364990234375
 20
-506.55908203125
 40
14.99999999999995
 50
283.4727710296146
 51
0
  0
ARC
  8
0
  6
CONTINUOUS
 62
     7
 10
34.36492919921875
 20
-506.55908203125
 40
15
 50
179.9999776881996
 51
256.5271793378284
  0
ARC
  8
0
  6
CONTINUOUS
 62
     7
 10
-33
 20
-832
 40
3.000000000000003
 50
269.9999974955218
 51
0
  0
ARC
  8
0
  6
CONTINUOUS
 62
     7
 10
33
 20
-832
 40
2.999999999999999
 50
179.9999913485786
 51
270.0000006832453
  0
ARC
  8
0
  6
CONTINUOUS
 62
     7
 10
0
 20
-650
 40
180
 50
66.2311012871847
 51
73.87937636503574
  0
ARC
  8
0
  6
CONTINUOUS
 62
     7
 10
0
 20
-650
 40
180
 50
80.40592264530639
 51
99.59405504289326
  0
ARC
  8
0
  6
CONTINUOUS
 62
     7
 10
0
 20
-650
 40
180
 50
106.1206627948664
 51
113.76891738215
  0
ARC
  8
0
  6
CONTINUOUS
 62
     7
 10
9.73834228515625
 20
-449.4000244140625
 40
1.39999997615814
 50
9.999995440224259
 51
78.39428850076496
  0
ARC
  8
0
  6
CONTINUOUS
 62
     7
 10
0
 20
-411
 40
5
 50
0
 51
179.9999640278213
  0
ARC
  8
0
  6
CONTINUOUS
 62
     7
 10
6.4000244140625
 20
-454.2000122070313
 40
1.399999976158142
 50
179.9999776881999
 51
270.000028004002
  0
ARC
  8
0
  6
CONTINUOUS
 62
     7
 10
-6.4000244140625
 20
-454.2000122070313
 40
1.399999976158144
 50
269.999963344576
 51
0
  0
ARC
  8
0
  6
CONTINUOUS
 62
     7
 10
-9.73834228515625
 20
-449.4000244140625
 40
1.399999976158126
 50
101.6056755270564
 51
169.9999660262765
  0
ARC
  8
0
  6
CONTINUOUS
 62
     7
 10
0
 20
-650
 40
183.6999969482422
 50
52.38181016000041
 51
84.17679495398957
  0
ARC
  8
0
  6
CONTINUOUS
 62
     7
 10
0
 20
-650
 40
183.6999969482422
 50
95.8232032247776
 51
127.6182050942397
  0
CIRCLE
  8
0
  6
CONTINUOUS
 62
     3
 10
0
 20
-650
 40
8
  0
CIRCLE
  8
0
  6
CONTINUOUS
 62
     7
 10
0
 20
-650
 40
7.099999904632568
  0
ARC
  8
0
  6
CONTINUOUS
 62
     7
 10
685
 20
149.7445678710938
 40
14.99999999999999
 50
275.0000374774295
 51
0
  0
ARC
  8
0
  6
CONTINUOUS
 62
     7
 10
685
 20
-149.7445678710938
 40
15
 50
359.9999453584866
 51
84.99990788105706
  0
ARC
  8
0
  6
CONTINUOUS
 62
     7
 10
625
 20
-197.5
 40
15
 50
179.9999776881996
 51
270.0000280040019
  0
ARC
  8
0
  6
CONTINUOUS
 62
     7
 10
960
 20
-197.5
 40
15
 50
270.0000179860892
 51
0
  0
ARC
  8
0
  6
CONTINUOUS
 62
     7
 10
960
 20
197.5
 40
15
 50
0
 51
89.99998201391075
  0
ARC
  8
0
  6
CONTINUOUS
 62
     7
 10
625
 20
197.5
 40
15
 50
89.99998201391075
 51
179.9999640278213
  0
ARC
  8
0
  6
CONTINUOUS
 62
     7
 10
960
 20
-140.2745361328125
 40
15
 50
0
 51
80.83765207255355
  0
ARC
  8
0
  6
CONTINUOUS
 62
     7
 10
960
 20
140.2745361328125
 40
15
 50
279.1623342670681
 51
0
  0
ARC
  8
0
  6
CONTINUOUS
 62
     7
 10
705
 20
0
 40
19.99999999999998
 50
120.0000306600608
 51
239.999952037095
  0
ARC
  8
0
  6
CONTINUOUS
 62
     7
 10
690
 20
25.98077392578125
 40
10
 50
299.9999300284562
 51
360
  0
ARC
  8
0
  6
CONTINUOUS
 62
     7
 10
690
 20
-25.98077392578125
 40
10
 50
0
 51
60.00006997154377
  0
ARC
  8
0
  6
CONTINUOUS
 62
     7
 10
567.5
 20
0
 40
12.5
 50
270.0000179860895
 51
89.99998201391058
  0
CIRCLE
  8
0
  6
CONTINUOUS
 62
     7
 10
645
 20
175
 40
12.5
  0
ARC
  8
0
  6
CONTINUOUS
 62
     7
 10
940
 20
175
 40
12.50000000000001
 50
245.9309572755305
 51
206.5770223902846
  0
CIRCLE
  8
0
  6
CONTINUOUS
 62
     7
 10
645
 20
-175
 40
12.5
  0
ARC
  8
0
  6
CONTINUOUS
 62
     7
 10
940
 20
-175
 40
12.50000000000005
 50
153.4229876276281
 51
114.0690595725715
  0
ARC
  8
0
  6
CONTINUOUS
 62
     7
 10
860
 20
186.5
 40
7.999999999999991
 50
24.78092863906702
 51
90.00000250447847
  0
ARC
  8
0
  6
CONTINUOUS
 62
     7
 10
860
 20
-186.5
 40
8.000000000000007
 50
269.9999974955215
 51
333.8935946053164
  0
ARC
  8
0
  6
CONTINUOUS
 62
     7
 10
755
 20
0
 40
20.0472869873047
 50
194.4426212363324
 51
345.557383999995
  0
ARC
  8
0
  6
CONTINUOUS
 62
     7
 10
755
 20
0
 40
12.5
 50
23.57817843000461
 51
156.4218368242355
  0
ARC
  8
0
  6
CONTINUOUS
 62
     7
 10
735
 20
0
 40
5
 50
89.99998201391031
 51
270.0000006832456
  0
ARC
  8
0
  6
CONTINUOUS
 62
     7
 10
775
 20
0
 40
5
 50
270.0000179860897
 51
89.99998201391031
  0
ARC
  8
0
  6
CONTINUOUS
 62
     7
 10
755
 20
0
 40
12.50000000000001
 50
203.5781631757645
 51
336.4218215699954
  0
ARC
  8
0
  6
CONTINUOUS
 62
     7
 10
755
 20
0
 40
20.04728698730464
 50
14.44260916981583
 51
165.5573787636676
  0
ARC
  8
0
  6
CONTINUOUS
 62
     7
 10
863
 20
-178.2448120117188
 40
5.000000000000008
 50
93.00010162570337
 51
180.0000186693346
  0
ARC
  8
0
  6
CONTINUOUS
 62
     7
 10
863
 20
178.2448120117188
 40
4.999999999999963
 50
180.0000359721788
 51
266.9999393554309
  0
ARC
  8
0
  6
CONTINUOUS
 62
     7
 10
946.499755859375
 20
118
 40
2.999999999999952
 50
190.3942315114826
 51
270.0000179860901
  0
ARC
  8
0
  6
CONTINUOUS
 62
     7
 10
946.499755859375
 20
-118
 40
3.000000000000003
 50
90.00003665542324
 51
169.6057138470044
  0
ARC
  8
0
  6
CONTINUOUS
 62
     7
 10
925.589111328125
 20
159.944091796875
 40
10.00000000000002
 50
10.39418870911456
 51
87.00008096817125
  0
ARC
  8
0
  6
CONTINUOUS
 62
     7
 10
925.589111328125
 20
-159.944091796875
 40
10.00000000000001
 50
272.999973673342
 51
349.6058454418313
  0
CIRCLE
  8
0
  6
CONTINUOUS
 62
     7
 10
834
 20
-25.39898681640625
 40
15
  0
ARC
  8
0
  6
CONTINUOUS
 62
     7
 10
853.7999877929688
 20
179.5
 40
4.199999809265167
 50
6.830189170012719E-06
 51
90.00000933466791
  0
ARC
  8
0
  6
CONTINUOUS
 62
     7
 10
853.7999877929688
 20
-179.5
 40
4.199999809265146
 50
270.0000384766563
 51
4.09811350200795E-05
  0
TEXT
  8
0
  6
CONTINUOUS
 62
     7
 10
-114.2857208251953
 20
-20
 40
40
 41
0.847397831130959
  1
ＥＲ－＿ＮＦ
  0
ENDSEC
  0
EOF
