  0
SECTION
  2
HEADER
  0
ENDSEC
  0
SECTION
  2
TABLES
  0
TABLE
  2
LTYPE
 70
    22
  0
LTYPE
  2
CONTINUOUS
 70
    64
  3
Solid line
 72
    65
 73
     0
 40
0.000000
  0
LTYPE
  2
DASHED
 70
    64
  3
__ __ __ __ __ __ __ __ __ __ __ __ __ __ __
 72
    65
 73
     2
 40
3.500000
 49
2.000000
 49
-1.500000
  0
LTYPE
  2
CENTER
 70
    64
  3
____ _ ____ _ ____ _ ____ _ ____ _ ____ _ ____
 72
    65
 73
     4
 40
17.500000
 49
13.000000
 49
-1.500000
 49
1.500000
 49
-1.500000
  0
LTYPE
  2
PHANTOM
 70
    64
  3
_____ _ _ _____ _ _ _____ _ _ _____ _ _ ____  
 72
    65
 73
     6
 40
15.500000
 49
8.000000
 49
-1.500000
 49
1.500000
 49
-1.500000
 49
1.500000
 49
-1.500000
  0
LTYPE
  2
DOT
 70
    64
  3
. . . . . . . . . . . . . . . . . . . . . . . .
 72
    65
 73
     2
 40
0.25
 49
0.0
 49
-0.25
  0
ENDTAB
  0
TABLE
  2
LAYER
 70
     1
  0
LAYER
  2
0
 70
     0
 62
     7
  6
CONTINUOUS
  0
ENDTAB
  0
TABLE
  2
STYLE
 70
     1
  0
STYLE
  2
STANDARD
 70
     0
 40
0.000000
 41
1.000000
 50
0.000000
 71
     0
 42
0.200000
  3
txt
  4
BIGFONT
  0
ENDTAB
  0
TABLE
  2
VIEW
 70
     0
  0
ENDTAB
  0
ENDSEC
  0
SECTION
  2
BLOCKS
  0
ENDSEC
  0
SECTION
  2
ENTITIES
  0
LINE
  8
0
  6
CONTINUOUS
 62
     3
 10
380
 20
-550
 11
912
 21
-550
  0
LINE
  8
0
  6
CONTINUOUS
 62
     7
 10
703
 20
-393.7999877929688
 11
703
 21
-648.9876708984375
  0
LINE
  8
0
  6
CONTINUOUS
 62
     7
 10
827
 20
-450
 11
827
 21
-515
  0
LINE
  8
0
  6
CONTINUOUS
 62
     7
 10
894
 20
-526
 11
894
 21
-571
  0
LINE
  8
0
  6
CONTINUOUS
 62
     7
 10
829
 20
-515
 11
827
 21
-515
  0
LINE
  8
0
  6
CONTINUOUS
 62
     7
 10
829
 20
-585
 11
827
 21
-585
  0
LINE
  8
0
  6
CONTINUOUS
 62
     7
 10
894
 20
-571
 11
829
 21
-571
  0
LINE
  8
0
  6
CONTINUOUS
 62
     7
 10
894
 20
-529
 11
829
 21
-529
  0
LINE
  8
0
  6
CONTINUOUS
 62
     7
 10
894
 20
-526
 11
831
 21
-526
  0
LINE
  8
0
  6
CONTINUOUS
 62
     7
 10
831
 20
-526
 11
831
 21
-529
  0
LINE
  8
0
  6
CONTINUOUS
 62
     7
 10
746.7999877929687
 20
-393.7999877929688
 11
703
 21
-393.7999877929688
  0
LINE
  8
0
  6
CONTINUOUS
 62
     7
 10
751
 20
-402
 11
751
 21
-698
  0
LINE
  8
0
  6
CONTINUOUS
 62
     7
 10
800.5009765625
 20
-404.5944213867188
 11
755.7079467773437
 21
-402.2469177246094
  0
LINE
  8
0
  6
CONTINUOUS
 62
     7
 10
827
 20
-450
 11
821.4060668945313
 21
-450
  0
LINE
  8
0
  6
CONTINUOUS
 62
     7
 10
819
 20
-450
 11
819
 21
-650
  0
LINE
  8
0
  6
CONTINUOUS
 62
     7
 10
810.8475952148437
 20
-413.3472595214844
 11
818.4774780273437
 21
-447.6513366699219
  0
LINE
  8
0
  6
CONTINUOUS
 62
     7
 10
827
 20
-650
 11
821.4060668945313
 21
-650
  0
LINE
  8
0
  6
CONTINUOUS
 62
     7
 10
810.8478393554688
 20
-686.6527709960937
 11
818.4777221679688
 21
-652.3486938476563
  0
LINE
  8
0
  6
CONTINUOUS
 62
     7
 10
800.5010375976563
 20
-695.40576171875
 11
755.7080078125
 21
-697.7532348632813
  0
LINE
  8
0
  6
CONTINUOUS
 62
     7
 10
829
 20
-515
 11
829
 21
-585
  0
LINE
  8
0
  6
CONTINUOUS
 62
     7
 10
827
 20
-585
 11
827
 21
-650
  0
LINE
  8
0
  6
CONTINUOUS
 62
     7
 10
630
 20
-400
 11
698
 21
-400
  0
LINE
  8
0
  6
CONTINUOUS
 62
     7
 10
624.9999389648437
 20
-405.0000305175781
 11
630
 21
-400
  0
LINE
  8
0
  6
CONTINUOUS
 62
     7
 10
698
 20
-400.0000610351562
 11
703
 21
-405.0000610351563
  0
LINE
  8
0
  6
CONTINUOUS
 62
     7
 10
669
 20
-390.0000305175781
 11
637
 21
-390.0000305175781
  0
LINE
  8
0
  6
CONTINUOUS
 62
     7
 10
669
 20
-390.0000305175781
 11
672.6397094726562
 21
-400.0000305175781
  0
LINE
  8
0
  6
CONTINUOUS
 62
     7
 10
637
 20
-390.0001525878906
 11
633.3603515625
 21
-400
  0
LINE
  8
0
  6
CONTINUOUS
 62
     7
 10
630
 20
-406.3724670410156
 11
698
 21
-406.3724670410156
  0
LINE
  8
0
  6
CONTINUOUS
 62
     7
 10
630
 20
-437.4244689941406
 11
698
 21
-437.4244689941406
  0
LINE
  8
0
  6
CONTINUOUS
 62
     7
 10
630
 20
-450.8700866699219
 11
698
 21
-450.8700866699219
  0
LINE
  8
0
  6
CONTINUOUS
 62
     7
 10
630
 20
-462.6091613769531
 11
698
 21
-462.6091613769531
  0
LINE
  8
0
  6
CONTINUOUS
 62
     7
 10
630
 20
-479.0270385742187
 11
698
 21
-479.0270385742187
  0
LINE
  8
0
  6
CONTINUOUS
 62
     7
 10
630
 20
-506.7433471679687
 11
698
 21
-506.7433471679687
  0
LINE
  8
0
  6
CONTINUOUS
 62
     7
 10
630
 20
-525.5888671875
 11
698
 21
-525.5888671875
  0
LINE
  8
0
  6
CONTINUOUS
 62
     7
 10
630
 20
-540.4924926757813
 11
698
 21
-540.4924926757813
  0
LINE
  8
0
  6
CONTINUOUS
 62
     7
 10
633.29345703125
 20
-559.5074462890625
 11
698
 21
-559.5074462890625
  0
LINE
  8
0
  6
CONTINUOUS
 62
     7
 10
641.3372802734375
 20
-574.4110107421875
 11
698
 21
-574.4110107421875
  0
LINE
  8
0
  6
CONTINUOUS
 62
     7
 10
656.2360229492188
 20
-593.256591796875
 11
698
 21
-593.256591796875
  0
LINE
  8
0
  6
CONTINUOUS
 62
     7
 10
640.5
 20
-387.0000305175781
 11
641.7955322265625
 21
-379.6527404785156
  0
LINE
  8
0
  6
CONTINUOUS
 62
     7
 10
664.2044067382813
 20
-379.6527099609375
 11
665.4999389648438
 21
-387.0000305175781
  0
LINE
  8
0
  6
CONTINUOUS
 62
     7
 10
643.76513671875
 20
-378.0000305175781
 11
662.23486328125
 21
-378.0000305175781
  0
LINE
  8
0
  6
CONTINUOUS
 62
     7
 10
643.341796875
 20
-378.0453186035156
 11
652.5767211914063
 21
-376.0453186035156
  0
LINE
  8
0
  6
CONTINUOUS
 62
     7
 10
653.4234008789063
 20
-376.0452880859375
 11
662.658203125
 21
-378.0452880859375
  0
LINE
  8
0
  6
CONTINUOUS
 62
     7
 10
640.5
 20
-387.0000305175781
 11
640.5
 21
-390.0000305175781
  0
LINE
  8
0
  6
CONTINUOUS
 62
     7
 10
665.5
 20
-387.0000305175781
 11
665.5
 21
-390.0000305175781
  0
LINE
  8
0
  6
CONTINUOUS
 62
     7
 10
525
 20
-735
 11
825
 21
-735
  0
LINE
  8
0
  6
CONTINUOUS
 62
     7
 10
574.9998779296875
 20
-439.9999084472656
 11
589.307373046875
 21
-438.7481689453125
  0
LINE
  8
0
  6
CONTINUOUS
 62
     7
 10
625
 20
-402
 11
625
 21
-519.6337890625
  0
LINE
  8
0
  6
CONTINUOUS
 62
     7
 10
603
 20
-402
 11
603
 21
-690
  0
LINE
  8
0
  6
CONTINUOUS
 62
     7
 10
590
 20
-402
 11
625
 21
-402
  0
LINE
  8
0
  6
CONTINUOUS
 62
     7
 10
590
 20
-402
 11
590
 21
-429.5243530273438
  0
LINE
  8
0
  6
CONTINUOUS
 62
     7
 10
528
 20
-705
 11
588
 21
-705
  0
LINE
  8
0
  6
CONTINUOUS
 62
     7
 10
525
 20
-705
 11
525
 21
-735
  0
LINE
  8
0
  6
CONTINUOUS
 62
     7
 10
825
 20
-708
 11
825
 21
-735
  0
LINE
  8
0
  6
CONTINUOUS
 62
     3
 10
550
 20
-695
 11
550
 21
-745
  0
LINE
  8
0
  6
CONTINUOUS
 62
     3
 10
800
 20
-695
 11
800
 21
-745
  0
LINE
  8
0
  6
CONTINUOUS
 62
     3
 10
573
 20
-635
 11
593
 21
-635
  0
LINE
  8
0
  6
CONTINUOUS
 62
     3
 10
583
 20
-625
 11
583
 21
-645
  0
LINE
  8
0
  6
CONTINUOUS
 62
     7
 10
527
 20
-440
 11
527
 21
-660
  0
LINE
  8
0
  6
CONTINUOUS
 62
     7
 10
545
 20
-440
 11
545
 21
-660
  0
LINE
  8
0
  6
CONTINUOUS
 62
     7
 10
517
 20
-625.0000610351563
 11
527
 21
-630.7735595703125
  0
LINE
  8
0
  6
CONTINUOUS
 62
     7
 10
527
 20
-660
 11
548.93701171875
 21
-660
  0
LINE
  8
0
  6
CONTINUOUS
 62
     7
 10
517
 20
-474.9999389648438
 11
517
 21
-625
  0
LINE
  8
0
  6
CONTINUOUS
 62
     7
 10
516.9999389648438
 20
-474.9999389648438
 11
527
 21
-469.2264099121094
  0
LINE
  8
0
  6
CONTINUOUS
 62
     7
 10
527
 20
-440
 11
574.9990234375
 21
-440
  0
LINE
  8
0
  6
CONTINUOUS
 62
     7
 10
400
 20
-508
 11
400
 21
-587.5
  0
LINE
  8
0
  6
CONTINUOUS
 62
     7
 10
400
 20
-512.5
 11
510
 21
-512.5
  0
LINE
  8
0
  6
CONTINUOUS
 62
     7
 10
400
 20
-587.5
 11
510
 21
-587.5
  0
LINE
  8
0
  6
CONTINUOUS
 62
     7
 10
510
 20
-507.5
 11
510
 21
-592.5
  0
LINE
  8
0
  6
CONTINUOUS
 62
     7
 10
510
 20
-507.5
 11
517
 21
-507.5
  0
LINE
  8
0
  6
CONTINUOUS
 62
     7
 10
510
 20
-592.5
 11
517
 21
-592.5
  0
LINE
  8
0
  6
CONTINUOUS
 62
     3
 10
585
 20
-560
 11
585
 21
-540
  0
LINE
  8
0
  6
CONTINUOUS
 62
     7
 10
400
 20
-508
 11
490
 21
-508
  0
LINE
  8
0
  6
CONTINUOUS
 62
     7
 10
768.6522827148438
 20
-705
 11
822
 21
-705
  0
LINE
  8
0
  6
DASHED
 62
     7
 10
561
 20
-705
 11
561
 21
-735
  0
LINE
  8
0
  6
DASHED
 62
     7
 10
539
 20
-705
 11
539
 21
-735
  0
LINE
  8
0
  6
DASHED
 62
     7
 10
811
 20
-705
 11
811
 21
-735
  0
LINE
  8
0
  6
DASHED
 62
     7
 10
789
 20
-705
 11
789
 21
-735
  0
LINE
  8
0
  6
CONTINUOUS
 62
     7
 10
648.3954467773437
 20
-583.91259765625
 11
738.0104370117187
 21
-690.7115478515625
  0
LINE
  8
0
  6
CONTINUOUS
 62
     7
 10
593.4854125976562
 20
-550
 11
585.0000610351562
 21
-541.5147094726562
  0
LINE
  8
0
  6
CONTINUOUS
 62
     7
 10
585
 20
-541.5147094726562
 11
576.5147094726563
 21
-550
  0
LINE
  8
0
  6
CONTINUOUS
 62
     7
 10
584.9999389648438
 20
-558.4852905273437
 11
576.5146484375
 21
-549.9999389648437
  0
LINE
  8
0
  6
CONTINUOUS
 62
     7
 10
593.4852294921875
 20
-550
 11
584.9999389648438
 21
-558.4852905273437
  0
LINE
  8
0
  6
CONTINUOUS
 62
     7
 10
582.9999389648438
 20
-626.5146484375
 11
574.5146484375
 21
-634.9999389648438
  0
LINE
  8
0
  6
CONTINUOUS
 62
     7
 10
583
 20
-643.4852905273438
 11
574.5147094726563
 21
-635
  0
LINE
  8
0
  6
CONTINUOUS
 62
     7
 10
591.4852294921875
 20
-635
 11
582.9999389648438
 21
-643.4852905273438
  0
LINE
  8
0
  6
CONTINUOUS
 62
     7
 10
591.4852905273437
 20
-635
 11
583
 21
-626.5147094726563
  0
LINE
  8
0
  6
CONTINUOUS
 62
     7
 10
548.9369506835938
 20
-660
 11
552.9269409179688
 21
-614.3936767578125
  0
LINE
  8
0
  6
CONTINUOUS
 62
     7
 10
490
 20
-508
 11
490
 21
-512.5
  0
LINE
  8
0
  6
CONTINUOUS
 62
     3
 10
0
 20
-321.0000305175781
 11
0
 21
-755
  0
LINE
  8
0
  6
CONTINUOUS
 62
     3
 10
-197.42333984375
 20
-550
 11
197.4234008789063
 21
-550
  0
LINE
  8
0
  6
CONTINUOUS
 62
     7
 10
-25.00000381469727
 20
-402.0980834960938
 11
-25.40163612365723
 21
-403.8013610839844
  0
LINE
  8
0
  6
CONTINUOUS
 62
     7
 10
25.00001335144043
 20
-402.0980224609375
 11
25.40166091918945
 21
-403.8013610839844
  0
LINE
  8
0
  6
CONTINUOUS
 62
     7
 10
-43.25666427612305
 20
-406.3723754882812
 11
-42.55017471313477
 21
-407.1015014648437
  0
LINE
  8
0
  6
CONTINUOUS
 62
     7
 10
43.25651931762695
 20
-406.3724365234375
 11
42.55011749267578
 21
-407.1015014648437
  0
LINE
  8
0
  6
CONTINUOUS
 62
     7
 10
16
 20
-390.0000305175781
 11
-16
 21
-390.0000305175781
  0
LINE
  8
0
  6
CONTINUOUS
 62
     7
 10
15.99998569488525
 20
-390.0000305175781
 11
20.13370323181152
 21
-401.3573303222656
  0
LINE
  8
0
  6
CONTINUOUS
 62
     7
 10
-16
 20
-390.0001220703125
 11
-20.13371849060059
 21
-401.357421875
  0
LINE
  8
0
  6
CONTINUOUS
 62
     7
 10
11.11703300476074
 20
-379.1569213867188
 11
12.49998664855957
 21
-387.0000305175781
  0
LINE
  8
0
  6
CONTINUOUS
 62
     7
 10
4.999985218048096
 20
-376.9976806640625
 11
10.0199670791626
 21
-378.0286560058594
  0
LINE
  8
0
  6
CONTINUOUS
 62
     7
 10
5
 20
-341.0000305175781
 11
5
 21
-384.2000427246094
  0
LINE
  8
0
  6
CONTINUOUS
 62
     7
 10
-11.1170654296875
 20
-379.1569213867188
 11
-12.5000171661377
 21
-387.0000305175781
  0
LINE
  8
0
  6
CONTINUOUS
 62
     7
 10
-4.999979496002197
 20
-376.9976806640625
 11
-10.0199613571167
 21
-378.0286560058594
  0
LINE
  8
0
  6
CONTINUOUS
 62
     7
 10
-5
 20
-341.0000305175781
 11
-5
 21
-384.2000427246094
  0
LINE
  8
0
  6
CONTINUOUS
 62
     7
 10
-12.5
 20
-387.0000305175781
 11
-12.5
 21
-390.0000305175781
  0
LINE
  8
0
  6
CONTINUOUS
 62
     7
 10
12.5
 20
-387.0000610351563
 11
12.5
 21
-390.0000305175781
  0
LINE
  8
0
  6
CONTINUOUS
 62
     7
 10
-180
 20
-735
 11
-90
 21
-735
  0
LINE
  8
0
  6
CONTINUOUS
 62
     3
 10
-73.61207580566406
 20
-592.5001220703125
 11
-90.93258666992187
 21
-602.5001220703125
  0
LINE
  8
0
  6
CONTINUOUS
 62
     3
 10
-73.61238861083984
 20
-507.5000305175781
 11
-90.93289184570313
 21
-497.5000305175781
  0
LINE
  8
0
  6
CONTINUOUS
 62
     3
 10
73.61231231689453
 20
-507.5000305175781
 11
90.93281555175781
 21
-497.5000305175781
  0
LINE
  8
0
  6
CONTINUOUS
 62
     3
 10
73.61208343505859
 20
-592.5
 11
90.93258666992187
 21
-602.5
  0
LINE
  8
0
  6
CONTINUOUS
 62
     7
 10
180
 20
-582
 11
180
 21
-735
  0
LINE
  8
0
  6
CONTINUOUS
 62
     7
 10
-180
 20
-582
 11
-180
 21
-735
  0
LINE
  8
0
  6
CONTINUOUS
 62
     7
 10
-177
 20
-705
 11
-93
 21
-705
  0
LINE
  8
0
  6
CONTINUOUS
 62
     3
 10
-150
 20
-695
 11
-150
 21
-745
  0
LINE
  8
0
  6
CONTINUOUS
 62
     3
 10
150
 20
-695
 11
150
 21
-745
  0
LINE
  8
0
  6
CONTINUOUS
 62
     7
 10
-90
 20
-708
 11
-90
 21
-735
  0
LINE
  8
0
  6
CONTINUOUS
 62
     7
 10
90
 20
-708
 11
90
 21
-735
  0
LINE
  8
0
  6
CONTINUOUS
 62
     7
 10
-85
 20
-730
 11
85
 21
-730
  0
LINE
  8
0
  6
CONTINUOUS
 62
     7
 10
-82
 20
-713
 11
-28
 21
-713
  0
LINE
  8
0
  6
CONTINUOUS
 62
     7
 10
90
 20
-735
 11
180
 21
-735
  0
LINE
  8
0
  6
CONTINUOUS
 62
     7
 10
93
 20
-705
 11
177
 21
-705
  0
LINE
  8
0
  6
CONTINUOUS
 62
     7
 10
28
 20
-713
 11
82
 21
-713
  0
LINE
  8
0
  6
CONTINUOUS
 62
     7
 10
89.99992370605469
 20
-705
 11
80.91262054443359
 21
-653.4633178710937
  0
LINE
  8
0
  6
CONTINUOUS
 62
     7
 10
-90.00000762939453
 20
-705
 11
-80.91269683837891
 21
-653.4632568359375
  0
LINE
  8
0
  6
CONTINUOUS
 62
     7
 10
-105.8143005371094
 20
-692.604736328125
 11
-99.99993896484375
 21
-659.6298828125
  0
LINE
  8
0
  6
CONTINUOUS
 62
     7
 10
105.8144302368164
 20
-692.6046752929687
 11
100.0000305175781
 21
-659.6295776367188
  0
LINE
  8
0
  6
CONTINUOUS
 62
     7
 10
100
 20
-598.9898071289063
 11
100
 21
-659.6295776367188
  0
LINE
  8
0
  6
CONTINUOUS
 62
     7
 10
-100
 20
-598.9898071289063
 11
-100
 21
-659.6298217773438
  0
LINE
  8
0
  6
CONTINUOUS
 62
     3
 10
108.5546112060547
 20
-594.9668579101563
 11
136.27099609375
 21
-606.4473266601563
  0
LINE
  8
0
  6
CONTINUOUS
 62
     3
 10
-44.9653205871582
 20
-441.4442138671875
 11
-56.44584655761719
 21
-413.727783203125
  0
LINE
  8
0
  6
CONTINUOUS
 62
     3
 10
44.96499633789062
 20
-658.555908203125
 11
56.44553756713867
 21
-686.2723999023437
  0
LINE
  8
0
  6
CONTINUOUS
 62
     3
 10
-44.96570205688477
 20
-658.5558471679687
 11
-56.44621276855469
 21
-686.2722778320312
  0
LINE
  8
0
  6
CONTINUOUS
 62
     3
 10
-108.5560760498047
 20
-505.034912109375
 11
-136.2724609375
 21
-493.5544128417969
  0
LINE
  8
0
  6
CONTINUOUS
 62
     3
 10
-108.5560607910156
 20
-594.9647827148437
 11
-136.2724456787109
 21
-606.4452514648437
  0
LINE
  8
0
  6
CONTINUOUS
 62
     7
 10
-18.7349853515625
 20
-405.7008056640625
 11
-18.7349853515625
 21
-439.1100158691406
  0
LINE
  8
0
  6
CONTINUOUS
 62
     7
 10
18.7349853515625
 20
-405.7008056640625
 11
18.7349853515625
 21
-439.1100158691406
  0
LINE
  8
0
  6
CONTINUOUS
 62
     3
 10
85
 20
-635
 11
124.6500244140625
 21
-635
  0
LINE
  8
0
  6
CONTINUOUS
 62
     7
 10
-10
 20
-508
 11
-10
 21
-520
  0
LINE
  8
0
  6
CONTINUOUS
 62
     7
 10
10
 20
-508
 11
10
 21
-520
  0
LINE
  8
0
  6
CONTINUOUS
 62
     3
 10
108.5558319091797
 20
-505.03466796875
 11
136.2722778320312
 21
-493.5541381835937
  0
LINE
  8
0
  6
CONTINUOUS
 62
     3
 10
44.9653205871582
 20
-441.4441528320313
 11
56.44584655761719
 21
-413.7277221679687
  0
LINE
  8
0
  6
CONTINUOUS
 62
     7
 10
-10
 20
-520
 11
10
 21
-520
  0
LINE
  8
0
  6
CONTINUOUS
 62
     7
 10
-10
 20
-508
 11
10
 21
-508
  0
LINE
  8
0
  6
DASHED
 62
     7
 10
139
 20
-705
 11
139
 21
-735
  0
LINE
  8
0
  6
DASHED
 62
     7
 10
161
 20
-705
 11
161
 21
-735
  0
LINE
  8
0
  6
DASHED
 62
     7
 10
-139
 20
-705
 11
-139
 21
-735
  0
LINE
  8
0
  6
DASHED
 62
     7
 10
-161
 20
-705
 11
-161
 21
-735
  0
LINE
  8
0
  6
CONTINUOUS
 62
     7
 10
114.6500244140625
 20
-643.071044921875
 11
114.6500244140625
 21
-626.928955078125
  0
LINE
  8
0
  6
CONTINUOUS
 62
     7
 10
105.6500244140625
 20
-643.507568359375
 11
105.6500244140625
 21
-626.492431640625
  0
LINE
  8
0
  6
CONTINUOUS
 62
     7
 10
105.650016784668
 20
-643.507568359375
 11
100
 21
-643.3309936523438
  0
LINE
  8
0
  6
CONTINUOUS
 62
     7
 10
105.6499862670898
 20
-626.492431640625
 11
99.99997711181641
 21
-626.6690063476562
  0
LINE
  8
0
  6
CONTINUOUS
 62
     7
 10
114.6500244140625
 20
-643.071044921875
 11
105.6500244140625
 21
-643.071044921875
  0
LINE
  8
0
  6
CONTINUOUS
 62
     7
 10
114.6500244140625
 20
-626.928955078125
 11
105.6500244140625
 21
-626.928955078125
  0
LINE
  8
0
  6
CONTINUOUS
 62
     7
 10
124.6500244140625
 20
-558.071044921875
 11
124.6500244140625
 21
-541.928955078125
  0
LINE
  8
0
  6
CONTINUOUS
 62
     7
 10
115.6500244140625
 20
-558.507568359375
 11
115.6500244140625
 21
-541.492431640625
  0
LINE
  8
0
  6
CONTINUOUS
 62
     7
 10
115.6500701904297
 20
-558.507568359375
 11
109.6848449707031
 21
-558.3211669921875
  0
LINE
  8
0
  6
CONTINUOUS
 62
     7
 10
115.6500091552734
 20
-541.492431640625
 11
109.6847839355469
 21
-541.6788330078125
  0
LINE
  8
0
  6
CONTINUOUS
 62
     7
 10
124.6500244140625
 20
-558.071044921875
 11
115.6500244140625
 21
-558.071044921875
  0
LINE
  8
0
  6
CONTINUOUS
 62
     7
 10
124.6500244140625
 20
-541.928955078125
 11
115.6500244140625
 21
-541.928955078125
  0
LINE
  8
0
  6
CONTINUOUS
 62
     3
 10
105.6500015258789
 20
-626.9288940429688
 11
114.6500473022461
 21
-635.0000610351563
  0
LINE
  8
0
  6
CONTINUOUS
 62
     3
 10
105.6500396728516
 20
-634.9999389648438
 11
114.6500473022461
 21
-626.9288940429688
  0
LINE
  8
0
  6
CONTINUOUS
 62
     3
 10
105.6499633789062
 20
-635
 11
114.6499633789063
 21
-643.071044921875
  0
LINE
  8
0
  6
CONTINUOUS
 62
     3
 10
105.6500244140625
 20
-643.0711059570312
 11
114.6500244140625
 21
-635
  0
LINE
  8
0
  6
CONTINUOUS
 62
     7
 10
114.6500244140625
 20
-634.9996337890625
 11
105.6500244140625
 21
-634.9996337890625
  0
LINE
  8
0
  6
CONTINUOUS
 62
     3
 10
115.6499633789062
 20
-541.9288940429688
 11
124.6499633789063
 21
-550
  0
LINE
  8
0
  6
CONTINUOUS
 62
     3
 10
115.6500091552734
 20
-550
 11
124.6500015258789
 21
-541.928955078125
  0
LINE
  8
0
  6
CONTINUOUS
 62
     3
 10
115.6500015258789
 20
-549.9999389648437
 11
124.6500015258789
 21
-558.071044921875
  0
LINE
  8
0
  6
CONTINUOUS
 62
     3
 10
115.6500396728516
 20
-558.0711059570313
 11
124.6500396728516
 21
-550
  0
LINE
  8
0
  6
CONTINUOUS
 62
     7
 10
124.6500244140625
 20
-549.9996337890625
 11
115.6500244140625
 21
-549.9996337890625
  0
LINE
  8
0
  6
CONTINUOUS
 62
     3
 10
380
 20
0
 11
912
 21
0
  0
LINE
  8
0
  6
CONTINUOUS
 62
     7
 10
703
 20
156.2000122070313
 11
703
 21
-156.2000122070313
  0
LINE
  8
0
  6
CONTINUOUS
 62
     7
 10
827
 20
100
 11
827
 21
35
  0
LINE
  8
0
  6
CONTINUOUS
 62
     7
 10
894
 20
21
 11
894
 21
-21
  0
LINE
  8
0
  6
CONTINUOUS
 62
     7
 10
829
 20
35
 11
827
 21
35
  0
LINE
  8
0
  6
CONTINUOUS
 62
     7
 10
829
 20
-35
 11
827
 21
-35
  0
LINE
  8
0
  6
CONTINUOUS
 62
     7
 10
894
 20
-21
 11
829
 21
-21
  0
LINE
  8
0
  6
CONTINUOUS
 62
     7
 10
894
 20
21
 11
829
 21
21
  0
LINE
  8
0
  6
CONTINUOUS
 62
     7
 10
894
 20
-6
 11
829
 21
-6
  0
LINE
  8
0
  6
CONTINUOUS
 62
     7
 10
894
 20
6
 11
829
 21
6
  0
LINE
  8
0
  6
CONTINUOUS
 62
     7
 10
831
 20
6
 11
831
 21
-6
  0
LINE
  8
0
  6
CONTINUOUS
 62
     7
 10
746.7999877929687
 20
156.2000122070313
 11
703
 21
156.2000122070313
  0
LINE
  8
0
  6
CONTINUOUS
 62
     7
 10
746.7999877929687
 20
-156.2000122070313
 11
703
 21
-156.2000122070313
  0
LINE
  8
0
  6
CONTINUOUS
 62
     7
 10
751
 20
148
 11
751
 21
-148
  0
LINE
  8
0
  6
CONTINUOUS
 62
     7
 10
800.5010375976563
 20
145.4054260253906
 11
755.7079467773437
 21
147.7529449462891
  0
LINE
  8
0
  6
CONTINUOUS
 62
     7
 10
827
 20
100
 11
821.4060668945313
 21
100
  0
LINE
  8
0
  6
CONTINUOUS
 62
     7
 10
819
 20
100
 11
819
 21
-100
  0
LINE
  8
0
  6
CONTINUOUS
 62
     7
 10
810.84765625
 20
136.6528625488281
 11
818.4774780273437
 21
102.348747253418
  0
LINE
  8
0
  6
CONTINUOUS
 62
     7
 10
827
 20
-100
 11
821.4060668945313
 21
-100
  0
LINE
  8
0
  6
CONTINUOUS
 62
     7
 10
810.8477783203125
 20
-136.6527862548828
 11
818.4776611328125
 21
-102.3487167358398
  0
LINE
  8
0
  6
CONTINUOUS
 62
     7
 10
800.5010375976563
 20
-145.4059143066406
 11
755.7078857421875
 21
-147.7534332275391
  0
LINE
  8
0
  6
CONTINUOUS
 62
     7
 10
829
 20
35
 11
829
 21
-35
  0
LINE
  8
0
  6
CONTINUOUS
 62
     7
 10
827
 20
-35
 11
827
 21
-100
  0
LINE
  8
0
  6
CONTINUOUS
 62
     7
 10
624.9999389648437
 20
-144.9998016357422
 11
630
 21
-149.9998626708984
  0
LINE
  8
0
  6
CONTINUOUS
 62
     7
 10
698.0001831054688
 20
-150.0001220703125
 11
703.0001831054687
 21
-145.0001373291016
  0
LINE
  8
0
  6
CONTINUOUS
 62
     7
 10
630
 20
-150
 11
698
 21
-150
  0
LINE
  8
0
  6
CONTINUOUS
 62
     7
 10
630.0001831054688
 20
-143.6275329589844
 11
697.9999389648437
 21
-143.6275329589844
  0
LINE
  8
0
  6
CONTINUOUS
 62
     7
 10
630.0001831054688
 20
-132.1470336914063
 11
697.9999389648437
 21
-132.1470336914063
  0
LINE
  8
0
  6
CONTINUOUS
 62
     7
 10
630.0001831054688
 20
-121.9132690429687
 11
697.9999389648437
 21
-121.9132690429687
  0
LINE
  8
0
  6
CONTINUOUS
 62
     7
 10
630.0001831054688
 20
-112.5755615234375
 11
697.9999389648437
 21
-112.5755615234375
  0
LINE
  8
0
  6
CONTINUOUS
 62
     7
 10
630.0001831054688
 20
-99.12994384765625
 11
697.9999389648437
 21
-99.12994384765625
  0
LINE
  8
0
  6
CONTINUOUS
 62
     7
 10
630.0001831054688
 20
-43.25653076171875
 11
697.9999389648437
 21
-43.25653076171875
  0
LINE
  8
0
  6
CONTINUOUS
 62
     7
 10
630.0001831054688
 20
-25
 11
697.9999389648437
 21
-25
  0
LINE
  8
0
  6
CONTINUOUS
 62
     7
 10
630.0001831054688
 20
25.00006103515625
 11
697.9999389648437
 21
25.00006103515625
  0
LINE
  8
0
  6
CONTINUOUS
 62
     7
 10
630.0001831054688
 20
43.2567138671875
 11
697.9999389648437
 21
43.2567138671875
  0
LINE
  8
0
  6
CONTINUOUS
 62
     7
 10
630.0001831054688
 20
99.1300048828125
 11
697.9999389648437
 21
99.1300048828125
  0
LINE
  8
0
  6
CONTINUOUS
 62
     7
 10
630.0001831054688
 20
112.5756225585938
 11
697.9999389648437
 21
112.5756225585938
  0
LINE
  8
0
  6
CONTINUOUS
 62
     7
 10
630.0001831054688
 20
121.913330078125
 11
697.9999389648437
 21
121.913330078125
  0
LINE
  8
0
  6
CONTINUOUS
 62
     7
 10
630.0001831054688
 20
132.1470336914063
 11
697.9999389648437
 21
132.1470336914063
  0
LINE
  8
0
  6
CONTINUOUS
 62
     7
 10
630.0001831054688
 20
143.6275634765625
 11
697.9999389648437
 21
143.6275634765625
  0
LINE
  8
0
  6
CONTINUOUS
 62
     7
 10
630
 20
150.0000610351562
 11
698
 21
150.0000610351562
  0
LINE
  8
0
  6
CONTINUOUS
 62
     7
 10
697.999755859375
 20
150.0001373291016
 11
702.999755859375
 21
145.0001525878906
  0
LINE
  8
0
  6
CONTINUOUS
 62
     7
 10
625.0001220703125
 20
144.9998779296875
 11
630.0001220703125
 21
149.9998626708984
  0
LINE
  8
0
  6
CONTINUOUS
 62
     7
 10
632.9999389648437
 20
5
 11
672.9999389648438
 21
5
  0
LINE
  8
0
  6
CONTINUOUS
 62
     7
 10
632.9999389648437
 20
-5
 11
672.9999389648438
 21
-5
  0
LINE
  8
0
  6
CONTINUOUS
 62
     7
 10
545
 20
110
 11
545
 21
-110
  0
LINE
  8
0
  6
CONTINUOUS
 62
     7
 10
527
 20
-110
 11
575
 21
-110
  0
LINE
  8
0
  6
CONTINUOUS
 62
     7
 10
527
 20
110
 11
575.000244140625
 21
110
  0
LINE
  8
0
  6
CONTINUOUS
 62
     7
 10
517
 20
75.00018310546875
 11
517
 21
-74.99993896484375
  0
LINE
  8
0
  6
CONTINUOUS
 62
     7
 10
527
 20
110
 11
527
 21
-110
  0
LINE
  8
0
  6
CONTINUOUS
 62
     7
 10
516.9999389648438
 20
75.00029754638672
 11
524.4999389648438
 21
79.33040618896484
  0
LINE
  8
0
  6
CONTINUOUS
 62
     7
 10
517.0000610351562
 20
-74.9998779296875
 11
524.5
 21
-79.32997131347656
  0
LINE
  8
0
  6
CONTINUOUS
 62
     7
 10
625
 20
165
 11
625
 21
-165
  0
LINE
  8
0
  6
CONTINUOUS
 62
     7
 10
603
 20
180
 11
603
 21
24.7183837890625
  0
LINE
  8
0
  6
CONTINUOUS
 62
     7
 10
575.0003051757812
 20
110.0002746582031
 11
589.3073120117187
 21
111.2519836425781
  0
LINE
  8
0
  6
CONTINUOUS
 62
     7
 10
575
 20
-109.9998626708984
 11
589.307373046875
 21
-111.251594543457
  0
LINE
  8
0
  6
CONTINUOUS
 62
     7
 10
540
 20
180
 11
810
 21
180
  0
LINE
  8
0
  6
CONTINUOUS
 62
     7
 10
540
 20
-180
 11
810
 21
-180
  0
LINE
  8
0
  6
CONTINUOUS
 62
     3
 10
535
 20
-150
 11
565
 21
-150
  0
LINE
  8
0
  6
CONTINUOUS
 62
     3
 10
535
 20
150
 11
565
 21
150
  0
LINE
  8
0
  6
CONTINUOUS
 62
     7
 10
525
 20
165
 11
525
 21
105
  0
LINE
  8
0
  6
CONTINUOUS
 62
     7
 10
825
 20
165
 11
825
 21
122.5586547851562
  0
LINE
  8
0
  6
CONTINUOUS
 62
     7
 10
525
 20
-105
 11
525
 21
-165
  0
LINE
  8
0
  6
CONTINUOUS
 62
     7
 10
825
 20
-122.5587158203125
 11
825
 21
-165
  0
LINE
  8
0
  6
CONTINUOUS
 62
     3
 10
550
 20
165
 11
550
 21
135
  0
LINE
  8
0
  6
CONTINUOUS
 62
     3
 10
800
 20
165
 11
800
 21
145.3268737792969
  0
LINE
  8
0
  6
CONTINUOUS
 62
     3
 10
550
 20
-135
 11
550
 21
-165
  0
LINE
  8
0
  6
CONTINUOUS
 62
     3
 10
800
 20
-145.3273773193359
 11
800
 21
-165
  0
LINE
  8
0
  6
CONTINUOUS
 62
     3
 10
785
 20
-150
 11
815
 21
-150
  0
LINE
  8
0
  6
CONTINUOUS
 62
     3
 10
785
 20
150
 11
815
 21
150
  0
LINE
  8
0
  6
CONTINUOUS
 62
     7
 10
603
 20
-24.7183837890625
 11
603
 21
-180
  0
LINE
  8
0
  6
CONTINUOUS
 62
     7
 10
400
 20
37.5
 11
400
 21
-37.5
  0
LINE
  8
0
  6
CONTINUOUS
 62
     7
 10
400
 20
37.5
 11
510
 21
37.5
  0
LINE
  8
0
  6
CONTINUOUS
 62
     7
 10
400
 20
-37.5
 11
510
 21
-37.5
  0
LINE
  8
0
  6
CONTINUOUS
 62
     7
 10
510
 20
42.5
 11
510
 21
-42.5
  0
LINE
  8
0
  6
CONTINUOUS
 62
     7
 10
510
 20
-42.5
 11
517
 21
-42.5
  0
LINE
  8
0
  6
CONTINUOUS
 62
     7
 10
510
 20
42.5
 11
517
 21
42.5
  0
LINE
  8
0
  6
CONTINUOUS
 62
     7
 10
400
 20
10
 11
495
 21
10
  0
LINE
  8
0
  6
CONTINUOUS
 62
     7
 10
400
 20
-10
 11
495
 21
-10
  0
LINE
  8
0
  6
CONTINUOUS
 62
     7
 10
625
 20
-165
 11
745
 21
-165
  0
LINE
  8
0
  6
CONTINUOUS
 62
     7
 10
625
 20
165
 11
745
 21
165
  0
LINE
  8
0
  6
CONTINUOUS
 62
     7
 10
576.928955078125
 20
-124.6499938964844
 11
593.071044921875
 21
-124.6499938964844
  0
LINE
  8
0
  6
CONTINUOUS
 62
     7
 10
576.492431640625
 20
-115.6500244140625
 11
593.507568359375
 21
-115.6500244140625
  0
LINE
  8
0
  6
CONTINUOUS
 62
     7
 10
576.4924926757813
 20
-115.6499786376953
 11
576.66455078125
 21
-110.1455535888672
  0
LINE
  8
0
  6
CONTINUOUS
 62
     7
 10
593.507568359375
 20
-115.6499786376953
 11
593.3997802734375
 21
-112.2002487182617
  0
LINE
  8
0
  6
CONTINUOUS
 62
     7
 10
576.928955078125
 20
-124.6499938964844
 11
576.928955078125
 21
-115.6500244140625
  0
LINE
  8
0
  6
CONTINUOUS
 62
     7
 10
593.071044921875
 20
-124.6499938964844
 11
593.071044921875
 21
-115.6500244140625
  0
LINE
  8
0
  6
CONTINUOUS
 62
     3
 10
585
 20
-99.9617919921875
 11
585
 21
-134.6499938964844
  0
LINE
  8
0
  6
CONTINUOUS
 62
     3
 10
585
 20
-115.650016784668
 11
593.0711059570312
 21
-124.6500091552734
  0
LINE
  8
0
  6
CONTINUOUS
 62
     3
 10
593.0711059570312
 20
-115.6500015258789
 11
585.0000610351562
 21
-124.6500015258789
  0
LINE
  8
0
  6
CONTINUOUS
 62
     3
 10
576.9288940429687
 20
-115.6501083374023
 11
585
 21
-124.6501083374023
  0
LINE
  8
0
  6
CONTINUOUS
 62
     3
 10
585
 20
-115.6499404907227
 11
576.9288940429687
 21
-124.6499404907227
  0
LINE
  8
0
  6
CONTINUOUS
 62
     7
 10
585.0003662109375
 20
-124.6500244140625
 11
585.0003662109375
 21
-115.6500244140625
  0
LINE
  8
0
  6
CONTINUOUS
 62
     7
 10
490
 20
10
 11
490
 21
-10
  0
LINE
  8
0
  6
CONTINUOUS
 62
     3
 10
704.1360473632813
 20
-21.79999923706055
 11
747.548828125
 21
-21.79999923706055
  0
LINE
  8
0
  6
CONTINUOUS
 62
     3
 10
727
 20
-0.8228291869163513
 11
727
 21
-42.23564529418945
  0
LINE
  8
0
  6
CONTINUOUS
 62
     7
 10
726.9999389648438
 20
-9.779230117797852
 11
714.9791870117188
 21
-21.80002021789551
  0
LINE
  8
0
  6
CONTINUOUS
 62
     7
 10
714.9793090820313
 20
-21.79989242553711
 11
727.0001831054688
 21
-33.82074737548828
  0
LINE
  8
0
  6
CONTINUOUS
 62
     7
 10
727
 20
-33.82085037231445
 11
739.0208129882813
 21
-21.79998397827148
  0
LINE
  8
0
  6
CONTINUOUS
 62
     7
 10
739.020751953125
 20
-21.80008125305176
 11
726.9999389648438
 21
-9.779223442077637
  0
LINE
  8
0
  6
CONTINUOUS
 62
     7
 10
653
 20
-328.7718505859375
 11
653
 21
-404.107421875
  0
LINE
  8
0
  6
CONTINUOUS
 62
     7
 10
619.8690185546875
 20
-361.0000305175781
 11
685.1889038085937
 21
-361.0000305175781
  0
ARC
  8
0
  6
CONTINUOUS
 62
     7
 10
746.7999877929687
 20
-398
 40
4.19999980926511
 50
4.653585466448101
 51
89.99996152334371
  0
ARC
  8
0
  6
CONTINUOUS
 62
     7
 10
821.4060668945313
 20
-447
 40
2.999999999999956
 50
192.5394846467567
 51
269.9999770049552
  0
ARC
  8
0
  6
CONTINUOUS
 62
     7
 10
799.9149169921875
 20
-415.7789001464844
 40
11.19999980926517
 50
12.53947599533467
 51
86.99996485495518
  0
ARC
  8
0
  6
CONTINUOUS
 62
     7
 10
755.9696655273438
 20
-397.2536010742188
 40
4.999999999999965
 50
184.6536077782482
 51
266.9999803365663
  0
ARC
  8
0
  6
CONTINUOUS
 62
     7
 10
821.4060668945313
 20
-653
 40
2.999999999999994
 50
89.99996152334238
 51
167.4604470513518
  0
ARC
  8
0
  6
CONTINUOUS
 62
     7
 10
799.9149169921875
 20
-684.2210693359375
 40
11.19999980926518
 50
272.9999736733424
 51
347.4604625329629
  0
ARC
  8
0
  6
CONTINUOUS
 62
     7
 10
755.9696655273438
 20
-702.7463989257812
 40
5.000000000000018
 50
92.9999650219201
 51
149.4566148143317
  0
ARC
  8
0
  6
CONTINUOUS
 62
     7
 10
653
 20
-361.0000305175781
 40
25
 50
306.4238458862582
 51
233.5761318019415
  0
CIRCLE
  8
0
  6
CONTINUOUS
 62
     7
 10
653
 20
-361.0000305175781
 40
15
  0
ARC
  8
0
  6
CONTINUOUS
 62
     7
 10
643.76513671875
 20
-380.0000305175781
 40
1.999999999999985
 50
89.99998201391097
 51
170.0000206677889
  0
ARC
  8
0
  6
CONTINUOUS
 62
     7
 10
662.23486328125
 20
-380.0000305175781
 40
1.999999999999964
 50
9.999994586450628
 51
89.99998201391097
  0
ARC
  8
0
  6
CONTINUOUS
 62
     7
 10
634.5936279296875
 20
-385.944091796875
 40
6.000000000000009
 50
349.8636347103541
 51
53.57615411374161
  0
ARC
  8
0
  6
CONTINUOUS
 62
     7
 10
671.4063720703125
 20
-385.944091796875
 40
6.000000000000024
 50
126.4238645555929
 51
189.9999620293671
  0
ARC
  8
0
  6
CONTINUOUS
 62
     7
 10
580
 20
-429.5243530273438
 40
9.999999999999991
 50
274.9999691755382
 51
0
  0
ARC
  8
0
  6
CONTINUOUS
 62
     7
 10
479.3774108886719
 20
-651.9097290039063
 40
70.00000000000004
 50
310.6737705878531
 51
353.3631794618058
  0
ARC
  8
0
  6
CONTINUOUS
 62
     7
 10
588
 20
-690
 40
14.99999999999994
 50
270.0000179860892
 51
0
  0
ARC
  8
0
  6
CONTINUOUS
 62
     7
 10
528
 20
-708
 40
3.000000000000034
 50
89.99998201390989
 51
179.9999640278219
  0
ARC
  8
0
  6
CONTINUOUS
 62
     7
 10
822
 20
-708
 40
3
 50
0
 51
89.99998201390989
  0
ARC
  8
0
  6
CONTINUOUS
 62
     7
 10
588
 20
-423.8052673339844
 40
14.99999999999998
 50
275.0000238170512
 51
0
  0
ARC
  8
0
  6
CONTINUOUS
 62
     7
 10
768.6522827148438
 20
-665
 40
40.00000000000004
 50
219.9999869972261
 51
270.0000179860893
  0
ARC
  8
0
  6
CONTINUOUS
 62
     7
 10
725
 20
-519.6337890625
 40
99.99999999999996
 50
179.9999776881997
 51
219.9999833547605
  0
CIRCLE
  8
0
  6
CONTINUOUS
 62
     3
 10
585
 20
-550
 40
8.507550239562988
  0
CIRCLE
  8
0
  6
CONTINUOUS
 62
     3
 10
583
 20
-635
 40
8.507550239562988
  0
ARC
  8
0
  6
CONTINUOUS
 62
     7
 10
549.9384765625
 20
-614.1322021484375
 40
3.000000000000032
 50
355.0001030251773
 51
89.99998201390989
  0
ARC
  8
0
  6
CONTINUOUS
 62
     7
 10
0
 20
-550
 40
150
 50
80.40595679625224
 51
99.59408919383911
  0
ARC
  8
0
  6
CONTINUOUS
 62
     7
 10
0
 20
-550
 40
150
 50
106.7608291050151
 51
112.3943349814957
  0
ARC
  8
0
  6
CONTINUOUS
 62
     7
 10
0
 20
-550
 40
150
 50
67.60560855575807
 51
73.23914858318459
  0
ARC
  8
0
  6
CONTINUOUS
 62
     7
 10
9.73834228515625
 20
-379.4000244140625
 40
1.39999997615814
 50
9.999995440224259
 51
78.39428850076496
  0
ARC
  8
0
  6
CONTINUOUS
 62
     7
 10
0
 20
-341.0000305175781
 40
5
 50
0
 51
179.9999640278213
  0
ARC
  8
0
  6
CONTINUOUS
 62
     7
 10
6.4000244140625
 20
-384.2000427246094
 40
1.399999976158142
 50
179.9999776881999
 51
270.000028004002
  0
ARC
  8
0
  6
CONTINUOUS
 62
     7
 10
-6.4000244140625
 20
-384.2000427246094
 40
1.399999976158144
 50
269.999963344576
 51
0
  0
ARC
  8
0
  6
CONTINUOUS
 62
     7
 10
-9.73834228515625
 20
-379.4000244140625
 40
1.399999976158126
 50
101.6056755270564
 51
169.9999660262765
  0
ARC
  8
0
  6
CONTINUOUS
 62
     7
 10
0
 20
-550
 40
156.1999969482422
 50
96.52550376580582
 51
135.7349013755594
  0
ARC
  8
0
  6
CONTINUOUS
 62
     7
 10
0
 20
-550
 40
156.1999969482422
 50
44.26512070886989
 51
83.47450124315051
  0
CIRCLE
  8
0
  6
CONTINUOUS
 62
     7
 10
0
 20
-550
 40
75
  0
CIRCLE
  8
0
  6
CONTINUOUS
 62
     7
 10
0
 20
-550
 40
110
  0
ARC
  8
0
  6
CONTINUOUS
 62
     3
 10
0
 20
-550
 40
95
 50
23.96605804278047
 51
36.0338821551691
  0
ARC
  8
0
  6
CONTINUOUS
 62
     3
 10
0
 20
-550
 40
95.00000000000003
 50
83.966056297338
 51
96.03390773048332
  0
ARC
  8
0
  6
CONTINUOUS
 62
     3
 10
0
 20
-550
 40
95.00000000000001
 50
143.9660579669901
 51
156.0338957397571
  0
ARC
  8
0
  6
CONTINUOUS
 62
     3
 10
0
 20
-550
 40
95
 50
203.9660632791079
 51
216.0339010518749
  0
ARC
  8
0
  6
CONTINUOUS
 62
     3
 10
0
 20
-550
 40
95.00000000000001
 50
263.96606494876
 51
276.0338890611487
  0
ARC
  8
0
  6
CONTINUOUS
 62
     3
 10
0
 20
-550
 40
94.99999999999999
 50
323.9660632033175
 51
336.0338873157062
  0
ARC
  8
0
  6
CONTINUOUS
 62
     7
 10
0
 20
-582
 40
180
 50
0
 51
179.9999640278213
  0
ARC
  8
0
  6
CONTINUOUS
 62
     7
 10
-82
 20
-705
 40
7.999999999999996
 50
179.9999776881995
 51
270.000028004002
  0
ARC
  8
0
  6
CONTINUOUS
 62
     7
 10
82
 20
-705
 40
8.000000000000053
 50
270.0000179860893
 51
0
  0
ARC
  8
0
  6
CONTINUOUS
 62
     7
 10
-85
 20
-735
 40
5.000000000000019
 50
89.99998201391064
 51
179.9999640278219
  0
ARC
  8
0
  6
CONTINUOUS
 62
     7
 10
85
 20
-735
 40
5
 50
0
 51
89.99998201391064
  0
ARC
  8
0
  6
CONTINUOUS
 62
     7
 10
28
 20
-710
 40
3
 50
179.9999776882003
 51
270.0000280040019
  0
ARC
  8
0
  6
CONTINUOUS
 62
     7
 10
-28
 20
-710
 40
3.000000000000034
 50
270.0000179860893
 51
0
  0
ARC
  8
0
  6
CONTINUOUS
 62
     7
 10
120.5865478515625
 20
-690
 40
15
 50
189.9999793322108
 51
270.0000179860893
  0
ARC
  8
0
  6
CONTINUOUS
 62
     7
 10
-120.5864868164063
 20
-690
 40
14.99999999999994
 50
270.0000179860893
 51
349.9999917531708
  0
ARC
  8
0
  6
CONTINUOUS
 62
     7
 10
66.14056396484375
 20
-656.0679931640625
 40
14.99999999999999
 50
9.999968119467892
 51
121.9464160074611
  0
ARC
  8
0
  6
CONTINUOUS
 62
     7
 10
-66.14056396484375
 20
-656.0679931640625
 40
15.00000000000002
 50
58.05376658641372
 51
170.0000206677892
  0
ARC
  8
0
  6
CONTINUOUS
 62
     7
 10
0
 20
-550
 40
132.5
 50
331.0102046339863
 51
343.9897565477341
  0
ARC
  8
0
  6
CONTINUOUS
 62
     3
 10
0
 20
-550
 40
132.5
 50
106.010204975609
 51
118.9897773799243
  0
ARC
  8
0
  6
CONTINUOUS
 62
     3
 10
0
 20
-550
 40
132.5
 50
286.010172645896
 51
298.9897450502113
  0
ARC
  8
0
  6
CONTINUOUS
 62
     3
 10
0
 20
-550
 40
132.4999999999999
 50
241.0101816389407
 51
253.9897472130668
  0
ARC
  8
0
  6
CONTINUOUS
 62
     3
 10
0
 20
-550
 40
132.5
 50
151.0101959825643
 51
163.9897547265013
  0
ARC
  8
0
  6
CONTINUOUS
 62
     3
 10
0
 20
-550
 40
132.5
 50
196.010217952742
 51
208.9897630363006
  0
ARC
  8
0
  6
CONTINUOUS
 62
     3
 10
0
 20
-550
 40
132.5
 50
331.0102046339863
 51
343.9897565477341
  0
ARC
  8
0
  6
CONTINUOUS
 62
     7
 10
15.7349853515625
 20
-405.7008056640625
 40
3
 50
0
 51
84.89928553420441
  0
ARC
  8
0
  6
CONTINUOUS
 62
     7
 10
-15.7349853515625
 20
-405.7008056640625
 40
2.999999999999994
 50
95.10073313513033
 51
179.9999640278208
  0
ARC
  8
0
  6
CONTINUOUS
 62
     7
 10
-21.7349853515625
 20
-439.1100158691406
 40
3.000000000000006
 50
281.089554103657
 51
0
  0
ARC
  8
0
  6
CONTINUOUS
 62
     7
 10
21.7349853515625
 20
-439.1100158691406
 40
3
 50
179.9999776881992
 51
258.9104235845426
  0
ARC
  8
0
  6
CONTINUOUS
 62
     7
 10
115
 20
-598.9898071289063
 40
14.99999999999999
 50
156.9261096906576
 51
179.9999640278215
  0
ARC
  8
0
  6
CONTINUOUS
 62
     7
 10
-115
 20
-598.9898071289063
 40
15
 50
0
 51
23.07391410131893
  0
ARC
  8
0
  6
CONTINUOUS
 62
     7
 10
0
 20
-550
 40
37.50000000000002
 50
105.4660233138666
 51
74.53398488281326
  0
ARC
  8
0
  6
CONTINUOUS
 62
     7
 10
177
 20
-708
 40
3
 50
0
 51
89.99998201391043
  0
ARC
  8
0
  6
CONTINUOUS
 62
     7
 10
93
 20
-708
 40
3.000000000000034
 50
89.9999820139107
 51
179.9999640278219
  0
ARC
  8
0
  6
CONTINUOUS
 62
     7
 10
-93
 20
-708
 40
3
 50
0
 51
89.9999820139107
  0
ARC
  8
0
  6
CONTINUOUS
 62
     7
 10
-177
 20
-708
 40
3.000000000000034
 50
89.99998201391043
 51
179.9999640278219
  0
ARC
  8
0
  6
CONTINUOUS
 62
     3
 10
0
 20
-550
 40
132.5
 50
16.01020588622541
 51
28.98977487544615
  0
ARC
  8
0
  6
CONTINUOUS
 62
     3
 10
0
 20
-550
 40
132.5
 50
61.01020713846451
 51
73.98977271259065
  0
CIRCLE
  8
0
  6
CONTINUOUS
 62
     7
 10
0
 20
-550
 40
7.099999904632568
  0
CIRCLE
  8
0
  6
CONTINUOUS
 62
     3
 10
0
 20
-550
 40
8
  0
ARC
  8
0
  6
CONTINUOUS
 62
     7
 10
746.7999877929687
 20
-152
 40
4.199999809265136
 50
269.9999906653321
 51
355.3463667222278
  0
ARC
  8
0
  6
CONTINUOUS
 62
     7
 10
746.7999877929687
 20
152
 40
4.19999980926511
 50
4.653585466448101
 51
89.99996152334371
  0
ARC
  8
0
  6
CONTINUOUS
 62
     7
 10
821.4060668945313
 20
103
 40
2.999999999999959
 50
192.5394846467569
 51
269.9999770049552
  0
ARC
  8
0
  6
CONTINUOUS
 62
     7
 10
799.9149169921875
 20
134.2211303710937
 40
11.19999980926517
 50
12.53947599533467
 51
86.99996485495518
  0
ARC
  8
0
  6
CONTINUOUS
 62
     7
 10
755.9696655273438
 20
152.7463989257813
 40
4.999999999999968
 50
184.6536077782485
 51
266.9999803365663
  0
ARC
  8
0
  6
CONTINUOUS
 62
     7
 10
821.4060668945313
 20
-103
 40
2.999999999999994
 50
89.99996152334238
 51
167.4604470513518
  0
ARC
  8
0
  6
CONTINUOUS
 62
     7
 10
799.9149169921875
 20
-134.2210998535156
 40
11.19999980926512
 50
272.9999736733424
 51
347.4604625329628
  0
ARC
  8
0
  6
CONTINUOUS
 62
     7
 10
755.9696655273438
 20
-152.7463989257813
 40
4.999999999999989
 50
92.99996502192012
 51
175.3463375802381
  0
ARC
  8
0
  6
CONTINUOUS
 62
     7
 10
653
 20
0
 40
20.13370323181152
 50
14.37929160866249
 51
165.620708277652
  0
ARC
  8
0
  6
CONTINUOUS
 62
     7
 10
652.9999389648438
 20
0
 40
12.5
 50
23.57817843000461
 51
156.4218368242355
  0
ARC
  8
0
  6
CONTINUOUS
 62
     7
 10
672.9999389648438
 20
0
 40
5
 50
270.0000179860897
 51
89.99998201391031
  0
ARC
  8
0
  6
CONTINUOUS
 62
     7
 10
632.9999389648437
 20
0
 40
5
 50
89.99998201391031
 51
270.0000006832456
  0
ARC
  8
0
  6
CONTINUOUS
 62
     7
 10
652.9999389648438
 20
0
 40
12.50000000000001
 50
203.5781631757645
 51
336.4218215699954
  0
ARC
  8
0
  6
CONTINUOUS
 62
     7
 10
653
 20
0
 40
20.13370323181157
 50
194.379291722348
 51
345.6207083913375
  0
ARC
  8
0
  6
CONTINUOUS
 62
     7
 10
522
 20
-83.6602783203125
 40
5
 50
0
 51
59.99998117908478
  0
ARC
  8
0
  6
CONTINUOUS
 62
     7
 10
522
 20
83.6602783203125
 40
4.99999999999998
 50
299.9999300284557
 51
0
  0
ARC
  8
0
  6
CONTINUOUS
 62
     7
 10
588
 20
126.1946411132813
 40
14.99999999999999
 50
275.0000238170512
 51
0
  0
ARC
  8
0
  6
CONTINUOUS
 62
     7
 10
588
 20
-126.1946411132813
 40
15
 50
0
 51
84.99997618294879
  0
ARC
  8
0
  6
CONTINUOUS
 62
     7
 10
540
 20
165
 40
15
 50
89.99998201391075
 51
179.9999640278213
  0
ARC
  8
0
  6
CONTINUOUS
 62
     7
 10
540
 20
105
 40
15
 50
179.9999776881997
 51
209.9264925177456
  0
ARC
  8
0
  6
CONTINUOUS
 62
     7
 10
810
 20
165
 40
15
 50
0
 51
89.99998201391075
  0
ARC
  8
0
  6
CONTINUOUS
 62
     7
 10
810
 20
122.5586547851562
 40
14.99999999999997
 50
297.559926909739
 51
0
  0
ARC
  8
0
  6
CONTINUOUS
 62
     7
 10
810
 20
-122.5587158203125
 40
15
 50
0
 51
62.43964278834331
  0
ARC
  8
0
  6
CONTINUOUS
 62
     7
 10
810
 20
-165
 40
15
 50
270.0000179860892
 51
0
  0
ARC
  8
0
  6
CONTINUOUS
 62
     7
 10
540
 20
-105
 40
15.00000000000003
 50
150.0735038397889
 51
179.9999640278213
  0
ARC
  8
0
  6
CONTINUOUS
 62
     7
 10
540
 20
-165
 40
15
 50
179.9999776881996
 51
270.0000280040019
  0
ARC
  8
0
  6
CONTINUOUS
 62
     7
 10
610
 20
0
 40
20.00000000000001
 50
124.518146154511
 51
235.481836542645
  0
ARC
  8
0
  6
CONTINUOUS
 62
     7
 10
593
 20
24.7183837890625
 40
10.00000000000003
 50
304.5181582210278
 51
360
  0
ARC
  8
0
  6
CONTINUOUS
 62
     7
 10
495
 20
0
 40
10
 50
270.0000179860893
 51
89.99998201391064
  0
ARC
  8
0
  6
CONTINUOUS
 62
     7
 10
593
 20
-24.7183837890625
 40
10
 50
0
 51
55.48184177897218
  0
CIRCLE
  8
0
  6
CONTINUOUS
 62
     7
 10
550
 20
-150
 40
11
  0
CIRCLE
  8
0
  6
CONTINUOUS
 62
     7
 10
550
 20
150
 40
11
  0
ARC
  8
0
  6
CONTINUOUS
 62
     7
 10
800
 20
150
 40
11
 50
314.9066061561448
 51
201.5024513841537
  0
ARC
  8
0
  6
CONTINUOUS
 62
     7
 10
800
 20
-150
 40
10.99999999999998
 50
158.5003453509403
 51
45.09351997498401
  0
ARC
  8
0
  6
CONTINUOUS
 62
     7
 10
745
 20
160
 40
4.999999999999977
 50
6.865607969727686
 51
90.00000250447782
  0
ARC
  8
0
  6
CONTINUOUS
 62
     7
 10
745
 20
-160
 40
5.000000000000004
 50
269.9999974955222
 51
355.0391469477946
  0
CIRCLE
  8
0
  6
CONTINUOUS
 62
     7
 10
727
 20
-21.79999923706055
 40
15
  0
TEXT
  8
0
  6
CONTINUOUS
 62
     7
 10
-85.71429061889648
 20
-15
 40
30
 41
0.847397831130959
  1
ＥＲ－＿ＮＥ
  0
ENDSEC
  0
EOF
