  0
SECTION
  2
HEADER
  0
ENDSEC
  0
SECTION
  2
TABLES
  0
TABLE
  2
LTYPE
 70
    22
  0
LTYPE
  2
CONTINUOUS
 70
    64
  3
Solid line
 72
    65
 73
     0
 40
0.000000
  0
LTYPE
  2
DASHED
 70
    64
  3
__ __ __ __ __ __ __ __ __ __ __ __ __ __ __
 72
    65
 73
     2
 40
3.500000
 49
2.000000
 49
-1.500000
  0
LTYPE
  2
CENTER
 70
    64
  3
____ _ ____ _ ____ _ ____ _ ____ _ ____ _ ____
 72
    65
 73
     4
 40
17.500000
 49
13.000000
 49
-1.500000
 49
1.500000
 49
-1.500000
  0
LTYPE
  2
PHANTOM
 70
    64
  3
_____ _ _ _____ _ _ _____ _ _ _____ _ _ ____  
 72
    65
 73
     6
 40
15.500000
 49
8.000000
 49
-1.500000
 49
1.500000
 49
-1.500000
 49
1.500000
 49
-1.500000
  0
LTYPE
  2
DOT
 70
    64
  3
. . . . . . . . . . . . . . . . . . . . . . . .
 72
    65
 73
     2
 40
0.25
 49
0.0
 49
-0.25
  0
ENDTAB
  0
TABLE
  2
LAYER
 70
     1
  0
LAYER
  2
0
 70
     0
 62
     7
  6
CONTINUOUS
  0
ENDTAB
  0
TABLE
  2
STYLE
 70
     1
  0
STYLE
  2
STANDARD
 70
     0
 40
0.000000
 41
1.000000
 50
0.000000
 71
     0
 42
0.200000
  3
txt
  4
BIGFONT
  0
ENDTAB
  0
TABLE
  2
VIEW
 70
     0
  0
ENDTAB
  0
ENDSEC
  0
SECTION
  2
BLOCKS
  0
ENDSEC
  0
SECTION
  2
ENTITIES
  0
LINE
  8
0
  6
CONTINUOUS
 62
     3
 10
380
 20
-600
 11
1066
 21
-600
  0
LINE
  8
0
  6
CONTINUOUS
 62
     7
 10
808.7058715820313
 20
-477.5955505371094
 11
848.9231567382812
 21
-488.3717346191406
  0
LINE
  8
0
  6
CONTINUOUS
 62
     7
 10
755
 20
-422.5
 11
755
 21
-699.9194946289063
  0
LINE
  8
0
  6
CONTINUOUS
 62
     7
 10
755
 20
-422.5
 11
790
 21
-422.5
  0
LINE
  8
0
  6
CONTINUOUS
 62
     7
 10
805
 20
-469.1954956054688
 11
805
 21
-730.8045043945313
  0
LINE
  8
0
  6
CONTINUOUS
 62
     7
 10
873
 20
-485
 11
873
 21
-715
  0
LINE
  8
0
  6
CONTINUOUS
 62
     7
 10
855
 20
-485
 11
855
 21
-715
  0
LINE
  8
0
  6
CONTINUOUS
 62
     7
 10
855
 20
-485
 11
873
 21
-485
  0
LINE
  8
0
  6
CONTINUOUS
 62
     7
 10
855
 20
-715
 11
873
 21
-715
  0
LINE
  8
0
  6
CONTINUOUS
 62
     7
 10
826.9903564453125
 20
-672.5
 11
852.5
 21
-687.2279663085937
  0
LINE
  8
0
  6
CONTINUOUS
 62
     7
 10
810
 20
-672.5
 11
826.9903564453125
 21
-672.5
  0
LINE
  8
0
  6
CONTINUOUS
 62
     7
 10
787.0864868164063
 20
-738.1586303710937
 11
800.8682250976563
 21
-735.728515625
  0
LINE
  8
0
  6
CONTINUOUS
 62
     7
 10
777
 20
-422.5
 11
777
 21
-726.1380615234375
  0
LINE
  8
0
  6
CONTINUOUS
 62
     7
 10
790
 20
-422.5
 11
790
 21
-458.1596069335937
  0
LINE
  8
0
  6
CONTINUOUS
 62
     7
 10
810
 20
-527.5
 11
826.9903564453125
 21
-527.5
  0
LINE
  8
0
  6
CONTINUOUS
 62
     7
 10
826.9903564453125
 20
-527.5
 11
852.5
 21
-512.7720336914062
  0
LINE
  8
0
  6
CONTINUOUS
 62
     7
 10
805
 20
-596
 11
855
 21
-596
  0
LINE
  8
0
  6
CONTINUOUS
 62
     7
 10
805
 20
-604
 11
855
 21
-604
  0
LINE
  8
0
  6
CONTINUOUS
 62
     3
 10
772
 20
-395.8123168945313
 11
772
 21
-433.6688232421875
  0
LINE
  8
0
  6
CONTINUOUS
 62
     7
 10
781.1317749023437
 20
-460.7914123535156
 11
800.8682250976563
 21
-464.271484375
  0
LINE
  8
0
  6
CONTINUOUS
 62
     7
 10
808.7058715820313
 20
-722.4044799804688
 11
848.9231567382812
 21
-711.6282958984375
  0
LINE
  8
0
  6
CONTINUOUS
 62
     7
 10
781.4823608398438
 20
-405.6600036621094
 11
762.5176391601563
 21
-405.6600036621094
  0
LINE
  8
0
  6
CONTINUOUS
 62
     7
 10
782.6937255859375
 20
-415.6600036621094
 11
761.3062744140625
 21
-415.6600036621094
  0
LINE
  8
0
  6
CONTINUOUS
 62
     7
 10
782.6937255859375
 20
-415.6599731445312
 11
782.47998046875
 21
-422.5
  0
LINE
  8
0
  6
CONTINUOUS
 62
     7
 10
761.3062133789062
 20
-415.6600036621094
 11
761.5199584960938
 21
-422.5
  0
LINE
  8
0
  6
CONTINUOUS
 62
     7
 10
781.4823608398438
 20
-405.6600036621094
 11
781.4823608398438
 21
-415.6600036621094
  0
LINE
  8
0
  6
CONTINUOUS
 62
     7
 10
762.5176391601563
 20
-405.6600036621094
 11
762.5176391601563
 21
-415.6600036621094
  0
LINE
  8
0
  6
CONTINUOUS
 62
     3
 10
772
 20
-405.6600341796875
 11
762.5176391601563
 21
-415.6600036621094
  0
LINE
  8
0
  6
CONTINUOUS
 62
     7
 10
772
 20
-405.6600036621094
 11
772
 21
-415.6600036621094
  0
LINE
  8
0
  6
CONTINUOUS
 62
     3
 10
772
 20
-415.6600341796875
 11
781.4823608398438
 21
-405.6600341796875
  0
LINE
  8
0
  6
CONTINUOUS
 62
     3
 10
781.4823608398438
 20
-415.6600036621094
 11
772
 21
-405.6599731445312
  0
LINE
  8
0
  6
CONTINUOUS
 62
     3
 10
762.5176391601563
 20
-405.6599426269531
 11
772
 21
-415.6599731445312
  0
LINE
  8
0
  6
CONTINUOUS
 62
     7
 10
877
 20
-482.5
 11
921
 21
-482.5
  0
LINE
  8
0
  6
CONTINUOUS
 62
     7
 10
877
 20
-717.5
 11
921
 21
-717.5
  0
LINE
  8
0
  6
CONTINUOUS
 62
     7
 10
877
 20
-711.4676513671875
 11
921
 21
-711.4676513671875
  0
LINE
  8
0
  6
CONTINUOUS
 62
     7
 10
925
 20
-485
 11
925
 21
-715
  0
LINE
  8
0
  6
CONTINUOUS
 62
     7
 10
873
 20
-486.5
 11
877
 21
-482.5
  0
LINE
  8
0
  6
CONTINUOUS
 62
     7
 10
921
 20
-482.5
 11
925
 21
-486.5
  0
LINE
  8
0
  6
CONTINUOUS
 62
     7
 10
925.0000610351562
 20
-713.5
 11
921.0000610351563
 21
-717.5
  0
LINE
  8
0
  6
CONTINUOUS
 62
     7
 10
877.0000610351562
 20
-717.5
 11
873.0000610351562
 21
-713.5
  0
LINE
  8
0
  6
CONTINUOUS
 62
     7
 10
877
 20
-525.0578002929687
 11
921
 21
-525.0578002929687
  0
LINE
  8
0
  6
CONTINUOUS
 62
     7
 10
877
 20
-538.7132568359375
 11
921
 21
-538.7132568359375
  0
LINE
  8
0
  6
CONTINUOUS
 62
     7
 10
877
 20
-547.4596557617187
 11
921
 21
-547.4596557617187
  0
LINE
  8
0
  6
CONTINUOUS
 62
     7
 10
877
 20
-562.8353271484375
 11
921
 21
-562.8353271484375
  0
LINE
  8
0
  6
CONTINUOUS
 62
     7
 10
877
 20
-572.447998046875
 11
921
 21
-572.447998046875
  0
LINE
  8
0
  6
CONTINUOUS
 62
     7
 10
877
 20
-589.00048828125
 11
921
 21
-589.00048828125
  0
LINE
  8
0
  6
CONTINUOUS
 62
     7
 10
877
 20
-611.0003051757812
 11
921
 21
-611.0003051757812
  0
LINE
  8
0
  6
CONTINUOUS
 62
     7
 10
877
 20
-627.5516357421875
 11
921
 21
-627.5516357421875
  0
LINE
  8
0
  6
CONTINUOUS
 62
     7
 10
877
 20
-637.1639404296875
 11
921
 21
-637.1639404296875
  0
LINE
  8
0
  6
CONTINUOUS
 62
     7
 10
877
 20
-652.5404052734375
 11
921
 21
-652.5404052734375
  0
LINE
  8
0
  6
CONTINUOUS
 62
     7
 10
877
 20
-661.2864379882813
 11
921
 21
-661.2864379882813
  0
LINE
  8
0
  6
CONTINUOUS
 62
     7
 10
877
 20
-674.94091796875
 11
921
 21
-674.94091796875
  0
LINE
  8
0
  6
CONTINUOUS
 62
     7
 10
877
 20
-690.4974365234375
 11
921
 21
-690.4974365234375
  0
LINE
  8
0
  6
CONTINUOUS
 62
     7
 10
877
 20
-700.2504272460937
 11
921
 21
-700.2504272460937
  0
LINE
  8
0
  6
CONTINUOUS
 62
     7
 10
877
 20
-705.0982055664062
 11
921
 21
-705.0982055664062
  0
LINE
  8
0
  6
CONTINUOUS
 62
     7
 10
680
 20
-420
 11
750
 21
-420
  0
LINE
  8
0
  6
CONTINUOUS
 62
     7
 10
675.0000610351562
 20
-425.0000610351562
 11
680.0000610351563
 21
-420.0000610351563
  0
LINE
  8
0
  6
CONTINUOUS
 62
     7
 10
750.0000610351563
 20
-420.0000305175781
 11
755
 21
-425
  0
LINE
  8
0
  6
CONTINUOUS
 62
     7
 10
689.0001220703125
 20
-410
 11
721.0000610351563
 21
-410
  0
LINE
  8
0
  6
CONTINUOUS
 62
     7
 10
685.3602905273437
 20
-420
 11
689
 21
-410.0000305175781
  0
LINE
  8
0
  6
CONTINUOUS
 62
     7
 10
724.6397094726562
 20
-419.9999694824219
 11
721
 21
-409.9999694824219
  0
LINE
  8
0
  6
CONTINUOUS
 62
     7
 10
680
 20
-427.0777587890625
 11
750
 21
-427.0777587890625
  0
LINE
  8
0
  6
CONTINUOUS
 62
     7
 10
680
 20
-465.5732421875
 11
750
 21
-465.5732421875
  0
LINE
  8
0
  6
CONTINUOUS
 62
     7
 10
680
 20
-480.2942504882812
 11
750
 21
-480.2942504882812
  0
LINE
  8
0
  6
CONTINUOUS
 62
     7
 10
680
 20
-495.9463806152344
 11
750
 21
-495.9463806152344
  0
LINE
  8
0
  6
CONTINUOUS
 62
     7
 10
680
 20
-513.0659790039063
 11
750
 21
-513.0659790039063
  0
LINE
  8
0
  6
CONTINUOUS
 62
     7
 10
680
 20
-550.02099609375
 11
750
 21
-550.02099609375
  0
LINE
  8
0
  6
CONTINUOUS
 62
     7
 10
680
 20
-569.71923828125
 11
750
 21
-569.71923828125
  0
LINE
  8
0
  6
CONTINUOUS
 62
     7
 10
680
 20
-589.5905151367187
 11
750
 21
-589.5905151367187
  0
LINE
  8
0
  6
CONTINUOUS
 62
     7
 10
684.35302734375
 20
-610.4093627929687
 11
750
 21
-610.4093627929687
  0
LINE
  8
0
  6
CONTINUOUS
 62
     7
 10
696.566162109375
 20
-630.28076171875
 11
750
 21
-630.28076171875
  0
LINE
  8
0
  6
CONTINUOUS
 62
     7
 10
713.0947265625
 20
-649.9788208007813
 11
750
 21
-649.9788208007813
  0
LINE
  8
0
  6
CONTINUOUS
 62
     7
 10
744.10400390625
 20
-686.9341430664062
 11
750
 21
-686.9341430664062
  0
LINE
  8
0
  6
CONTINUOUS
 62
     7
 10
692.5000610351563
 20
-407.0000305175781
 11
693.7955932617187
 21
-399.6527404785156
  0
LINE
  8
0
  6
CONTINUOUS
 62
     7
 10
716.2044677734375
 20
-399.6527099609375
 11
717.5
 21
-407
  0
LINE
  8
0
  6
CONTINUOUS
 62
     7
 10
695.76513671875
 20
-398
 11
714.23486328125
 21
-398
  0
LINE
  8
0
  6
CONTINUOUS
 62
     7
 10
695.341796875
 20
-398.0452575683594
 11
704.57666015625
 21
-396.0452575683594
  0
LINE
  8
0
  6
CONTINUOUS
 62
     7
 10
705.4234008789063
 20
-396.0453186035156
 11
714.658203125
 21
-398.0453186035156
  0
LINE
  8
0
  6
CONTINUOUS
 62
     7
 10
692.5
 20
-407
 11
692.5
 21
-410
  0
LINE
  8
0
  6
CONTINUOUS
 62
     7
 10
717.5
 20
-407.0000305175781
 11
717.5
 21
-410
  0
LINE
  8
0
  6
CONTINUOUS
 62
     7
 10
996
 20
-565
 11
996
 21
-635
  0
LINE
  8
0
  6
CONTINUOUS
 62
     7
 10
978
 20
-545
 11
978
 21
-655
  0
LINE
  8
0
  6
CONTINUOUS
 62
     7
 10
995.9999389648437
 20
-565
 11
989.9999389648438
 21
-561.535888671875
  0
LINE
  8
0
  6
CONTINUOUS
 62
     7
 10
996.0000610351563
 20
-635
 11
990.0000610351562
 21
-638.464111328125
  0
LINE
  8
0
  6
CONTINUOUS
 62
     7
 10
990
 20
-545
 11
990
 21
-655
  0
LINE
  8
0
  6
CONTINUOUS
 62
     7
 10
990
 20
-545
 11
970.88671875
 21
-545
  0
LINE
  8
0
  6
CONTINUOUS
 62
     7
 10
990
 20
-655
 11
970.88671875
 21
-655
  0
LINE
  8
0
  6
CONTINUOUS
 62
     7
 10
966.556640625
 20
-542.5
 11
952.6698608398438
 21
-518.447509765625
  0
LINE
  8
0
  6
CONTINUOUS
 62
     7
 10
966.5565795898437
 20
-657.5
 11
952.1228637695313
 21
-682.5
  0
LINE
  8
0
  6
CONTINUOUS
 62
     7
 10
952.1228637695313
 20
-682.5
 11
948
 21
-682.5
  0
LINE
  8
0
  6
CONTINUOUS
 62
     7
 10
943
 20
-496.8897705078125
 11
943
 21
-715
  0
LINE
  8
0
  6
CONTINUOUS
 62
     7
 10
943
 20
-715
 11
925
 21
-715
  0
LINE
  8
0
  6
CONTINUOUS
 62
     7
 10
952
 20
-485
 11
952
 21
-531.2046508789062
  0
LINE
  8
0
  6
CONTINUOUS
 62
     7
 10
1046
 20
-583
 11
1046
 21
-614
  0
LINE
  8
0
  6
CONTINUOUS
 62
     7
 10
1046
 20
-586
 11
1001
 21
-586
  0
LINE
  8
0
  6
CONTINUOUS
 62
     7
 10
1046
 20
-614
 11
1001
 21
-614
  0
LINE
  8
0
  6
CONTINUOUS
 62
     7
 10
1001
 20
-582.5
 11
1001
 21
-617.5
  0
LINE
  8
0
  6
CONTINUOUS
 62
     7
 10
1001
 20
-582.5
 11
996
 21
-582.5
  0
LINE
  8
0
  6
CONTINUOUS
 62
     7
 10
1001
 20
-617.5
 11
996
 21
-617.5
  0
LINE
  8
0
  6
CONTINUOUS
 62
     7
 10
952.1228637695313
 20
-531.18359375
 11
952.1228637695313
 21
-682.5
  0
LINE
  8
0
  6
CONTINUOUS
 62
     7
 10
1046
 20
-583
 11
1010
 21
-583
  0
LINE
  8
0
  6
CONTINUOUS
 62
     7
 10
1010
 20
-583
 11
1010
 21
-586
  0
LINE
  8
0
  6
CONTINUOUS
 62
     7
 10
942.9999389648437
 20
-496.8898010253906
 11
951.9999389648438
 21
-495.7746276855469
  0
LINE
  8
0
  6
CONTINUOUS
 62
     7
 10
952
 20
-485
 11
925
 21
-485
  0
LINE
  8
0
  6
CONTINUOUS
 62
     7
 10
943.0001220703125
 20
-532.7493286132813
 11
952.1229858398437
 21
-531.1835327148437
  0
LINE
  8
0
  6
CONTINUOUS
 62
     7
 10
560
 20
-810
 11
925
 21
-810
  0
LINE
  8
0
  6
CONTINUOUS
 62
     7
 10
560
 20
-775
 11
630
 21
-775
  0
LINE
  8
0
  6
CONTINUOUS
 62
     7
 10
560
 20
-775
 11
560
 21
-810
  0
LINE
  8
0
  6
CONTINUOUS
 62
     7
 10
925
 20
-775
 11
925
 21
-810
  0
LINE
  8
0
  6
CONTINUOUS
 62
     7
 10
698.3955688476562
 20
-632.4609985351562
 11
806.010498046875
 21
-760.7114868164062
  0
LINE
  8
0
  6
CONTINUOUS
 62
     7
 10
836.65234375
 20
-775
 11
925
 21
-775
  0
LINE
  8
0
  6
CONTINUOUS
 62
     3
 10
595
 20
-760
 11
595
 21
-825
  0
LINE
  8
0
  6
CONTINUOUS
 62
     3
 10
890
 20
-760
 11
890
 21
-825
  0
LINE
  8
0
  6
CONTINUOUS
 62
     7
 10
549
 20
-509.9999694824219
 11
549
 21
-690
  0
LINE
  8
0
  6
CONTINUOUS
 62
     7
 10
580
 20
-467.5
 11
580
 21
-732.5
  0
LINE
  8
0
  6
CONTINUOUS
 62
     7
 10
560
 20
-732.5
 11
583.2677001953125
 21
-732.5
  0
LINE
  8
0
  6
CONTINUOUS
 62
     7
 10
560
 20
-467.5
 11
610.0001220703125
 21
-467.5
  0
LINE
  8
0
  6
CONTINUOUS
 62
     7
 10
548.9999389648438
 20
-509.9999084472656
 11
560
 21
-498.9998474121094
  0
LINE
  8
0
  6
CONTINUOUS
 62
     7
 10
549
 20
-690
 11
560
 21
-701.0000610351562
  0
LINE
  8
0
  6
CONTINUOUS
 62
     7
 10
560
 20
-467.5
 11
560
 21
-732.5
  0
LINE
  8
0
  6
CONTINUOUS
 62
     7
 10
675
 20
-422.5
 11
675
 21
-568.1822509765625
  0
LINE
  8
0
  6
CONTINUOUS
 62
     7
 10
650
 20
-422.5
 11
650
 21
-755
  0
LINE
  8
0
  6
CONTINUOUS
 62
     7
 10
635
 20
-422.5
 11
675
 21
-422.5
  0
LINE
  8
0
  6
CONTINUOUS
 62
     7
 10
610.0001220703125
 20
-467.4999389648437
 11
636.3074340820312
 21
-465.1983642578125
  0
LINE
  8
0
  6
CONTINUOUS
 62
     3
 10
630
 20
-585
 11
630
 21
-615
  0
LINE
  8
0
  6
CONTINUOUS
 62
     3
 10
628
 20
-690
 11
628
 21
-720
  0
LINE
  8
0
  6
CONTINUOUS
 62
     3
 10
613
 20
-705
 11
643
 21
-705
  0
LINE
  8
0
  6
CONTINUOUS
 62
     7
 10
635
 20
-422.5
 11
635
 21
-458.9227294921875
  0
LINE
  8
0
  6
CONTINUOUS
 62
     7
 10
400
 20
-547.5
 11
400
 21
-647.5
  0
LINE
  8
0
  6
CONTINUOUS
 62
     7
 10
400
 20
-647.5
 11
540
 21
-647.5
  0
LINE
  8
0
  6
CONTINUOUS
 62
     7
 10
540
 20
-545
 11
540
 21
-655
  0
LINE
  8
0
  6
CONTINUOUS
 62
     7
 10
540
 20
-545
 11
549
 21
-545
  0
LINE
  8
0
  6
CONTINUOUS
 62
     7
 10
540
 20
-655
 11
549
 21
-655
  0
LINE
  8
0
  6
DASHED
 62
     7
 10
607.5
 20
-775
 11
607.5
 21
-810
  0
LINE
  8
0
  6
DASHED
 62
     7
 10
582.5
 20
-775
 11
582.5
 21
-810
  0
LINE
  8
0
  6
DASHED
 62
     7
 10
877.5
 20
-775
 11
877.5
 21
-810
  0
LINE
  8
0
  6
DASHED
 62
     7
 10
902.5
 20
-775
 11
902.5
 21
-810
  0
LINE
  8
0
  6
CONTINUOUS
 62
     7
 10
400
 20
-547.5
 11
510
 21
-547.5
  0
LINE
  8
0
  6
CONTINUOUS
 62
     7
 10
588.6178588867187
 20
-676.4981689453125
 11
584.452392578125
 21
-724.1090087890625
  0
LINE
  8
0
  6
CONTINUOUS
 62
     7
 10
638.4852905273437
 20
-600
 11
630.0000610351563
 21
-591.5147094726562
  0
LINE
  8
0
  6
CONTINUOUS
 62
     7
 10
630
 20
-591.5147094726562
 11
621.5147094726562
 21
-600
  0
LINE
  8
0
  6
CONTINUOUS
 62
     7
 10
629.9999389648437
 20
-608.4852905273438
 11
621.5147094726562
 21
-600
  0
LINE
  8
0
  6
CONTINUOUS
 62
     7
 10
638.4852905273437
 20
-600
 11
630
 21
-608.4852905273438
  0
LINE
  8
0
  6
CONTINUOUS
 62
     7
 10
400
 20
-552.5
 11
540
 21
-552.5
  0
LINE
  8
0
  6
CONTINUOUS
 62
     7
 10
628
 20
-696.5147094726562
 11
619.5147094726562
 21
-705
  0
LINE
  8
0
  6
CONTINUOUS
 62
     7
 10
627.9999389648437
 20
-713.4852905273438
 11
619.5147094726562
 21
-705
  0
LINE
  8
0
  6
CONTINUOUS
 62
     7
 10
636.4852905273438
 20
-705
 11
628
 21
-713.4852905273438
  0
LINE
  8
0
  6
CONTINUOUS
 62
     7
 10
636.4852905273438
 20
-705
 11
628
 21
-696.5147094726562
  0
LINE
  8
0
  6
CONTINUOUS
 62
     7
 10
510
 20
-547.5
 11
510
 21
-552.5
  0
LINE
  8
0
  6
CONTINUOUS
 62
     7
 10
930
 20
-482.5
 11
930.94287109375
 21
-477.1527099609375
  0
LINE
  8
0
  6
CONTINUOUS
 62
     7
 10
949.05712890625
 20
-477.1527099609375
 11
950
 21
-482.5
  0
LINE
  8
0
  6
CONTINUOUS
 62
     7
 10
932.9124755859375
 20
-475.5
 11
947.0875244140625
 21
-475.5
  0
LINE
  8
0
  6
CONTINUOUS
 62
     7
 10
932.4984130859375
 20
-475.5433349609375
 11
939.5859375
 21
-474.0433349609375
  0
LINE
  8
0
  6
CONTINUOUS
 62
     7
 10
940.4141235351563
 20
-474.0433349609375
 11
947.5016479492188
 21
-475.5433349609375
  0
LINE
  8
0
  6
CONTINUOUS
 62
     7
 10
930
 20
-482.5
 11
930
 21
-485
  0
LINE
  8
0
  6
CONTINUOUS
 62
     7
 10
949.9752807617187
 20
-482.3598022460937
 11
949.9752807617187
 21
-485
  0
LINE
  8
0
  6
CONTINUOUS
 62
     3
 10
-222.1651763916016
 20
-600
 11
224.8161773681641
 21
-600
  0
LINE
  8
0
  6
CONTINUOUS
 62
     7
 10
49.97893142700195
 20
-427.0777282714844
 11
48.89375305175781
 21
-428.201416015625
  0
LINE
  8
0
  6
CONTINUOUS
 62
     7
 10
-49.97900772094727
 20
-427.0777893066406
 11
-48.89387130737305
 21
-428.2014465332031
  0
LINE
  8
0
  6
CONTINUOUS
 62
     7
 10
-30.85337257385254
 20
-424.7517395019531
 11
-29.99991035461426
 21
-422.517578125
  0
LINE
  8
0
  6
CONTINUOUS
 62
     7
 10
30.85335350036621
 20
-424.7517700195312
 11
29.99992179870605
 21
-422.5176391601562
  0
LINE
  8
0
  6
CONTINUOUS
 62
     7
 10
-15.99993896484375
 20
-410
 11
16.00006103515625
 21
-410
  0
LINE
  8
0
  6
CONTINUOUS
 62
     7
 10
20.04730224609375
 20
-421.1197814941406
 11
16.00002861022949
 21
-410
  0
LINE
  8
0
  6
CONTINUOUS
 62
     7
 10
-20.04730224609375
 20
-421.119873046875
 11
-16.00000762939453
 21
-410
  0
LINE
  8
0
  6
CONTINUOUS
 62
     7
 10
11.11704921722412
 20
-399.1569213867188
 11
12.50000286102295
 21
-407.0000305175781
  0
LINE
  8
0
  6
CONTINUOUS
 62
     7
 10
4.999976634979248
 20
-396.9976806640625
 11
10.01995849609375
 21
-398.0286560058594
  0
LINE
  8
0
  6
CONTINUOUS
 62
     7
 10
5
 20
-361
 11
5
 21
-404.2000122070313
  0
LINE
  8
0
  6
CONTINUOUS
 62
     7
 10
-11.11706638336182
 20
-399.1568908691406
 11
-12.50002002716064
 21
-407
  0
LINE
  8
0
  6
CONTINUOUS
 62
     7
 10
-4.999974727630615
 20
-396.9976196289063
 11
-10.0199556350708
 21
-398.0285949707031
  0
LINE
  8
0
  6
CONTINUOUS
 62
     7
 10
-5
 20
-361
 11
-5
 21
-404.2000122070313
  0
LINE
  8
0
  6
CONTINUOUS
 62
     7
 10
12.5
 20
-407.0000305175781
 11
12.5
 21
-410
  0
LINE
  8
0
  6
CONTINUOUS
 62
     7
 10
-12.5
 20
-407
 11
-12.5
 21
-410
  0
LINE
  8
0
  6
CONTINUOUS
 62
     3
 10
0
 20
-348.4179382324219
 11
0
 21
-830
  0
LINE
  8
0
  6
CONTINUOUS
 62
     3
 10
51.24958419799805
 20
-511.2320861816406
 11
66.24960327148438
 21
-485.2513122558594
  0
LINE
  8
0
  6
CONTINUOUS
 62
     3
 10
-51.250732421875
 20
-511.2328186035156
 11
-66.25076293945313
 21
-485.2520141601562
  0
LINE
  8
0
  6
CONTINUOUS
 62
     3
 10
-51.2502326965332
 20
-688.767333984375
 11
-66.25026702880859
 21
-714.7481689453125
  0
LINE
  8
0
  6
CONTINUOUS
 62
     3
 10
51.24927139282227
 20
-688.767822265625
 11
66.24932861328125
 21
-714.7486572265625
  0
LINE
  8
0
  6
CONTINUOUS
 62
     7
 10
212.5
 20
-635
 11
212.5
 21
-810
  0
LINE
  8
0
  6
CONTINUOUS
 62
     7
 10
-212.5
 20
-635
 11
-212.5
 21
-810
  0
LINE
  8
0
  6
CONTINUOUS
 62
     7
 10
-212.5
 20
-810
 11
-102.5
 21
-810
  0
LINE
  8
0
  6
CONTINUOUS
 62
     7
 10
-212.5
 20
-775
 11
-102.5
 21
-775
  0
LINE
  8
0
  6
CONTINUOUS
 62
     3
 10
-175
 20
-760
 11
-175
 21
-825
  0
LINE
  8
0
  6
CONTINUOUS
 62
     3
 10
175
 20
-760
 11
175
 21
-825
  0
LINE
  8
0
  6
CONTINUOUS
 62
     7
 10
-102.5
 20
-775
 11
-102.5
 21
-810
  0
LINE
  8
0
  6
CONTINUOUS
 62
     7
 10
102.5
 20
-775
 11
102.5
 21
-810
  0
LINE
  8
0
  6
CONTINUOUS
 62
     7
 10
-94.5
 20
-785
 11
-33
 21
-785
  0
LINE
  8
0
  6
CONTINUOUS
 62
     7
 10
-99.5
 20
-805
 11
99.5
 21
-805
  0
LINE
  8
0
  6
CONTINUOUS
 62
     7
 10
102.5
 20
-810
 11
212.5
 21
-810
  0
LINE
  8
0
  6
CONTINUOUS
 62
     7
 10
102.5
 20
-775
 11
212.5
 21
-775
  0
LINE
  8
0
  6
CONTINUOUS
 62
     7
 10
102.4995651245117
 20
-775.0001220703125
 11
93.20900726318359
 21
-722.3106689453125
  0
LINE
  8
0
  6
CONTINUOUS
 62
     7
 10
122.6533889770508
 20
-762.6047973632813
 11
120.0000152587891
 21
-747.5567626953125
  0
LINE
  8
0
  6
CONTINUOUS
 62
     7
 10
-122.6534576416016
 20
-762.6047973632813
 11
-120.0000076293945
 21
-747.5563354492188
  0
LINE
  8
0
  6
CONTINUOUS
 62
     7
 10
-120
 20
-659.42431640625
 11
-120
 21
-747.5543823242188
  0
LINE
  8
0
  6
CONTINUOUS
 62
     7
 10
120
 20
-659.42431640625
 11
120
 21
-747.5545043945312
  0
LINE
  8
0
  6
CONTINUOUS
 62
     3
 10
136.2721099853516
 20
-543.5538940429687
 11
163.9885559082031
 21
-532.0733642578125
  0
LINE
  8
0
  6
CONTINUOUS
 62
     3
 10
56.44467544555664
 20
-463.7272338867188
 11
67.9251708984375
 21
-436.0108642578125
  0
LINE
  8
0
  6
CONTINUOUS
 62
     3
 10
-56.44672012329102
 20
-463.72802734375
 11
-67.92724609375
 21
-436.0115661621094
  0
LINE
  8
0
  6
CONTINUOUS
 62
     3
 10
-136.2722625732422
 20
-543.5547485351562
 11
-163.988525390625
 21
-532.0742797851562
  0
LINE
  8
0
  6
CONTINUOUS
 62
     3
 10
-136.2725830078125
 20
-656.4451293945312
 11
-163.9889221191406
 21
-667.9255981445312
  0
LINE
  8
0
  6
CONTINUOUS
 62
     3
 10
-56.44816589355469
 20
-736.2713623046875
 11
-67.92867279052734
 21
-763.9877319335938
  0
LINE
  8
0
  6
CONTINUOUS
 62
     3
 10
56.44288635253906
 20
-736.2734985351563
 11
67.92339324951172
 21
-763.9898681640625
  0
LINE
  8
0
  6
CONTINUOUS
 62
     3
 10
136.2715454101563
 20
-656.4466552734375
 11
163.9879760742187
 21
-667.9271850585937
  0
LINE
  8
0
  6
CONTINUOUS
 62
     7
 10
-19.364990234375
 20
-427.9978332519531
 11
-19.364990234375
 21
-456.55908203125
  0
LINE
  8
0
  6
CONTINUOUS
 62
     7
 10
19.36492919921875
 20
-427.9978332519531
 11
19.36492919921875
 21
-456.55908203125
  0
LINE
  8
0
  6
CONTINUOUS
 62
     7
 10
-102.5000228881836
 20
-775
 11
-93.20937347412109
 21
-722.3106079101562
  0
LINE
  8
0
  6
DASHED
 62
     7
 10
-162.5
 20
-775
 11
-162.5
 21
-810
  0
LINE
  8
0
  6
DASHED
 62
     7
 10
-187.5
 20
-775
 11
-187.5
 21
-810
  0
LINE
  8
0
  6
DASHED
 62
     7
 10
187.5
 20
-775
 11
187.5
 21
-810
  0
LINE
  8
0
  6
DASHED
 62
     7
 10
162.5
 20
-775
 11
162.5
 21
-810
  0
LINE
  8
0
  6
CONTINUOUS
 62
     7
 10
-12.5
 20
-547.5
 11
12.5
 21
-547.5
  0
LINE
  8
0
  6
CONTINUOUS
 62
     7
 10
-12.5
 20
-561.5
 11
12.5
 21
-561.5
  0
LINE
  8
0
  6
CONTINUOUS
 62
     7
 10
12.5
 20
-547.5
 11
12.5
 21
-561.5
  0
LINE
  8
0
  6
CONTINUOUS
 62
     7
 10
-12.5
 20
-547.5
 11
-12.5
 21
-561.5
  0
LINE
  8
0
  6
CONTINUOUS
 62
     7
 10
33
 20
-785
 11
94.5
 21
-785
  0
LINE
  8
0
  6
CONTINUOUS
 62
     3
 10
108.2701416015625
 20
-705
 11
140.75732421875
 21
-705
  0
LINE
  8
0
  6
CONTINUOUS
 62
     7
 10
147.1500244140625
 20
-608.071044921875
 11
147.1500244140625
 21
-591.928955078125
  0
LINE
  8
0
  6
CONTINUOUS
 62
     7
 10
138.1500244140625
 20
-608.507568359375
 11
138.1500244140625
 21
-591.492431640625
  0
LINE
  8
0
  6
CONTINUOUS
 62
     7
 10
138.1500091552734
 20
-608.507568359375
 11
132.2384033203125
 21
-608.3228149414062
  0
LINE
  8
0
  6
CONTINUOUS
 62
     7
 10
138.1500091552734
 20
-591.492431640625
 11
132.2383422851562
 21
-591.6771240234375
  0
LINE
  8
0
  6
CONTINUOUS
 62
     7
 10
147.1500244140625
 20
-608.071044921875
 11
138.1500244140625
 21
-608.071044921875
  0
LINE
  8
0
  6
CONTINUOUS
 62
     7
 10
147.1500244140625
 20
-591.928955078125
 11
138.1500244140625
 21
-591.928955078125
  0
LINE
  8
0
  6
CONTINUOUS
 62
     7
 10
134.6500244140625
 20
-713.071044921875
 11
134.6500244140625
 21
-696.928955078125
  0
LINE
  8
0
  6
CONTINUOUS
 62
     7
 10
125.6500244140625
 20
-713.507568359375
 11
125.6500244140625
 21
-696.492431640625
  0
LINE
  8
0
  6
CONTINUOUS
 62
     7
 10
125.6499633789063
 20
-713.507568359375
 11
119.9999465942383
 21
-713.3309936523437
  0
LINE
  8
0
  6
CONTINUOUS
 62
     7
 10
125.6499938964844
 20
-696.492431640625
 11
119.9999771118164
 21
-696.6690063476563
  0
LINE
  8
0
  6
CONTINUOUS
 62
     7
 10
134.6500244140625
 20
-713.071044921875
 11
125.6500244140625
 21
-713.071044921875
  0
LINE
  8
0
  6
CONTINUOUS
 62
     7
 10
134.6500244140625
 20
-696.928955078125
 11
125.6500244140625
 21
-696.928955078125
  0
LINE
  8
0
  6
CONTINUOUS
 62
     3
 10
125.650032043457
 20
-705
 11
134.6500396728516
 21
-696.9288940429687
  0
LINE
  8
0
  6
CONTINUOUS
 62
     3
 10
125.6500244140625
 20
-696.9288940429687
 11
134.6500244140625
 21
-705
  0
LINE
  8
0
  6
CONTINUOUS
 62
     3
 10
134.6500244140625
 20
-705
 11
125.6500244140625
 21
-713.0711059570313
  0
LINE
  8
0
  6
CONTINUOUS
 62
     3
 10
125.6500244140625
 20
-705
 11
134.6500244140625
 21
-713.0711059570313
  0
LINE
  8
0
  6
CONTINUOUS
 62
     7
 10
134.6500244140625
 20
-705
 11
125.6500244140625
 21
-705
  0
LINE
  8
0
  6
CONTINUOUS
 62
     3
 10
138.1500091552734
 20
-599.9999389648438
 11
147.1500091552734
 21
-591.9288940429688
  0
LINE
  8
0
  6
CONTINUOUS
 62
     3
 10
138.1500854492187
 20
-591.928955078125
 11
147.1500854492188
 21
-600.0000610351562
  0
LINE
  8
0
  6
CONTINUOUS
 62
     3
 10
147.1500244140625
 20
-600
 11
138.1500244140625
 21
-608.071044921875
  0
LINE
  8
0
  6
CONTINUOUS
 62
     3
 10
138.1500244140625
 20
-600
 11
147.1500244140625
 21
-608.071044921875
  0
LINE
  8
0
  6
CONTINUOUS
 62
     7
 10
147.1500244140625
 20
-600
 11
138.1500244140625
 21
-600
  0
LINE
  8
0
  6
CONTINUOUS
 62
     3
 10
380
 20
0
 11
1066
 21
0
  0
LINE
  8
0
  6
CONTINUOUS
 62
     7
 10
755
 20
177.5000152587891
 11
755
 21
-177.4999847412109
  0
LINE
  8
0
  6
CONTINUOUS
 62
     7
 10
755
 20
-177.5
 11
777
 21
-177.5
  0
LINE
  8
0
  6
CONTINUOUS
 62
     7
 10
755
 20
177.5
 11
777
 21
177.5
  0
LINE
  8
0
  6
CONTINUOUS
 62
     7
 10
805
 20
130.8045196533203
 11
805
 21
-130.8044891357422
  0
LINE
  8
0
  6
CONTINUOUS
 62
     7
 10
873
 20
115.0000152587891
 11
873
 21
-114.9999847412109
  0
LINE
  8
0
  6
CONTINUOUS
 62
     7
 10
855
 20
115.0000152587891
 11
855
 21
-114.9999847412109
  0
LINE
  8
0
  6
CONTINUOUS
 62
     7
 10
855
 20
115
 11
873
 21
115
  0
LINE
  8
0
  6
CONTINUOUS
 62
     7
 10
855
 20
-115
 11
873
 21
-115
  0
LINE
  8
0
  6
CONTINUOUS
 62
     7
 10
826.9904174804687
 20
-72.50000762939453
 11
852.5000610351562
 21
-87.22800445556641
  0
LINE
  8
0
  6
CONTINUOUS
 62
     7
 10
810
 20
-72.5
 11
826.9904174804687
 21
-72.5
  0
LINE
  8
0
  6
CONTINUOUS
 62
     7
 10
781.1317749023437
 20
-139.2086944580078
 11
800.8682861328125
 21
-135.7286071777344
  0
LINE
  8
0
  6
CONTINUOUS
 62
     7
 10
777
 20
177.5000152587891
 11
777
 21
27.2213249206543
  0
LINE
  8
0
  6
CONTINUOUS
 62
     7
 10
810
 20
72.5
 11
826.9903564453125
 21
72.5
  0
LINE
  8
0
  6
CONTINUOUS
 62
     7
 10
826.9903564453125
 20
72.5001220703125
 11
852.5
 21
87.22811889648437
  0
LINE
  8
0
  6
CONTINUOUS
 62
     7
 10
805
 20
4
 11
855
 21
4
  0
LINE
  8
0
  6
CONTINUOUS
 62
     7
 10
805
 20
-4
 11
855
 21
-4
  0
LINE
  8
0
  6
CONTINUOUS
 62
     7
 10
781.1318359375
 20
139.2084655761719
 11
800.8682861328125
 21
135.7283935546875
  0
LINE
  8
0
  6
CONTINUOUS
 62
     3
 10
772
 20
15.00001049041748
 11
772
 21
-14.99998950958252
  0
LINE
  8
0
  6
CONTINUOUS
 62
     7
 10
777
 20
-27.2213020324707
 11
777
 21
-177.4999847412109
  0
LINE
  8
0
  6
CONTINUOUS
 62
     7
 10
808.705810546875
 20
122.4044342041016
 11
848.9231567382812
 21
111.6282424926758
  0
LINE
  8
0
  6
CONTINUOUS
 62
     7
 10
808.7058715820313
 20
-122.4044876098633
 11
848.9231567382812
 21
-111.628303527832
  0
LINE
  8
0
  6
CONTINUOUS
 62
     7
 10
772.0000610351562
 20
9.899436950683594
 11
762.1005249023437
 21
-7.75304579292424E-05
  0
LINE
  8
0
  6
CONTINUOUS
 62
     7
 10
762.1006469726562
 20
-6.226906407391652E-05
 11
772.0001220703125
 21
-9.899558067321777
  0
LINE
  8
0
  6
CONTINUOUS
 62
     7
 10
772
 20
-9.899407386779785
 11
781.8994750976562
 21
0.0001081395894289017
  0
LINE
  8
0
  6
CONTINUOUS
 62
     7
 10
781.8994750976562
 20
-2.168964601878542E-05
 11
772.0000610351562
 21
9.899429321289063
  0
LINE
  8
0
  6
CONTINUOUS
 62
     7
 10
877
 20
117.5
 11
921
 21
117.5
  0
LINE
  8
0
  6
CONTINUOUS
 62
     7
 10
877
 20
-117.5
 11
921
 21
-117.5
  0
LINE
  8
0
  6
CONTINUOUS
 62
     7
 10
877
 20
-111.4677734375
 11
921
 21
-111.4677734375
  0
LINE
  8
0
  6
CONTINUOUS
 62
     7
 10
873.0001220703125
 20
113.4999618530273
 11
877.0001220703125
 21
117.4999694824219
  0
LINE
  8
0
  6
CONTINUOUS
 62
     7
 10
920.9998168945312
 20
117.4999084472656
 11
924.9998168945312
 21
113.4999084472656
  0
LINE
  8
0
  6
CONTINUOUS
 62
     7
 10
925.0000610351562
 20
-113.5000610351562
 11
921.0000610351563
 21
-117.5000610351563
  0
LINE
  8
0
  6
CONTINUOUS
 62
     7
 10
877.0000610351562
 20
-117.4998321533203
 11
873.0000610351562
 21
-113.4998092651367
  0
LINE
  8
0
  6
CONTINUOUS
 62
     7
 10
877
 20
111.4676513671875
 11
921
 21
111.4676513671875
  0
LINE
  8
0
  6
CONTINUOUS
 62
     7
 10
877
 20
105.0982666015625
 11
921
 21
105.0982666015625
  0
LINE
  8
0
  6
CONTINUOUS
 62
     7
 10
877
 20
100.2501831054688
 11
921
 21
100.2501831054688
  0
LINE
  8
0
  6
CONTINUOUS
 62
     7
 10
877
 20
90.495849609375
 11
921
 21
90.495849609375
  0
LINE
  8
0
  6
CONTINUOUS
 62
     7
 10
877
 20
74.94110107421875
 11
921
 21
74.94110107421875
  0
LINE
  8
0
  6
CONTINUOUS
 62
     7
 10
877
 20
61.28466796875
 11
921
 21
61.28466796875
  0
LINE
  8
0
  6
CONTINUOUS
 62
     7
 10
877
 20
52.53948974609375
 11
921
 21
52.53948974609375
  0
LINE
  8
0
  6
CONTINUOUS
 62
     7
 10
877
 20
37.16400146484375
 11
921
 21
37.16400146484375
  0
LINE
  8
0
  6
CONTINUOUS
 62
     7
 10
877
 20
27.5504150390625
 11
921
 21
27.5504150390625
  0
LINE
  8
0
  6
CONTINUOUS
 62
     7
 10
877
 20
10.99951171875
 11
921
 21
10.99951171875
  0
LINE
  8
0
  6
CONTINUOUS
 62
     7
 10
877
 20
-90.497802734375
 11
921
 21
-90.497802734375
  0
LINE
  8
0
  6
CONTINUOUS
 62
     7
 10
877
 20
-100.250732421875
 11
921
 21
-100.250732421875
  0
LINE
  8
0
  6
CONTINUOUS
 62
     7
 10
877
 20
-105.098876953125
 11
921
 21
-105.098876953125
  0
LINE
  8
0
  6
CONTINUOUS
 62
     7
 10
680
 20
-180
 11
750
 21
-180
  0
LINE
  8
0
  6
CONTINUOUS
 62
     7
 10
680
 20
180
 11
750
 21
180
  0
LINE
  8
0
  6
CONTINUOUS
 62
     7
 10
675.0001831054688
 20
174.9998474121094
 11
680.0001831054688
 21
179.9998321533203
  0
LINE
  8
0
  6
CONTINUOUS
 62
     7
 10
749.9999389648437
 20
179.9999237060547
 11
754.9999389648437
 21
174.9999389648438
  0
LINE
  8
0
  6
CONTINUOUS
 62
     7
 10
675
 20
-175
 11
680.0000610351563
 21
-180.0000305175781
  0
LINE
  8
0
  6
CONTINUOUS
 62
     7
 10
749.9999389648437
 20
-179.9999084472656
 11
754.9999389648437
 21
-174.9999084472656
  0
LINE
  8
0
  6
CONTINUOUS
 62
     7
 10
680
 20
172.9221801757813
 11
750
 21
172.9221801757813
  0
LINE
  8
0
  6
CONTINUOUS
 62
     7
 10
680
 20
157.6149291992188
 11
750
 21
157.6149291992188
  0
LINE
  8
0
  6
CONTINUOUS
 62
     7
 10
680
 20
146.8772583007812
 11
750
 21
146.8772583007812
  0
LINE
  8
0
  6
CONTINUOUS
 62
     7
 10
680
 20
134.4267578125
 11
750
 21
134.4267578125
  0
LINE
  8
0
  6
CONTINUOUS
 62
     7
 10
680
 20
119.7057495117187
 11
750
 21
119.7057495117187
  0
LINE
  8
0
  6
CONTINUOUS
 62
     7
 10
680
 20
49.97906494140625
 11
750
 21
49.97906494140625
  0
LINE
  8
0
  6
CONTINUOUS
 62
     7
 10
680
 20
29.99993896484375
 11
750
 21
29.99993896484375
  0
LINE
  8
0
  6
CONTINUOUS
 62
     7
 10
680
 20
-29.99993896484375
 11
750
 21
-29.99993896484375
  0
LINE
  8
0
  6
CONTINUOUS
 62
     7
 10
680
 20
-49.97900390625
 11
750
 21
-49.97900390625
  0
LINE
  8
0
  6
CONTINUOUS
 62
     7
 10
680
 20
-119.7056274414063
 11
750
 21
-119.7056274414063
  0
LINE
  8
0
  6
CONTINUOUS
 62
     7
 10
680
 20
-134.4266357421875
 11
750
 21
-134.4266357421875
  0
LINE
  8
0
  6
CONTINUOUS
 62
     7
 10
680
 20
-146.8770446777344
 11
750
 21
-146.8770446777344
  0
LINE
  8
0
  6
CONTINUOUS
 62
     7
 10
680
 20
-157.6150207519531
 11
750
 21
-157.6150207519531
  0
LINE
  8
0
  6
CONTINUOUS
 62
     7
 10
680
 20
-172.9222412109375
 11
750
 21
-172.9222412109375
  0
LINE
  8
0
  6
CONTINUOUS
 62
     7
 10
685
 20
5
 11
725
 21
5
  0
LINE
  8
0
  6
CONTINUOUS
 62
     7
 10
685
 20
-5
 11
725
 21
-5
  0
LINE
  8
0
  6
CONTINUOUS
 62
     7
 10
925
 20
115.0000152587891
 11
925
 21
4.000014781951904
  0
LINE
  8
0
  6
CONTINUOUS
 62
     7
 10
996
 20
34.99998474121094
 11
996
 21
-34.99998474121094
  0
LINE
  8
0
  6
CONTINUOUS
 62
     7
 10
978
 20
55.00001525878906
 11
978
 21
-54.99998474121094
  0
LINE
  8
0
  6
CONTINUOUS
 62
     7
 10
996.0000610351563
 20
34.99997711181641
 11
990.0000610351562
 21
38.46408462524414
  0
LINE
  8
0
  6
CONTINUOUS
 62
     7
 10
996
 20
-34.99996948242187
 11
990.0000610351562
 21
-38.46406555175781
  0
LINE
  8
0
  6
CONTINUOUS
 62
     7
 10
990
 20
55.00001525878906
 11
990
 21
-54.99998474121094
  0
LINE
  8
0
  6
CONTINUOUS
 62
     7
 10
990
 20
55
 11
970.88671875
 21
55
  0
LINE
  8
0
  6
CONTINUOUS
 62
     7
 10
990
 20
-55
 11
970.88671875
 21
-55
  0
LINE
  8
0
  6
CONTINUOUS
 62
     7
 10
966.556640625
 20
57.50009918212891
 11
952.1228637695313
 21
82.50008392333984
  0
LINE
  8
0
  6
CONTINUOUS
 62
     7
 10
966.556640625
 20
-57.50001907348633
 11
952.1229248046875
 21
-82.50003051757812
  0
LINE
  8
0
  6
CONTINUOUS
 62
     7
 10
952.1228637695313
 20
-82.5
 11
948
 21
-82.5
  0
LINE
  8
0
  6
CONTINUOUS
 62
     7
 10
943
 20
115.0000152587891
 11
943
 21
12.58738708496094
  0
LINE
  8
0
  6
CONTINUOUS
 62
     7
 10
943
 20
-115
 11
925
 21
-115
  0
LINE
  8
0
  6
CONTINUOUS
 62
     7
 10
943
 20
115
 11
925
 21
115
  0
LINE
  8
0
  6
CONTINUOUS
 62
     7
 10
952.1228637695313
 20
82.5
 11
948
 21
82.5
  0
LINE
  8
0
  6
CONTINUOUS
 62
     7
 10
952
 20
-48.60105895996094
 11
952
 21
-3.999984502792358
  0
LINE
  8
0
  6
CONTINUOUS
 62
     7
 10
943
 20
-50.92420959472656
 11
943
 21
-114.9999847412109
  0
LINE
  8
0
  6
CONTINUOUS
 62
     7
 10
1046
 20
14.00001811981201
 11
1046
 21
-13.99998188018799
  0
LINE
  8
0
  6
CONTINUOUS
 62
     7
 10
1046
 20
-14
 11
1001
 21
-14
  0
LINE
  8
0
  6
CONTINUOUS
 62
     7
 10
1046
 20
14
 11
1001
 21
14
  0
LINE
  8
0
  6
CONTINUOUS
 62
     7
 10
1001
 20
17.5000171661377
 11
1001
 21
-17.4999828338623
  0
LINE
  8
0
  6
CONTINUOUS
 62
     7
 10
1001
 20
17.5
 11
996
 21
17.5
  0
LINE
  8
0
  6
CONTINUOUS
 62
     7
 10
1001
 20
-17.5
 11
996
 21
-17.5
  0
LINE
  8
0
  6
CONTINUOUS
 62
     7
 10
1046
 20
4
 11
1007
 21
4
  0
LINE
  8
0
  6
CONTINUOUS
 62
     7
 10
1046
 20
-4
 11
1007
 21
-4
  0
LINE
  8
0
  6
CONTINUOUS
 62
     7
 10
952.1229248046875
 20
82.50001525878906
 11
952.1229248046875
 21
21.26472473144531
  0
LINE
  8
0
  6
CONTINUOUS
 62
     7
 10
952.1229248046875
 20
-50.86241149902344
 11
952.1229248046875
 21
-82.49995422363281
  0
LINE
  8
0
  6
CONTINUOUS
 62
     7
 10
1010
 20
4.000017166137695
 11
1010
 21
-3.999982833862305
  0
LINE
  8
0
  6
CONTINUOUS
 62
     7
 10
923.5
 20
4
 11
956.5
 21
4
  0
LINE
  8
0
  6
CONTINUOUS
 62
     7
 10
923.5
 20
-4
 11
956.5
 21
-4
  0
LINE
  8
0
  6
CONTINUOUS
 62
     7
 10
942.9999389648437
 20
12.58738899230957
 11
951.9999389648438
 21
10.05747985839844
  0
LINE
  8
0
  6
CONTINUOUS
 62
     7
 10
952
 20
-48.60106658935547
 11
943.0000610351563
 21
-50.9242057800293
  0
LINE
  8
0
  6
CONTINUOUS
 62
     7
 10
942.9999389648437
 20
21.90393447875977
 11
951.9999389648438
 21
19.2224063873291
  0
LINE
  8
0
  6
CONTINUOUS
 62
     7
 10
925
 20
-3.999985218048096
 11
925
 21
-114.9999847412109
  0
LINE
  8
0
  6
CONTINUOUS
 62
     7
 10
952
 20
4.000015735626221
 11
952
 21
19.22242736816406
  0
LINE
  8
0
  6
CONTINUOUS
 62
     7
 10
549
 20
90.00000762939453
 11
549
 21
-89.99999237060547
  0
LINE
  8
0
  6
CONTINUOUS
 62
     7
 10
580
 20
132.5
 11
580
 21
-132.5
  0
LINE
  8
0
  6
CONTINUOUS
 62
     7
 10
560
 20
-132.5
 11
609.9988403320313
 21
-132.5
  0
LINE
  8
0
  6
CONTINUOUS
 62
     7
 10
560
 20
132.5
 11
610.0000610351562
 21
132.5
  0
LINE
  8
0
  6
CONTINUOUS
 62
     7
 10
548.9999389648438
 20
90.00011444091797
 11
560
 21
101.0001449584961
  0
LINE
  8
0
  6
CONTINUOUS
 62
     7
 10
549
 20
-90.00003051757813
 11
560
 21
-101.0000152587891
  0
LINE
  8
0
  6
CONTINUOUS
 62
     7
 10
560
 20
197.5
 11
560
 21
136.1569213867187
  0
LINE
  8
0
  6
CONTINUOUS
 62
     7
 10
675
 20
194.5000152587891
 11
675
 21
-194.4999847412109
  0
LINE
  8
0
  6
CONTINUOUS
 62
     7
 10
650
 20
212.5
 11
650
 21
25.98078155517578
  0
LINE
  8
0
  6
CONTINUOUS
 62
     7
 10
610.0000610351562
 20
132.500244140625
 11
636.3073120117188
 21
134.8018341064453
  0
LINE
  8
0
  6
CONTINUOUS
 62
     7
 10
609.9989624023437
 20
-132.4999389648437
 11
636.3074340820312
 21
-134.8016357421875
  0
LINE
  8
0
  6
CONTINUOUS
 62
     7
 10
925
 20
197.5000152587891
 11
925
 21
140.2745513916016
  0
LINE
  8
0
  6
CONTINUOUS
 62
     7
 10
575
 20
-212.5
 11
910
 21
-212.5
  0
LINE
  8
0
  6
CONTINUOUS
 62
     7
 10
575
 20
212.5
 11
910
 21
212.5
  0
LINE
  8
0
  6
CONTINUOUS
 62
     7
 10
925
 20
-140.2745208740234
 11
925
 21
-197.4999847412109
  0
LINE
  8
0
  6
CONTINUOUS
 62
     7
 10
840.5333862304688
 20
113.8762893676758
 11
912.3885498046875
 21
125.4658279418945
  0
LINE
  8
0
  6
CONTINUOUS
 62
     7
 10
840.5328369140625
 20
-113.8765106201172
 11
912.388427734375
 21
-125.4661254882812
  0
LINE
  8
0
  6
CONTINUOUS
 62
     7
 10
650
 20
-25.98076629638672
 11
650
 21
-212.5
  0
LINE
  8
0
  6
CONTINUOUS
 62
     3
 10
890
 20
195.0000152587891
 11
890
 21
155.0000152587891
  0
LINE
  8
0
  6
CONTINUOUS
 62
     3
 10
595
 20
195
 11
595
 21
155
  0
LINE
  8
0
  6
CONTINUOUS
 62
     3
 10
575
 20
-175
 11
615
 21
-175
  0
LINE
  8
0
  6
CONTINUOUS
 62
     3
 10
575
 20
175
 11
615
 21
175
  0
LINE
  8
0
  6
CONTINUOUS
 62
     3
 10
595
 20
-155
 11
595
 21
-195
  0
LINE
  8
0
  6
CONTINUOUS
 62
     3
 10
890
 20
-154.9999847412109
 11
890
 21
-194.9999847412109
  0
LINE
  8
0
  6
CONTINUOUS
 62
     3
 10
870
 20
175
 11
910
 21
175
  0
LINE
  8
0
  6
CONTINUOUS
 62
     3
 10
870
 20
-175
 11
910
 21
-175
  0
LINE
  8
0
  6
CONTINUOUS
 62
     7
 10
400
 20
47.5
 11
400
 21
-47.5
  0
LINE
  8
0
  6
CONTINUOUS
 62
     7
 10
540
 20
55.00000381469727
 11
540
 21
-54.99999618530273
  0
LINE
  8
0
  6
CONTINUOUS
 62
     7
 10
540
 20
55
 11
549
 21
55
  0
LINE
  8
0
  6
CONTINUOUS
 62
     7
 10
540
 20
-55
 11
549
 21
-55
  0
LINE
  8
0
  6
CONTINUOUS
 62
     7
 10
400
 20
47.5
 11
540
 21
47.5
  0
LINE
  8
0
  6
CONTINUOUS
 62
     7
 10
400
 20
-47.5
 11
540
 21
-47.5
  0
LINE
  8
0
  6
CONTINUOUS
 62
     7
 10
400
 20
12.5
 11
517.5
 21
12.5
  0
LINE
  8
0
  6
CONTINUOUS
 62
     7
 10
400
 20
-12.5
 11
517.5
 21
-12.5
  0
LINE
  8
0
  6
CONTINUOUS
 62
     7
 10
560
 20
132.5
 11
560
 21
-132.5
  0
LINE
  8
0
  6
CONTINUOUS
 62
     7
 10
560
 20
-136.0249633789063
 11
560
 21
-197.5
  0
LINE
  8
0
  6
CONTINUOUS
 62
     7
 10
675
 20
-194.5
 11
810
 21
-194.5
  0
LINE
  8
0
  6
CONTINUOUS
 62
     7
 10
675
 20
194.5
 11
810
 21
194.5
  0
LINE
  8
0
  6
CONTINUOUS
 62
     3
 10
630
 20
-123.742301940918
 11
630
 21
-152.74560546875
  0
LINE
  8
0
  6
CONTINUOUS
 62
     7
 10
621.928955078125
 20
-147.1500244140625
 11
638.0711059570313
 21
-147.1500244140625
  0
LINE
  8
0
  6
CONTINUOUS
 62
     7
 10
621.492431640625
 20
-138.1500244140625
 11
638.507568359375
 21
-138.1500244140625
  0
LINE
  8
0
  6
CONTINUOUS
 62
     7
 10
621.492431640625
 20
-138.1500244140625
 11
621.6371459960937
 21
-133.5181884765625
  0
LINE
  8
0
  6
CONTINUOUS
 62
     7
 10
638.5075073242188
 20
-138.1500244140625
 11
638.4133911132812
 21
-135.1381225585937
  0
LINE
  8
0
  6
CONTINUOUS
 62
     7
 10
621.9288940429687
 20
-147.1500244140625
 11
621.9288940429687
 21
-138.1500244140625
  0
LINE
  8
0
  6
CONTINUOUS
 62
     7
 10
638.071044921875
 20
-147.1500244140625
 11
638.071044921875
 21
-138.1500244140625
  0
LINE
  8
0
  6
CONTINUOUS
 62
     3
 10
630
 20
-138.1499938964844
 11
638.0711059570313
 21
-147.1499938964844
  0
LINE
  8
0
  6
CONTINUOUS
 62
     3
 10
638.071044921875
 20
-138.1499938964844
 11
630
 21
-147.1499938964844
  0
LINE
  8
0
  6
CONTINUOUS
 62
     7
 10
630
 20
-147.1500244140625
 11
630
 21
-138.1500244140625
  0
LINE
  8
0
  6
CONTINUOUS
 62
     3
 10
630
 20
-138.1500549316406
 11
621.928955078125
 21
-147.1500549316406
  0
LINE
  8
0
  6
CONTINUOUS
 62
     3
 10
630
 20
-147.1499938964844
 11
621.9288940429687
 21
-138.1499938964844
  0
LINE
  8
0
  6
CONTINUOUS
 62
     7
 10
510
 20
12.50000286102295
 11
510
 21
-12.49999713897705
  0
LINE
  8
0
  6
CONTINUOUS
 62
     7
 10
705
 20
-348.677978515625
 11
705
 21
-423.3207702636719
  0
LINE
  8
0
  6
CONTINUOUS
 62
     7
 10
671.2608032226563
 20
-381
 11
739.1790161132812
 21
-381
  0
LINE
  8
0
  6
CONTINUOUS
 62
     7
 10
910.65576171875
 20
-461.5
 11
969.83203125
 21
-461.5
  0
LINE
  8
0
  6
CONTINUOUS
 62
     7
 10
940
 20
-434.0801086425781
 11
940
 21
-490.5665283203125
  0
ARC
  8
0
  6
CONTINUOUS
 62
     7
 10
723.4063720703125
 20
-405.9440612792969
 40
6.000000000000024
 50
126.4238645555929
 51
189.9999620293671
  0
ARC
  8
0
  6
CONTINUOUS
 62
     7
 10
810
 20
-727.2340698242188
 40
4.999999999999977
 50
105.0000541483105
 51
179.9999640278219
  0
ARC
  8
0
  6
CONTINUOUS
 62
     7
 10
810
 20
-472.7658996582031
 40
5.000000000000038
 50
179.9999776881996
 51
254.9999217186572
  0
ARC
  8
0
  6
CONTINUOUS
 62
     7
 10
810
 20
-677.5
 40
5.000000000000019
 50
89.99998201391031
 51
179.9999640278219
  0
ARC
  8
0
  6
CONTINUOUS
 62
     7
 10
800
 20
-730.8045043945313
 40
5.000000000000044
 50
280.000159421607
 51
0
  0
ARC
  8
0
  6
CONTINUOUS
 62
     7
 10
850
 20
-691.55810546875
 40
5
 50
0
 51
60.0000289904086
  0
ARC
  8
0
  6
CONTINUOUS
 62
     7
 10
810
 20
-522.5
 40
5.000000000000038
 50
179.9999776882003
 51
269.9999733624889
  0
ARC
  8
0
  6
CONTINUOUS
 62
     7
 10
850
 20
-508.44189453125
 40
5.000000000000004
 50
299.9999163680779
 51
359.9999453584866
  0
ARC
  8
0
  6
CONTINUOUS
 62
     7
 10
782
 20
-455.8673400878906
 40
5.000000000000038
 50
179.9999776881996
 51
259.9997567948901
  0
ARC
  8
0
  6
CONTINUOUS
 62
     7
 10
800
 20
-469.1954956054688
 40
5
 50
359.9999453584866
 51
79.99978593687854
  0
ARC
  8
0
  6
CONTINUOUS
 62
     7
 10
795
 20
-458.1596069335937
 40
5.000000000000038
 50
179.9999776881996
 51
260.0001666062392
  0
ARC
  8
0
  6
CONTINUOUS
 62
     7
 10
850.21728515625
 20
-716.4578857421875
 40
5.000000000000037
 50
16.9523724256209
 51
104.9999858464176
  0
ARC
  8
0
  6
CONTINUOUS
 62
     7
 10
850.21728515625
 20
-483.5421142578125
 40
4.999999999999996
 50
255.0000141535823
 51
343.0476344045686
  0
ARC
  8
0
  6
CONTINUOUS
 62
     7
 10
705
 20
-381
 40
25
 50
306.4238458862582
 51
233.5761318019415
  0
CIRCLE
  8
0
  6
CONTINUOUS
 62
     7
 10
705
 20
-381
 40
15
  0
ARC
  8
0
  6
CONTINUOUS
 62
     7
 10
695.76513671875
 20
-400
 40
1.999999999999985
 50
89.99998201391097
 51
170.0000206677889
  0
ARC
  8
0
  6
CONTINUOUS
 62
     7
 10
714.23486328125
 20
-400
 40
1.999999999999964
 50
9.999994586450628
 51
89.99998201391097
  0
ARC
  8
0
  6
CONTINUOUS
 62
     7
 10
686.5936279296875
 20
-405.9440612792969
 40
6.000000000000009
 50
349.8636347103541
 51
53.57615411374161
  0
ARC
  8
0
  6
CONTINUOUS
 62
     7
 10
970.88671875
 20
-540
 40
5.000000000000015
 50
210.0000163164367
 51
269.9999838351438
  0
ARC
  8
0
  6
CONTINUOUS
 62
     7
 10
970.88671875
 20
-660
 40
4.999999999999972
 50
90.00001616485616
 51
149.9999836835633
  0
ARC
  8
0
  6
CONTINUOUS
 62
     7
 10
948
 20
-687.5
 40
4.999999999999972
 50
90.00001616485616
 51
180.0000050089569
  0
ARC
  8
0
  6
CONTINUOUS
 62
     7
 10
957
 20
-515.947509765625
 40
4.999999999999943
 50
180.0000086514214
 51
210.0000163164367
  0
ARC
  8
0
  6
CONTINUOUS
 62
     7
 10
630
 20
-755
 40
19.99999999999996
 50
270.0000179860893
 51
0
  0
ARC
  8
0
  6
CONTINUOUS
 62
     7
 10
836.65234375
 20
-735
 40
40.00000000000004
 50
219.9999869972261
 51
270.0000179860893
  0
ARC
  8
0
  6
CONTINUOUS
 62
     7
 10
775
 20
-568.1822509765625
 40
99.99999999999996
 50
179.9999776881997
 51
219.9999833547605
  0
ARC
  8
0
  6
CONTINUOUS
 62
     7
 10
504.7567749023438
 20
-717.136474609375
 40
79.99999999999997
 50
313.6728929920274
 51
354.9999280015804
  0
ARC
  8
0
  6
CONTINUOUS
 62
     7
 10
583.6368408203125
 20
-676.0623779296875
 40
5.000000000000021
 50
355.0000172209265
 51
89.99998201391031
  0
ARC
  8
0
  6
CONTINUOUS
 62
     7
 10
625
 20
-456.1494445800781
 40
10.00000000000002
 50
274.9999964962948
 51
0
  0
CIRCLE
  8
0
  6
CONTINUOUS
 62
     3
 10
628
 20
-705
 40
8.507550239562988
  0
CIRCLE
  8
0
  6
CONTINUOUS
 62
     3
 10
630
 20
-600
 40
8.507550239562988
  0
ARC
  8
0
  6
CONTINUOUS
 62
     7
 10
635
 20
-450.2554321289063
 40
15
 50
274.9999964962946
 51
0
  0
ARC
  8
0
  6
CONTINUOUS
 62
     7
 10
940
 20
-461.5
 40
20.49999999999999
 50
304.6066501519143
 51
235.3933172910016
  0
CIRCLE
  8
0
  6
CONTINUOUS
 62
     7
 10
940
 20
-461.5
 40
12.5
  0
ARC
  8
0
  6
CONTINUOUS
 62
     7
 10
932.9124755859375
 20
-477.5
 40
1.999999999999985
 50
89.99998201391097
 51
170.0000206677889
  0
ARC
  8
0
  6
CONTINUOUS
 62
     7
 10
947.0875244140625
 20
-477.5
 40
1.999999999999958
 50
9.999999709093608
 51
89.99998201391097
  0
ARC
  8
0
  6
CONTINUOUS
 62
     7
 10
926.0855102539063
 20
-481.6652221679688
 40
4.000000000000036
 50
347.9541887335329
 51
55.39334301789676
  0
ARC
  8
0
  6
CONTINUOUS
 62
     7
 10
953.9144897460937
 20
-481.6652221679688
 40
3.999999999999996
 50
124.6066790665321
 51
192.0457812707042
  0
ARC
  8
0
  6
CONTINUOUS
 62
     7
 10
-6.4000244140625
 20
-404.2000122070313
 40
1.399999976158144
 50
269.999963344576
 51
0
  0
ARC
  8
0
  6
CONTINUOUS
 62
     7
 10
-9.73834228515625
 20
-399.4000244140625
 40
1.399999976158126
 50
101.6056755270564
 51
169.9999660262765
  0
ARC
  8
0
  6
CONTINUOUS
 62
     7
 10
0
 20
-600
 40
180
 50
66.2311012871847
 51
73.87937636503574
  0
ARC
  8
0
  6
CONTINUOUS
 62
     7
 10
0
 20
-600
 40
180
 50
80.40592264530639
 51
99.59405504289326
  0
ARC
  8
0
  6
CONTINUOUS
 62
     7
 10
0
 20
-600
 40
180
 50
106.1206627948664
 51
113.76891738215
  0
ARC
  8
0
  6
CONTINUOUS
 62
     7
 10
9.73834228515625
 20
-399.4000244140625
 40
1.39999997615814
 50
9.999995440224259
 51
78.39428850076496
  0
ARC
  8
0
  6
CONTINUOUS
 62
     7
 10
0
 20
-361
 40
5
 50
0
 51
179.9999640278213
  0
ARC
  8
0
  6
CONTINUOUS
 62
     7
 10
6.4000244140625
 20
-404.2000122070313
 40
1.399999976158142
 50
179.9999776881999
 51
270.000028004002
  0
CIRCLE
  8
0
  6
CONTINUOUS
 62
     7
 10
0
 20
-600
 40
90
  0
CIRCLE
  8
0
  6
CONTINUOUS
 62
     7
 10
0
 20
-600
 40
132.5
  0
ARC
  8
0
  6
CONTINUOUS
 62
     3
 10
0
 20
-600
 40
117.5
 50
352.6806463420093
 51
7.319326337234041
  0
ARC
  8
0
  6
CONTINUOUS
 62
     3
 10
0
 20
-600
 40
117.5
 50
52.68066508713432
 51
67.31933483707533
  0
ARC
  8
0
  6
CONTINUOUS
 62
     3
 10
0
 20
-600
 40
117.5
 50
112.6806633416918
 51
127.3193296765383
  0
ARC
  8
0
  6
CONTINUOUS
 62
     3
 10
0
 20
-600
 40
117.5
 50
172.6806513509656
 51
187.3193313461904
  0
ARC
  8
0
  6
CONTINUOUS
 62
     3
 10
0
 20
-600
 40
117.5
 50
232.6806566630834
 51
247.3193366583082
  0
ARC
  8
0
  6
CONTINUOUS
 62
     3
 10
0
 20
-600
 40
117.5
 50
292.6806515025463
 51
307.3193314977711
  0
ARC
  8
0
  6
CONTINUOUS
 62
     7
 10
0
 20
-635
 40
212.5
 50
0
 51
179.9999640278213
  0
ARC
  8
0
  6
CONTINUOUS
 62
     7
 10
94.5
 20
-777
 40
8.000000000000053
 50
270.0000179860893
 51
0
  0
ARC
  8
0
  6
CONTINUOUS
 62
     7
 10
99.5
 20
-808
 40
3
 50
0
 51
89.9999820139107
  0
ARC
  8
0
  6
CONTINUOUS
 62
     7
 10
-99.5
 20
-808
 40
3.000000000000034
 50
89.9999820139107
 51
179.9999640278219
  0
ARC
  8
0
  6
CONTINUOUS
 62
     7
 10
-94.5
 20
-777
 40
7.999999999999996
 50
179.9999776881995
 51
270.000028004002
  0
ARC
  8
0
  6
CONTINUOUS
 62
     7
 10
-137.4259033203125
 20
-760
 40
14.99999999999994
 50
270.0000179860893
 51
349.9999772390186
  0
ARC
  8
0
  6
CONTINUOUS
 62
     7
 10
137.4259033203125
 20
-760
 40
15
 50
189.9999656718325
 51
270.0000179860893
  0
ARC
  8
0
  6
CONTINUOUS
 62
     7
 10
78.43731689453125
 20
-724.915283203125
 40
14.99999999999998
 50
10.00000824682919
 51
122.1257357939305
  0
ARC
  8
0
  6
CONTINUOUS
 62
     7
 10
-78.437255859375
 20
-724.915283203125
 40
15.00000000000005
 50
57.87424872445833
 51
170.0000206677892
  0
ARC
  8
0
  6
CONTINUOUS
 62
     7
 10
135
 20
-659.42431640625
 40
15.00000000000002
 50
156.2418886603622
 51
179.9999640278215
  0
ARC
  8
0
  6
CONTINUOUS
 62
     7
 10
-135
 20
-659.42431640625
 40
15
 50
0
 51
23.75813342406704
  0
ARC
  8
0
  6
CONTINUOUS
 62
     3
 10
0
 20
-600
 40
162.5
 50
17.20928316106158
 51
27.79072833646124
  0
ARC
  8
0
  6
CONTINUOUS
 62
     3
 10
0
 20
-600
 40
162.5
 50
62.20928782839527
 51
72.79073983398408
  0
ARC
  8
0
  6
CONTINUOUS
 62
     3
 10
0
 20
-600
 40
162.5
 50
107.2093676278098
 51
117.7908059730203
  0
ARC
  8
0
  6
CONTINUOUS
 62
     3
 10
0
 20
-600
 40
162.5
 50
152.2093586347651
 51
162.790810640354
  0
ARC
  8
0
  6
CONTINUOUS
 62
     3
 10
0
 20
-600
 40
162.5
 50
197.2092849822944
 51
207.7907369878832
  0
ARC
  8
0
  6
CONTINUOUS
 62
     3
 10
0
 20
-600
 40
162.5
 50
242.2092623288714
 51
252.7907006740819
  0
ARC
  8
0
  6
CONTINUOUS
 62
     3
 10
0
 20
-600
 40
162.5
 50
287.2092123546917
 51
297.7906643602805
  0
ARC
  8
0
  6
CONTINUOUS
 62
     3
 10
0
 20
-600
 40
162.5
 50
332.2091231069243
 51
342.7905597445875
  0
ARC
  8
0
  6
CONTINUOUS
 62
     7
 10
0
 20
-600
 40
47.49999999999995
 50
105.2575454498303
 51
74.74246957703872
  0
ARC
  8
0
  6
CONTINUOUS
 62
     7
 10
14.36492919921875
 20
-427.9978332519531
 40
5
 50
0
 51
86.03046731359598
  0
ARC
  8
0
  6
CONTINUOUS
 62
     7
 10
-14.364990234375
 20
-427.9978332519531
 40
5.000000000000004
 50
93.96955135573867
 51
179.9999640278213
  0
ARC
  8
0
  6
CONTINUOUS
 62
     7
 10
-34.364990234375
 20
-456.55908203125
 40
15.00000000000001
 50
283.4727710296146
 51
0
  0
ARC
  8
0
  6
CONTINUOUS
 62
     7
 10
34.36492919921875
 20
-456.55908203125
 40
15
 50
179.9999776881996
 51
256.5271793378284
  0
ARC
  8
0
  6
CONTINUOUS
 62
     7
 10
-33
 20
-782
 40
3.000000000000003
 50
269.9999974955218
 51
0
  0
ARC
  8
0
  6
CONTINUOUS
 62
     7
 10
33
 20
-782
 40
2.999999999999999
 50
179.9999913485786
 51
270.0000006832453
  0
CIRCLE
  8
0
  6
CONTINUOUS
 62
     3
 10
0
 20
-600
 40
8
  0
CIRCLE
  8
0
  6
CONTINUOUS
 62
     7
 10
0
 20
-600
 40
7.099999904632568
  0
ARC
  8
0
  6
CONTINUOUS
 62
     7
 10
705
 20
8.581966540077701E-06
 40
20.04728698730464
 50
14.44262624528875
 51
165.557392424046
  0
ARC
  8
0
  6
CONTINUOUS
 62
     7
 10
810
 20
-127.2341156005859
 40
5.000000000000004
 50
105.0000541483104
 51
179.9999640278213
  0
ARC
  8
0
  6
CONTINUOUS
 62
     7
 10
810
 20
127.2341461181641
 40
5.000000000000038
 50
179.9999776881996
 51
254.9999217186572
  0
ARC
  8
0
  6
CONTINUOUS
 62
     7
 10
810
 20
-77.49998474121094
 40
5.000000000000004
 50
89.99998201391031
 51
179.9999640278213
  0
ARC
  8
0
  6
CONTINUOUS
 62
     7
 10
800
 20
-130.8044891357422
 40
4.999999999999988
 50
280.0001594216071
 51
0
  0
ARC
  8
0
  6
CONTINUOUS
 62
     7
 10
850
 20
-91.55809020996094
 40
5
 50
0
 51
60.00002899040844
  0
ARC
  8
0
  6
CONTINUOUS
 62
     7
 10
782
 20
-144.1326446533203
 40
5.000000000000012
 50
100.0001780909426
 51
179.9999640278213
  0
ARC
  8
0
  6
CONTINUOUS
 62
     7
 10
810
 20
77.50001525878906
 40
5.000000000000038
 50
179.9999776881996
 51
269.9999733624889
  0
ARC
  8
0
  6
CONTINUOUS
 62
     7
 10
850
 20
91.55812072753906
 40
5.000000000000004
 50
299.9999163680779
 51
359.9999453584866
  0
ARC
  8
0
  6
CONTINUOUS
 62
     7
 10
782
 20
144.1327056884766
 40
5.000000000000038
 50
179.9999776881996
 51
259.9997567948902
  0
ARC
  8
0
  6
CONTINUOUS
 62
     7
 10
800
 20
130.8045196533203
 40
5
 50
359.9999453584866
 51
79.99978593687854
  0
ARC
  8
0
  6
CONTINUOUS
 62
     7
 10
760
 20
1.012953453027876E-05
 40
29.99999999999999
 50
308.9447799164507
 51
51.0552200835493
  0
ARC
  8
0
  6
CONTINUOUS
 62
     7
 10
782
 20
27.2213249206543
 40
5.000000000000038
 50
179.9999776881997
 51
231.0550270170197
  0
ARC
  8
0
  6
CONTINUOUS
 62
     7
 10
782
 20
-27.2213020324707
 40
5.000000000000032
 50
128.9449693405151
 51
179.9999640278213
  0
ARC
  8
0
  6
CONTINUOUS
 62
     7
 10
850.21728515625
 20
116.4579010009766
 40
4.999999999999981
 50
255.0000141535823
 51
343.0476344045685
  0
ARC
  8
0
  6
CONTINUOUS
 62
     7
 10
850.21728515625
 20
-116.4578704833984
 40
5.000000000000028
 50
16.95237242562059
 51
104.9999858464177
  0
CIRCLE
  8
0
  6
CONTINUOUS
 62
     3
 10
772
 20
1.046718534780666E-05
 40
10.69374942779541
  0
ARC
  8
0
  6
CONTINUOUS
 62
     7
 10
705
 20
8.581966540077701E-06
 40
20.04728698730467
 50
194.4426348967107
 51
345.557401075468
  0
ARC
  8
0
  6
CONTINUOUS
 62
     7
 10
705
 20
8.581966540077701E-06
 40
12.5
 50
23.57817843000461
 51
156.4218368242355
  0
ARC
  8
0
  6
CONTINUOUS
 62
     7
 10
685
 20
8.019214874366298E-06
 40
5
 50
89.99998201391031
 51
270.0000006832456
  0
ARC
  8
0
  6
CONTINUOUS
 62
     7
 10
725
 20
9.144718205789104E-06
 40
5
 50
270.0000179860897
 51
89.99998201391031
  0
ARC
  8
0
  6
CONTINUOUS
 62
     7
 10
705
 20
8.581966540077701E-06
 40
12.50000000000001
 50
203.5781631757645
 51
336.4218215699954
  0
ARC
  8
0
  6
CONTINUOUS
 62
     7
 10
970.88671875
 20
60.00001525878906
 40
5.000000000000033
 50
210.000016316437
 51
269.9999838351438
  0
ARC
  8
0
  6
CONTINUOUS
 62
     7
 10
970.88671875
 20
-59.99998474121094
 40
5
 50
90.00001616485616
 51
149.999983683563
  0
ARC
  8
0
  6
CONTINUOUS
 62
     7
 10
948
 20
-87.49998474121094
 40
5
 50
90.00001616485616
 51
180.0000050089563
  0
ARC
  8
0
  6
CONTINUOUS
 62
     7
 10
948
 20
87.50001525878906
 40
4.999999999999943
 50
180.0000496325571
 51
270.0000384766572
  0
ARC
  8
0
  6
CONTINUOUS
 62
     7
 10
1007
 20
1.707952105789445E-05
 40
4
 50
90.00001616485682
 51
269.9999733624879
  0
ARC
  8
0
  6
CONTINUOUS
 62
     7
 10
940
 20
1.519430134067079E-05
 40
9.999999999999986
 50
23.57817672245736
 51
156.4218368242355
  0
ARC
  8
0
  6
CONTINUOUS
 62
     7
 10
923.5
 20
1.473003158025676E-05
 40
4
 50
89.99998201391097
 51
270.0000006832446
  0
ARC
  8
0
  6
CONTINUOUS
 62
     7
 10
956.5
 20
1.565857201057952E-05
 40
4
 50
270.0000179860891
 51
89.99998201391097
  0
ARC
  8
0
  6
CONTINUOUS
 62
     7
 10
940
 20
1.519430134067079E-05
 40
10.00000000000001
 50
203.5781631757645
 51
336.4218232775426
  0
ARC
  8
0
  6
CONTINUOUS
 62
     7
 10
810
 20
-186.4999847412109
 40
8.000000000000007
 50
269.9999974955215
 51
333.8935946053164
  0
ARC
  8
0
  6
CONTINUOUS
 62
     7
 10
635
 20
149.7445678710938
 40
14.99999999999999
 50
275.0000374774295
 51
0
  0
ARC
  8
0
  6
CONTINUOUS
 62
     7
 10
635
 20
-149.7445678710938
 40
15
 50
359.9999453584866
 51
84.99990788105706
  0
ARC
  8
0
  6
CONTINUOUS
 62
     7
 10
575
 20
-197.5
 40
15
 50
179.9999776881996
 51
270.0000280040019
  0
ARC
  8
0
  6
CONTINUOUS
 62
     7
 10
910
 20
-197.4999847412109
 40
15
 50
270.0000179860892
 51
0
  0
ARC
  8
0
  6
CONTINUOUS
 62
     7
 10
910
 20
197.5000152587891
 40
15
 50
0
 51
89.99998201391075
  0
ARC
  8
0
  6
CONTINUOUS
 62
     7
 10
575
 20
197.5
 40
15
 50
89.99998201391075
 51
179.9999640278213
  0
ARC
  8
0
  6
CONTINUOUS
 62
     7
 10
910
 20
-140.2745208740234
 40
15
 50
0
 51
80.83765207255355
  0
ARC
  8
0
  6
CONTINUOUS
 62
     7
 10
910
 20
140.2745513916016
 40
15
 50
279.1623342670681
 51
0
  0
ARC
  8
0
  6
CONTINUOUS
 62
     7
 10
655
 20
7.175086921051843E-06
 40
19.99999999999998
 50
120.0000306600608
 51
239.999952037095
  0
ARC
  8
0
  6
CONTINUOUS
 62
     7
 10
640
 20
25.98078155517578
 40
10
 50
299.9999300284562
 51
360
  0
ARC
  8
0
  6
CONTINUOUS
 62
     7
 10
640
 20
-25.98076629638672
 40
10
 50
0
 51
60.00006997154377
  0
ARC
  8
0
  6
CONTINUOUS
 62
     7
 10
517.5
 20
3.306167400296545E-06
 40
12.5
 50
270.0000179860895
 51
89.99998201391058
  0
CIRCLE
  8
0
  6
CONTINUOUS
 62
     7
 10
595
 20
175
 40
12.5
  0
CIRCLE
  8
0
  6
CONTINUOUS
 62
     7
 10
890
 20
175.0000152587891
 40
12.5
  0
CIRCLE
  8
0
  6
CONTINUOUS
 62
     7
 10
595
 20
-175
 40
12.5
  0
CIRCLE
  8
0
  6
CONTINUOUS
 62
     7
 10
890
 20
-174.9999847412109
 40
12.5
  0
ARC
  8
0
  6
CONTINUOUS
 62
     7
 10
810
 20
186.5000152587891
 40
7.999999999999991
 50
24.78092863906702
 51
90.00000250447847
  0
TEXT
  8
0
  6
CONTINUOUS
 62
     7
 10
-117.5000286102295
 20
-17.5
 40
35
 41
0.8463387620978569
  1
ＥＲ－＿ＮＤＦ
  0
ENDSEC
  0
EOF
