  0
SECTION
  2
HEADER
  0
ENDSEC
  0
SECTION
  2
TABLES
  0
TABLE
  2
LTYPE
 70
    22
  0
LTYPE
  2
CONTINUOUS
 70
    64
  3
Solid line
 72
    65
 73
     0
 40
0.000000
  0
LTYPE
  2
DASHED
 70
    64
  3
__ __ __ __ __ __ __ __ __ __ __ __ __ __ __
 72
    65
 73
     2
 40
3.500000
 49
2.000000
 49
-1.500000
  0
LTYPE
  2
CENTER
 70
    64
  3
____ _ ____ _ ____ _ ____ _ ____ _ ____ _ ____
 72
    65
 73
     4
 40
17.500000
 49
13.000000
 49
-1.500000
 49
1.500000
 49
-1.500000
  0
LTYPE
  2
PHANTOM
 70
    64
  3
_____ _ _ _____ _ _ _____ _ _ _____ _ _ ____  
 72
    65
 73
     6
 40
15.500000
 49
8.000000
 49
-1.500000
 49
1.500000
 49
-1.500000
 49
1.500000
 49
-1.500000
  0
LTYPE
  2
DOT
 70
    64
  3
. . . . . . . . . . . . . . . . . . . . . . . .
 72
    65
 73
     2
 40
0.25
 49
0.0
 49
-0.25
  0
ENDTAB
  0
TABLE
  2
LAYER
 70
     1
  0
LAYER
  2
0
 70
     0
 62
     7
  6
CONTINUOUS
  0
ENDTAB
  0
TABLE
  2
STYLE
 70
     1
  0
STYLE
  2
STANDARD
 70
     0
 40
0.000000
 41
1.000000
 50
0.000000
 71
     0
 42
0.200000
  3
txt
  4
BIGFONT
  0
ENDTAB
  0
TABLE
  2
VIEW
 70
     0
  0
ENDTAB
  0
ENDSEC
  0
SECTION
  2
BLOCKS
  0
ENDSEC
  0
SECTION
  2
ENTITIES
  0
LINE
  8
0
  6
CONTINUOUS
 62
     3
 10
280
 20
-450
 11
665
 21
-450
  0
LINE
  8
0
  6
CONTINUOUS
 62
     7
 10
395
 20
-590
 11
595
 21
-590
  0
LINE
  8
0
  6
CONTINUOUS
 62
     7
 10
395
 20
-564
 11
395
 21
-590
  0
LINE
  8
0
  6
CONTINUOUS
 62
     7
 10
595
 20
-564
 11
595
 21
-590
  0
LINE
  8
0
  6
CONTINUOUS
 62
     7
 10
430
 20
-530
 11
447.4010620117187
 21
-530
  0
LINE
  8
0
  6
CONTINUOUS
 62
     7
 10
415.3992919921875
 20
-559.435791015625
 11
420.0710754394531
 21
-506.0372314453125
  0
LINE
  8
0
  6
CONTINUOUS
 62
     3
 10
440
 20
-440
 11
440
 21
-460
  0
LINE
  8
0
  6
CONTINUOUS
 62
     7
 10
425
 20
-490.443603515625
 11
425
 21
-525
  0
LINE
  8
0
  6
CONTINUOUS
 62
     3
 10
430
 20
-515
 11
450
 21
-515
  0
LINE
  8
0
  6
CONTINUOUS
 62
     3
 10
440
 20
-505
 11
440
 21
-525
  0
LINE
  8
0
  6
CONTINUOUS
 62
     7
 10
386
 20
-395.0000305175781
 11
386
 21
-505
  0
LINE
  8
0
  6
CONTINUOUS
 62
     7
 10
398
 20
-362.5
 11
398
 21
-537.5
  0
LINE
  8
0
  6
CONTINUOUS
 62
     7
 10
398
 20
-537.5
 11
417.3184509277344
 21
-537.5
  0
LINE
  8
0
  6
CONTINUOUS
 62
     7
 10
410
 20
-362.5
 11
410
 21
-537.5
  0
LINE
  8
0
  6
CONTINUOUS
 62
     7
 10
398
 20
-362.5
 11
429.9999694824219
 21
-362.5
  0
LINE
  8
0
  6
CONTINUOUS
 62
     7
 10
429.9999694824219
 20
-362.5000305175781
 11
449.2616882324219
 21
-361.4905700683594
  0
LINE
  8
0
  6
CONTINUOUS
 62
     7
 10
454
 20
-335
 11
454
 21
-559
  0
LINE
  8
0
  6
CONTINUOUS
 62
     7
 10
454
 20
-335
 11
472
 21
-335
  0
LINE
  8
0
  6
CONTINUOUS
 62
     7
 10
472
 20
-335
 11
472
 21
-483.731689453125
  0
LINE
  8
0
  6
CONTINUOUS
 62
     3
 10
420
 20
-548.1178588867188
 11
420
 21
-605
  0
LINE
  8
0
  6
CONTINUOUS
 62
     3
 10
570
 20
-548.1178588867188
 11
570
 21
-605
  0
LINE
  8
0
  6
CONTINUOUS
 62
     7
 10
300
 20
-418.5
 11
300
 21
-477.5
  0
LINE
  8
0
  6
CONTINUOUS
 62
     7
 10
300
 20
-422.5
 11
380
 21
-422.5
  0
LINE
  8
0
  6
CONTINUOUS
 62
     7
 10
300
 20
-477.5
 11
380
 21
-477.5
  0
LINE
  8
0
  6
CONTINUOUS
 62
     7
 10
380
 20
-417.5
 11
386
 21
-417.5
  0
LINE
  8
0
  6
CONTINUOUS
 62
     7
 10
380
 20
-482.5
 11
386
 21
-482.5
  0
LINE
  8
0
  6
CONTINUOUS
 62
     7
 10
380
 20
-417.5
 11
380
 21
-482.5
  0
LINE
  8
0
  6
DASHED
 62
     7
 10
410.5
 20
-564
 11
410.5
 21
-590
  0
LINE
  8
0
  6
DASHED
 62
     7
 10
429.5
 20
-564
 11
429.5
 21
-590
  0
LINE
  8
0
  6
DASHED
 62
     7
 10
560.5
 20
-564
 11
560.5
 21
-590
  0
LINE
  8
0
  6
DASHED
 62
     7
 10
579.5
 20
-564
 11
579.5
 21
-590
  0
LINE
  8
0
  6
CONTINUOUS
 62
     7
 10
300
 20
-418.5
 11
363
 21
-418.5
  0
LINE
  8
0
  6
CONTINUOUS
 62
     7
 10
395
 20
-564
 11
449
 21
-564
  0
LINE
  8
0
  6
CONTINUOUS
 62
     7
 10
440
 20
-443.6360473632812
 11
433.6360473632812
 21
-450
  0
LINE
  8
0
  6
CONTINUOUS
 62
     7
 10
433.6360473632812
 20
-450
 11
440
 21
-456.3639526367188
  0
LINE
  8
0
  6
CONTINUOUS
 62
     7
 10
440
 20
-456.3639526367188
 11
446.3639526367188
 21
-450
  0
LINE
  8
0
  6
CONTINUOUS
 62
     7
 10
446.3639526367188
 20
-450
 11
439.9999694824219
 21
-443.6360473632812
  0
LINE
  8
0
  6
CONTINUOUS
 62
     7
 10
440
 20
-508.6360473632812
 11
433.6360473632812
 21
-515
  0
LINE
  8
0
  6
CONTINUOUS
 62
     7
 10
433.6360473632812
 20
-515
 11
439.9999694824219
 21
-521.3638916015625
  0
LINE
  8
0
  6
CONTINUOUS
 62
     7
 10
440
 20
-521.3639526367188
 11
446.3639526367188
 21
-515
  0
LINE
  8
0
  6
CONTINUOUS
 62
     7
 10
446.3639526367188
 20
-515
 11
440
 21
-508.6360473632812
  0
LINE
  8
0
  6
CONTINUOUS
 62
     7
 10
472
 20
-483.731689453125
 11
526.4940185546875
 21
-551.0261840820312
  0
LINE
  8
0
  6
CONTINUOUS
 62
     7
 10
398
 20
-362.5
 11
386
 21
-395.0000305175781
  0
LINE
  8
0
  6
CONTINUOUS
 62
     7
 10
386
 20
-505
 11
398
 21
-537.5
  0
LINE
  8
0
  6
CONTINUOUS
 62
     7
 10
553.6941528320313
 20
-564
 11
595
 21
-564
  0
LINE
  8
0
  6
CONTINUOUS
 62
     7
 10
363
 20
-418.5
 11
363
 21
-422.5
  0
LINE
  8
0
  6
CONTINUOUS
 62
     7
 10
476
 20
-332.5
 11
520
 21
-332.5
  0
LINE
  8
0
  6
CONTINUOUS
 62
     7
 10
524
 20
-335
 11
524
 21
-547.9463500976563
  0
LINE
  8
0
  6
CONTINUOUS
 62
     7
 10
472
 20
-336.5
 11
476.0000305175781
 21
-332.5
  0
LINE
  8
0
  6
CONTINUOUS
 62
     7
 10
520
 20
-332.5
 11
524
 21
-336.5
  0
LINE
  8
0
  6
CONTINUOUS
 62
     7
 10
476
 20
-375.0578002929687
 11
520
 21
-375.0578002929687
  0
LINE
  8
0
  6
CONTINUOUS
 62
     7
 10
476
 20
-388.7132568359375
 11
520
 21
-388.7132568359375
  0
LINE
  8
0
  6
CONTINUOUS
 62
     7
 10
476
 20
-397.4596557617187
 11
520
 21
-397.4596557617187
  0
LINE
  8
0
  6
CONTINUOUS
 62
     7
 10
476
 20
-412.8352966308594
 11
520
 21
-412.8352966308594
  0
LINE
  8
0
  6
CONTINUOUS
 62
     7
 10
476
 20
-422.447998046875
 11
520
 21
-422.447998046875
  0
LINE
  8
0
  6
CONTINUOUS
 62
     7
 10
476
 20
-439.00048828125
 11
520
 21
-439.00048828125
  0
LINE
  8
0
  6
CONTINUOUS
 62
     7
 10
476
 20
-461.0003051757812
 11
520
 21
-461.0003051757812
  0
LINE
  8
0
  6
CONTINUOUS
 62
     7
 10
476
 20
-477.5516662597656
 11
520
 21
-477.5516662597656
  0
LINE
  8
0
  6
CONTINUOUS
 62
     7
 10
476
 20
-487.1639404296875
 11
520
 21
-487.1639404296875
  0
LINE
  8
0
  6
CONTINUOUS
 62
     7
 10
487.2310180664062
 20
-502.5404357910156
 11
520
 21
-502.5404357910156
  0
LINE
  8
0
  6
CONTINUOUS
 62
     7
 10
494.3134155273438
 20
-511.2864379882813
 11
520
 21
-511.2864379882813
  0
LINE
  8
0
  6
CONTINUOUS
 62
     7
 10
505.3705444335937
 20
-524.94091796875
 11
520
 21
-524.94091796875
  0
LINE
  8
0
  6
CONTINUOUS
 62
     7
 10
517.968017578125
 20
-540.4974365234375
 11
520
 21
-540.4974365234375
  0
LINE
  8
0
  6
CONTINUOUS
 62
     7
 10
595
 20
-415
 11
595
 21
-485
  0
LINE
  8
0
  6
CONTINUOUS
 62
     7
 10
577
 20
-395
 11
577
 21
-505
  0
LINE
  8
0
  6
CONTINUOUS
 62
     7
 10
595.0000610351563
 20
-415
 11
589
 21
-411.535888671875
  0
LINE
  8
0
  6
CONTINUOUS
 62
     7
 10
595
 20
-485
 11
589
 21
-488.4640808105469
  0
LINE
  8
0
  6
CONTINUOUS
 62
     7
 10
589
 20
-395
 11
589
 21
-505
  0
LINE
  8
0
  6
CONTINUOUS
 62
     7
 10
589
 20
-395
 11
569.88671875
 21
-395
  0
LINE
  8
0
  6
CONTINUOUS
 62
     7
 10
589
 20
-505
 11
569.88671875
 21
-505
  0
LINE
  8
0
  6
CONTINUOUS
 62
     7
 10
565.556640625
 20
-392.5
 11
551.6698608398438
 21
-368.4474792480469
  0
LINE
  8
0
  6
CONTINUOUS
 62
     7
 10
565.556640625
 20
-507.5
 11
551.1228637695313
 21
-532.5
  0
LINE
  8
0
  6
CONTINUOUS
 62
     7
 10
551.1228637695313
 20
-532.5
 11
547
 21
-532.5
  0
LINE
  8
0
  6
CONTINUOUS
 62
     7
 10
542
 20
-346.8897705078125
 11
542
 21
-561.9885864257813
  0
LINE
  8
0
  6
CONTINUOUS
 62
     7
 10
551
 20
-335
 11
547.4257202148437
 21
-335
  0
LINE
  8
0
  6
CONTINUOUS
 62
     7
 10
551
 20
-335
 11
551
 21
-381.2046508789063
  0
LINE
  8
0
  6
CONTINUOUS
 62
     7
 10
645
 20
-433
 11
645
 21
-464
  0
LINE
  8
0
  6
CONTINUOUS
 62
     7
 10
645
 20
-436
 11
600
 21
-436
  0
LINE
  8
0
  6
CONTINUOUS
 62
     7
 10
645
 20
-464
 11
600
 21
-464
  0
LINE
  8
0
  6
CONTINUOUS
 62
     7
 10
600
 20
-432.5
 11
600
 21
-467.5
  0
LINE
  8
0
  6
CONTINUOUS
 62
     7
 10
600
 20
-432.5
 11
595
 21
-432.5
  0
LINE
  8
0
  6
CONTINUOUS
 62
     7
 10
600
 20
-467.5
 11
595
 21
-467.5
  0
LINE
  8
0
  6
CONTINUOUS
 62
     7
 10
551.1228637695313
 20
-381.1835632324219
 11
551.1228637695313
 21
-532.5
  0
LINE
  8
0
  6
CONTINUOUS
 62
     7
 10
645
 20
-433
 11
609
 21
-433
  0
LINE
  8
0
  6
CONTINUOUS
 62
     7
 10
609
 20
-433
 11
609
 21
-436
  0
LINE
  8
0
  6
CONTINUOUS
 62
     7
 10
542
 20
-346.8898010253906
 11
551
 21
-345.7746276855469
  0
LINE
  8
0
  6
CONTINUOUS
 62
     7
 10
530.928955078125
 20
-323.6729125976563
 11
530.928955078125
 21
-332.4422607421875
  0
LINE
  8
0
  6
CONTINUOUS
 62
     7
 10
547.071044921875
 20
-323.6729125976563
 11
547.071044921875
 21
-332.4422607421875
  0
LINE
  8
0
  6
CONTINUOUS
 62
     7
 10
547.50732421875
 20
-332.4560546875
 11
547.3212890625
 21
-338.2546997070312
  0
LINE
  8
0
  6
CONTINUOUS
 62
     7
 10
530.49267578125
 20
-332.4560852050781
 11
530.6787109375
 21
-338.2547302246094
  0
LINE
  8
0
  6
CONTINUOUS
 62
     3
 10
547.0711059570313
 20
-323.6729125976563
 11
539
 21
-334.2578125
  0
LINE
  8
0
  6
CONTINUOUS
 62
     3
 10
539
 20
-334.2579040527344
 11
530.928955078125
 21
-323.6729431152344
  0
LINE
  8
0
  6
CONTINUOUS
 62
     7
 10
530.5742797851563
 20
-335
 11
524
 21
-335
  0
LINE
  8
0
  6
CONTINUOUS
 62
     3
 10
539
 20
-285.395751953125
 11
539
 21
-344.7022094726563
  0
LINE
  8
0
  6
CONTINUOUS
 62
     7
 10
539
 20
-323.6729125976563
 11
539
 21
-334.2578430175781
  0
LINE
  8
0
  6
CONTINUOUS
 62
     7
 10
542
 20
-382.7493286132812
 11
551.1228637695313
 21
-381.1835327148437
  0
LINE
  8
0
  6
CONTINUOUS
 62
     7
 10
530.928955078125
 20
-323.6729125976563
 11
547.071044921875
 21
-323.6729125976563
  0
LINE
  8
0
  6
CONTINUOUS
 62
     3
 10
539.0000610351563
 20
-323.6729431152344
 11
530.9290161132812
 21
-332.4422912597656
  0
LINE
  8
0
  6
CONTINUOUS
 62
     3
 10
539
 20
-323.6729125976563
 11
547.071044921875
 21
-332.4422302246094
  0
LINE
  8
0
  6
CONTINUOUS
 62
     3
 10
0
 20
-271
 11
0
 21
-610
  0
LINE
  8
0
  6
CONTINUOUS
 62
     3
 10
-135
 20
-450
 11
135
 21
-450
  0
LINE
  8
0
  6
CONTINUOUS
 62
     7
 10
-137.5
 20
-590
 11
-72.5
 21
-590
  0
LINE
  8
0
  6
CONTINUOUS
 62
     7
 10
137.5
 20
-564
 11
137.5
 21
-590
  0
LINE
  8
0
  6
CONTINUOUS
 62
     7
 10
-137.5
 20
-564
 11
-137.5
 21
-590
  0
LINE
  8
0
  6
CONTINUOUS
 62
     7
 10
-72.5
 20
-564
 11
-72.5
 21
-590
  0
LINE
  8
0
  6
CONTINUOUS
 62
     7
 10
72.5
 20
-564
 11
72.5
 21
-590
  0
LINE
  8
0
  6
CONTINUOUS
 62
     3
 10
-112.5
 20
-549
 11
-112.5
 21
-605
  0
LINE
  8
0
  6
CONTINUOUS
 62
     3
 10
112.5
 20
-549
 11
112.5
 21
-605
  0
LINE
  8
0
  6
CONTINUOUS
 62
     7
 10
-137.5
 20
-564
 11
-72.5
 21
-564
  0
LINE
  8
0
  6
CONTINUOUS
 62
     7
 10
72.5
 20
-590
 11
137.5
 21
-590
  0
LINE
  8
0
  6
CONTINUOUS
 62
     7
 10
72.5
 20
-564
 11
137.5
 21
-564
  0
LINE
  8
0
  6
CONTINUOUS
 62
     7
 10
-137.5000457763672
 20
-564
 11
-113.1617279052734
 21
-429.5199279785156
  0
LINE
  8
0
  6
CONTINUOUS
 62
     7
 10
137.4999694824219
 20
-564
 11
113.1616516113281
 21
-429.5198974609375
  0
LINE
  8
0
  6
CONTINUOUS
 62
     7
 10
-69.5
 20
-587
 11
69.5
 21
-587
  0
LINE
  8
0
  6
CONTINUOUS
 62
     7
 10
-85.50701141357422
 20
-560.2941284179688
 11
-70.63394927978516
 21
-504.787109375
  0
LINE
  8
0
  6
CONTINUOUS
 62
     7
 10
-72.49998474121094
 20
-564
 11
-61.24824142456055
 21
-522.0079345703125
  0
LINE
  8
0
  6
CONTINUOUS
 62
     7
 10
72.50000762939453
 20
-564.0000610351562
 11
61.24825286865234
 21
-522.0079345703125
  0
LINE
  8
0
  6
CONTINUOUS
 62
     7
 10
85.50695037841797
 20
-560.2941284179688
 11
70.63390350341797
 21
-504.7870788574219
  0
LINE
  8
0
  6
CONTINUOUS
 62
     3
 10
71.69683837890625
 20
-515
 11
95
 21
-515
  0
LINE
  8
0
  6
CONTINUOUS
 62
     7
 10
-80
 20
-530
 11
-77.38970947265625
 21
-530
  0
LINE
  8
0
  6
CONTINUOUS
 62
     7
 10
-80
 20
-485.443603515625
 11
-80
 21
-530
  0
LINE
  8
0
  6
CONTINUOUS
 62
     7
 10
80
 20
-485.443603515625
 11
80
 21
-530
  0
LINE
  8
0
  6
CONTINUOUS
 62
     7
 10
77.38970947265625
 20
-530
 11
80
 21
-530
  0
LINE
  8
0
  6
CONTINUOUS
 62
     7
 10
8
 20
-418.5
 11
8
 21
-428.5
  0
LINE
  8
0
  6
CONTINUOUS
 62
     7
 10
-8
 20
-418.5
 11
-8
 21
-428.5
  0
LINE
  8
0
  6
CONTINUOUS
 62
     3
 10
89.61646270751953
 20
-487.1204223632813
 11
104.3985290527344
 21
-493.2433471679688
  0
LINE
  8
0
  6
CONTINUOUS
 62
     3
 10
37.12030029296875
 20
-360.3837280273437
 11
43.24323654174805
 21
-345.6016540527344
  0
LINE
  8
0
  6
CONTINUOUS
 62
     3
 10
-37.12017440795898
 20
-360.3836975097656
 11
-43.24310684204102
 21
-345.6016235351563
  0
LINE
  8
0
  6
CONTINUOUS
 62
     3
 10
-89.61641693115234
 20
-412.879638671875
 11
-104.3984909057617
 21
-406.7567138671875
  0
LINE
  8
0
  6
CONTINUOUS
 62
     3
 10
-89.61643218994141
 20
-487.1203308105469
 11
-104.3985061645508
 21
-493.2432556152344
  0
LINE
  8
0
  6
CONTINUOUS
 62
     3
 10
89.61631011962891
 20
-412.8796997070313
 11
104.3983840942383
 21
-406.7567749023438
  0
LINE
  8
0
  6
CONTINUOUS
 62
     3
 10
37.1202507019043
 20
-539.6163940429688
 11
43.24317932128906
 21
-554.3984985351562
  0
LINE
  8
0
  6
CONTINUOUS
 62
     3
 10
-37.12032699584961
 20
-539.6163330078125
 11
-43.24326705932617
 21
-554.3984375
  0
LINE
  8
0
  6
DASHED
 62
     7
 10
-103
 20
-564
 11
-103
 21
-590
  0
LINE
  8
0
  6
DASHED
 62
     7
 10
-122
 20
-564
 11
-122
 21
-590
  0
LINE
  8
0
  6
DASHED
 62
     7
 10
103
 20
-564
 11
103
 21
-590
  0
LINE
  8
0
  6
DASHED
 62
     7
 10
122
 20
-564
 11
122
 21
-590
  0
LINE
  8
0
  6
CONTINUOUS
 62
     7
 10
-8
 20
-428.5
 11
8
 21
-428.5
  0
LINE
  8
0
  6
CONTINUOUS
 62
     7
 10
-8
 20
-418.5
 11
8
 21
-418.5
  0
LINE
  8
0
  6
CONTINUOUS
 62
     7
 10
92.989990234375
 20
-520.9497680664062
 11
92.989990234375
 21
-509.0502319335937
  0
LINE
  8
0
  6
CONTINUOUS
 62
     7
 10
84.989990234375
 20
-521.7359619140625
 11
84.989990234375
 21
-508.2640686035156
  0
LINE
  8
0
  6
CONTINUOUS
 62
     7
 10
84.98995971679687
 20
-521.7359619140625
 11
79.99996948242188
 21
-521.5800170898438
  0
LINE
  8
0
  6
CONTINUOUS
 62
     7
 10
84.989990234375
 20
-508.2640686035156
 11
80
 21
-508.4199829101563
  0
LINE
  8
0
  6
CONTINUOUS
 62
     7
 10
92.989990234375
 20
-520.9497680664062
 11
84.989990234375
 21
-520.9497680664062
  0
LINE
  8
0
  6
CONTINUOUS
 62
     7
 10
92.989990234375
 20
-509.0502319335937
 11
84.989990234375
 21
-509.0502319335937
  0
LINE
  8
0
  6
CONTINUOUS
 62
     7
 10
100.489990234375
 20
-455.9497680664063
 11
100.489990234375
 21
-444.0502319335937
  0
LINE
  8
0
  6
CONTINUOUS
 62
     7
 10
92.489990234375
 20
-456.7359313964844
 11
92.489990234375
 21
-443.2640686035156
  0
LINE
  8
0
  6
CONTINUOUS
 62
     7
 10
92.49000549316406
 20
-456.7359313964844
 11
87.25281524658203
 21
-456.572265625
  0
LINE
  8
0
  6
CONTINUOUS
 62
     7
 10
92.49000549316406
 20
-443.2640380859375
 11
87.25281524658203
 21
-443.4277038574219
  0
LINE
  8
0
  6
CONTINUOUS
 62
     7
 10
100.489990234375
 20
-455.9497680664063
 11
92.489990234375
 21
-455.9497680664063
  0
LINE
  8
0
  6
CONTINUOUS
 62
     7
 10
100.489990234375
 20
-444.0502319335937
 11
92.489990234375
 21
-444.0502319335937
  0
LINE
  8
0
  6
CONTINUOUS
 62
     3
 10
-56.2916259765625
 20
-417.4999694824219
 11
-73.61213684082031
 21
-407.4999694824219
  0
LINE
  8
0
  6
CONTINUOUS
 62
     3
 10
56.29155731201172
 20
-417.4999694824219
 11
73.61206817626953
 21
-407.4999694824219
  0
LINE
  8
0
  6
CONTINUOUS
 62
     3
 10
56.29160690307617
 20
-482.4999694824219
 11
73.61211395263672
 21
-492.4999694824219
  0
LINE
  8
0
  6
CONTINUOUS
 62
     3
 10
-56.29169845581055
 20
-482.4999084472656
 11
-73.61220550537109
 21
-492.4999084472656
  0
LINE
  8
0
  6
CONTINUOUS
 62
     7
 10
84.989990234375
 20
-515
 11
92.989990234375
 21
-515
  0
LINE
  8
0
  6
CONTINUOUS
 62
     3
 10
92.98995208740234
 20
-509.05029296875
 11
84.98996734619141
 21
-515
  0
LINE
  8
0
  6
CONTINUOUS
 62
     3
 10
84.98995971679687
 20
-509.0502319335937
 11
92.98993682861328
 21
-515
  0
LINE
  8
0
  6
CONTINUOUS
 62
     3
 10
92.98997497558594
 20
-515
 11
84.989990234375
 21
-520.9497680664062
  0
LINE
  8
0
  6
CONTINUOUS
 62
     3
 10
84.99000549316406
 20
-514.9999389648438
 11
92.989990234375
 21
-520.94970703125
  0
LINE
  8
0
  6
CONTINUOUS
 62
     3
 10
92.48996734619141
 20
-450.0000610351562
 11
100.4899749755859
 21
-444.05029296875
  0
LINE
  8
0
  6
CONTINUOUS
 62
     3
 10
92.48996734619141
 20
-444.0502624511719
 11
100.4899978637695
 21
-450.0000305175781
  0
LINE
  8
0
  6
CONTINUOUS
 62
     7
 10
100.489990234375
 20
-450
 11
92.489990234375
 21
-450
  0
LINE
  8
0
  6
CONTINUOUS
 62
     3
 10
92.49001312255859
 20
-450
 11
100.489990234375
 21
-455.9497375488281
  0
LINE
  8
0
  6
CONTINUOUS
 62
     3
 10
100.4900054931641
 20
-449.9999694824219
 11
92.49002838134766
 21
-455.94970703125
  0
LINE
  8
0
  6
CONTINUOUS
 62
     7
 10
-10.99948883056641
 20
-333.0158386230469
 11
-11.74819850921631
 21
-335.6016540527344
  0
LINE
  8
0
  6
CONTINUOUS
 62
     7
 10
111.4677658081055
 20
-412.8352966308594
 11
108.902587890625
 21
-413.051025390625
  0
LINE
  8
0
  6
CONTINUOUS
 62
     7
 10
114.2239990234375
 20
-422.447998046875
 11
111.9344482421875
 21
-423.6242980957031
  0
LINE
  8
0
  6
CONTINUOUS
 62
     7
 10
116.9838485717773
 20
-439.00048828125
 11
114.3983459472656
 21
-438.2518920898437
  0
LINE
  8
0
  6
CONTINUOUS
 62
     7
 10
-105.0982971191406
 20
-397.4590454101563
 11
-103.1321487426758
 21
-399.1201477050781
  0
LINE
  8
0
  6
CONTINUOUS
 62
     7
 10
-100.2501907348633
 20
-388.7119750976563
 11
-97.79908752441406
 21
-389.499267578125
  0
LINE
  8
0
  6
CONTINUOUS
 62
     7
 10
-111.4675979614258
 20
-412.8342590332031
 11
-108.9022369384766
 21
-413.0499877929687
  0
LINE
  8
0
  6
CONTINUOUS
 62
     7
 10
-114.2229766845703
 20
-422.4457092285156
 11
-111.9338607788086
 21
-423.6217956542969
  0
LINE
  8
0
  6
CONTINUOUS
 62
     7
 10
-116.9844284057617
 20
-438.9985656738281
 11
-114.7606430053711
 21
-438.3546752929688
  0
LINE
  8
0
  6
CONTINUOUS
 62
     7
 10
-37.16401290893555
 20
-338.5322875976562
 11
-36.94831085205078
 21
-341.0971984863281
  0
LINE
  8
0
  6
CONTINUOUS
 62
     7
 10
-27.55039596557617
 20
-335.7750549316406
 11
-26.37383079528809
 21
-338.0651245117187
  0
LINE
  8
0
  6
CONTINUOUS
 62
     7
 10
-52.53950119018555
 20
-344.9003601074219
 11
-50.8780403137207
 21
-346.866943359375
  0
LINE
  8
0
  6
CONTINUOUS
 62
     7
 10
-61.28470993041992
 20
-349.7484130859375
 11
-60.49758911132813
 21
-352.198974609375
  0
LINE
  8
0
  6
CONTINUOUS
 62
     7
 10
-74.94107818603516
 20
-359.4999389648437
 11
-72.58259582519531
 21
-360.7992858886719
  0
LINE
  8
0
  6
CONTINUOUS
 62
     7
 10
-90.49589538574219
 20
-375.0563659667969
 11
-89.19737243652344
 21
-377.4132995605469
  0
LINE
  8
0
  6
CONTINUOUS
 62
     7
 10
105.0988540649414
 20
-397.4596557617187
 11
103.1325225830078
 21
-399.1209106445312
  0
LINE
  8
0
  6
CONTINUOUS
 62
     7
 10
100.2507019042969
 20
-388.7132263183594
 11
97.79983520507813
 21
-389.5004577636719
  0
LINE
  8
0
  6
CONTINUOUS
 62
     7
 10
90.49784851074219
 20
-375.0578308105469
 11
89.19902038574219
 21
-377.4153137207031
  0
LINE
  8
0
  6
CONTINUOUS
 62
     7
 10
4.000015735626221
 20
-324.7510986328125
 11
7.98656177520752
 21
-325.5218200683594
  0
LINE
  8
0
  6
CONTINUOUS
 62
     7
 10
4
 20
-295
 11
4
 21
-330.1000061035156
  0
LINE
  8
0
  6
CONTINUOUS
 62
     7
 10
-4.000010013580322
 20
-324.7510986328125
 11
-7.986556529998779
 21
-325.5218200683594
  0
LINE
  8
0
  6
CONTINUOUS
 62
     7
 10
-4
 20
-295
 11
-4
 21
-330.1000061035156
  0
LINE
  8
0
  6
CONTINUOUS
 62
     7
 10
-21.30067443847656
 20
-321.8573608398437
 11
-37.02910614013672
 21
-325.4885559082031
  0
LINE
  8
0
  6
CONTINUOUS
 62
     7
 10
-21.30065155029297
 20
-321.8573303222656
 11
-19.27609443664551
 21
-330.6266479492188
  0
LINE
  8
0
  6
CONTINUOUS
 62
     7
 10
8.940580368041992
 20
-326.4916076660156
 11
10.0763463973999
 21
-332.932861328125
  0
LINE
  8
0
  6
CONTINUOUS
 62
     7
 10
-8.940492630004883
 20
-326.4916076660156
 11
-10.07625198364258
 21
-332.9328308105469
  0
LINE
  8
0
  6
CONTINUOUS
 62
     7
 10
-18.85079193115234
 20
-330.5284729003906
 11
-35.42983245849609
 21
-334.3560180664063
  0
LINE
  8
0
  6
CONTINUOUS
 62
     7
 10
-18.85076141357422
 20
-330.5284423828125
 11
-17.69318389892578
 21
-336.3692626953125
  0
LINE
  8
0
  6
CONTINUOUS
 62
     7
 10
-35.42977523803711
 20
-334.3560791015625
 11
-34.54849624633789
 21
-337.6939697265625
  0
LINE
  8
0
  6
CONTINUOUS
 62
     7
 10
-37.02910614013672
 20
-325.488525390625
 11
-35.00455093383789
 21
-334.2578430175781
  0
LINE
  8
0
  6
CONTINUOUS
 62
     3
 10
-37.02908325195312
 20
-325.4884948730469
 11
-27.14031410217285
 21
-332.4422302246094
  0
LINE
  8
0
  6
CONTINUOUS
 62
     7
 10
-27.14035415649414
 20
-332.4422607421875
 11
-29.1649112701416
 21
-323.6729431152344
  0
LINE
  8
0
  6
CONTINUOUS
 62
     3
 10
-29.16485786437988
 20
-323.6729431152344
 11
-19.27608871459961
 21
-330.6266784667969
  0
LINE
  8
0
  6
CONTINUOUS
 62
     3
 10
-21.3006534576416
 20
-321.8572998046875
 11
-27.14031028747559
 21
-332.4422302246094
  0
LINE
  8
0
  6
CONTINUOUS
 62
     3
 10
-29.16489028930664
 20
-323.6729125976563
 11
-35.00454711914062
 21
-334.2578430175781
  0
LINE
  8
0
  6
CONTINUOUS
 62
     3
 10
-25.869384765625
 20
-337.9474487304687
 11
-29.95162200927734
 21
-320.2653198242187
  0
LINE
  8
0
  6
CONTINUOUS
 62
     3
 10
280
 20
0
 11
665
 21
0
  0
LINE
  8
0
  6
CONTINUOUS
 62
     7
 10
410
 20
87.5
 11
410
 21
-87.5
  0
LINE
  8
0
  6
CONTINUOUS
 62
     7
 10
472
 20
122.9729614257813
 11
472
 21
-122.9729919433594
  0
LINE
  8
0
  6
CONTINUOUS
 62
     7
 10
398
 20
87.5
 11
429.9999694824219
 21
87.5
  0
LINE
  8
0
  6
CONTINUOUS
 62
     7
 10
429.9999694824219
 20
87.49995422363281
 11
449.2616882324219
 21
88.50941467285156
  0
LINE
  8
0
  6
CONTINUOUS
 62
     7
 10
454
 20
137.5
 11
454
 21
-137.5
  0
LINE
  8
0
  6
CONTINUOUS
 62
     7
 10
398
 20
87.5
 11
398
 21
-87.5
  0
LINE
  8
0
  6
CONTINUOUS
 62
     7
 10
386
 20
55
 11
386
 21
-55
  0
LINE
  8
0
  6
CONTINUOUS
 62
     7
 10
398
 20
-87.5
 11
429.9999694824219
 21
-87.5
  0
LINE
  8
0
  6
CONTINUOUS
 62
     7
 10
430
 20
-87.50002288818359
 11
449.2616882324219
 21
-88.50948333740234
  0
LINE
  8
0
  6
CONTINUOUS
 62
     7
 10
395
 20
127.5
 11
395
 21
82.5
  0
LINE
  8
0
  6
CONTINUOUS
 62
     7
 10
405
 20
137.5
 11
585
 21
137.5
  0
LINE
  8
0
  6
CONTINUOUS
 62
     7
 10
405
 20
-137.5
 11
585
 21
-137.5
  0
LINE
  8
0
  6
CONTINUOUS
 62
     7
 10
395
 20
-82.5
 11
395
 21
-127.5
  0
LINE
  8
0
  6
CONTINUOUS
 62
     7
 10
595
 20
-95.6080322265625
 11
595
 21
-127.5
  0
LINE
  8
0
  6
CONTINUOUS
 62
     3
 10
405
 20
112.4999389648438
 11
435
 21
112.4999389648438
  0
LINE
  8
0
  6
CONTINUOUS
 62
     3
 10
420
 20
127.4999389648437
 11
420
 21
97.49993896484375
  0
LINE
  8
0
  6
CONTINUOUS
 62
     3
 10
420
 20
-97.50006103515625
 11
420
 21
-127.5000610351562
  0
LINE
  8
0
  6
CONTINUOUS
 62
     3
 10
405
 20
-112.5000610351562
 11
435
 21
-112.5000610351562
  0
LINE
  8
0
  6
CONTINUOUS
 62
     3
 10
570
 20
-97.50006103515625
 11
570
 21
-127.5000610351562
  0
LINE
  8
0
  6
CONTINUOUS
 62
     3
 10
555
 20
-112.5000610351562
 11
585
 21
-112.5000610351562
  0
LINE
  8
0
  6
CONTINUOUS
 62
     3
 10
570
 20
127.4999389648437
 11
570
 21
97.49993896484375
  0
LINE
  8
0
  6
CONTINUOUS
 62
     3
 10
555
 20
112.4999389648438
 11
585
 21
112.4999389648438
  0
LINE
  8
0
  6
CONTINUOUS
 62
     7
 10
300
 20
27.5
 11
300
 21
-27.5
  0
LINE
  8
0
  6
CONTINUOUS
 62
     7
 10
300
 20
27.5
 11
380
 21
27.5
  0
LINE
  8
0
  6
CONTINUOUS
 62
     7
 10
300
 20
-27.5
 11
380
 21
-27.5
  0
LINE
  8
0
  6
CONTINUOUS
 62
     7
 10
380
 20
32.5
 11
386
 21
32.5
  0
LINE
  8
0
  6
CONTINUOUS
 62
     7
 10
380
 20
-32.5
 11
386
 21
-32.5
  0
LINE
  8
0
  6
CONTINUOUS
 62
     7
 10
380
 20
32.5
 11
380
 21
-32.5
  0
LINE
  8
0
  6
CONTINUOUS
 62
     7
 10
300
 20
8
 11
367
 21
8
  0
LINE
  8
0
  6
CONTINUOUS
 62
     7
 10
300
 20
-8
 11
367
 21
-8
  0
LINE
  8
0
  6
CONTINUOUS
 62
     7
 10
386
 20
55.00003814697266
 11
398
 21
87.50000762939453
  0
LINE
  8
0
  6
CONTINUOUS
 62
     7
 10
385.9999694824219
 20
-54.99995040893555
 11
398
 21
-87.49997711181641
  0
LINE
  8
0
  6
CONTINUOUS
 62
     3
 10
440
 20
-79.70263671875
 11
440
 21
-107.5
  0
LINE
  8
0
  6
CONTINUOUS
 62
     7
 10
553.320068359375
 20
-78.69437408447266
 11
587.067138671875
 21
-85.82402801513672
  0
LINE
  8
0
  6
CONTINUOUS
 62
     7
 10
553.320068359375
 20
78.69437408447266
 11
587.0670776367187
 21
85.82402038574219
  0
LINE
  8
0
  6
CONTINUOUS
 62
     7
 10
595
 20
95.6080322265625
 11
595
 21
127.5
  0
LINE
  8
0
  6
CONTINUOUS
 62
     7
 10
434.0502624511719
 20
-100.489990234375
 11
445.9497375488281
 21
-100.489990234375
  0
LINE
  8
0
  6
CONTINUOUS
 62
     7
 10
433.2640686035156
 20
-92.489990234375
 11
446.7359313964844
 21
-92.489990234375
  0
LINE
  8
0
  6
CONTINUOUS
 62
     7
 10
433.2640686035156
 20
-92.48994445800781
 11
433.4143981933594
 21
-87.67887878417969
  0
LINE
  8
0
  6
CONTINUOUS
 62
     7
 10
446.7359313964844
 20
-92.49000549316406
 11
446.6072082519531
 21
-88.37030792236328
  0
LINE
  8
0
  6
CONTINUOUS
 62
     7
 10
434.0502624511719
 20
-100.489990234375
 11
434.0502624511719
 21
-92.489990234375
  0
LINE
  8
0
  6
CONTINUOUS
 62
     7
 10
445.9497375488281
 20
-100.489990234375
 11
445.9497375488281
 21
-92.489990234375
  0
LINE
  8
0
  6
CONTINUOUS
 62
     7
 10
472
 20
122.9729614257813
 11
538.64013671875
 21
137.4999847412109
  0
LINE
  8
0
  6
CONTINUOUS
 62
     7
 10
472
 20
-122.9729995727539
 11
538.64013671875
 21
-137.5000152587891
  0
LINE
  8
0
  6
CONTINUOUS
 62
     3
 10
434.05029296875
 20
-92.49000549316406
 11
440
 21
-100.4899978637695
  0
LINE
  8
0
  6
CONTINUOUS
 62
     7
 10
440
 20
-92.489990234375
 11
440
 21
-100.489990234375
  0
LINE
  8
0
  6
CONTINUOUS
 62
     3
 10
440
 20
-92.48996734619141
 11
434.0502624511719
 21
-100.4899826049805
  0
LINE
  8
0
  6
CONTINUOUS
 62
     3
 10
440
 20
-92.48999786376953
 11
445.9497375488281
 21
-100.4899826049805
  0
LINE
  8
0
  6
CONTINUOUS
 62
     3
 10
445.9497375488281
 20
-92.48999786376953
 11
440.0000305175781
 21
-100.4899826049805
  0
LINE
  8
0
  6
CONTINUOUS
 62
     7
 10
363
 20
8
 11
363
 21
-8
  0
LINE
  8
0
  6
CONTINUOUS
 62
     7
 10
476.0000305175781
 20
117.5
 11
520
 21
117.5
  0
LINE
  8
0
  6
CONTINUOUS
 62
     7
 10
476.0000305175781
 20
-117.5
 11
520
 21
-117.5
  0
LINE
  8
0
  6
CONTINUOUS
 62
     7
 10
472.0000305175781
 20
113.4999694824219
 11
476.0000305175781
 21
117.4999694824219
  0
LINE
  8
0
  6
CONTINUOUS
 62
     7
 10
519.9998779296875
 20
117.4999542236328
 11
523.9998779296875
 21
113.4999465942383
  0
LINE
  8
0
  6
CONTINUOUS
 62
     7
 10
524
 20
-113.5000305175781
 11
520
 21
-117.5000305175781
  0
LINE
  8
0
  6
CONTINUOUS
 62
     7
 10
476.0001220703125
 20
-117.4999160766602
 11
472.0000915527344
 21
-113.4998779296875
  0
LINE
  8
0
  6
CONTINUOUS
 62
     7
 10
476
 20
111.4676513671875
 11
520
 21
111.4676513671875
  0
LINE
  8
0
  6
CONTINUOUS
 62
     7
 10
476
 20
105.0982666015625
 11
520
 21
105.0982666015625
  0
LINE
  8
0
  6
CONTINUOUS
 62
     7
 10
476
 20
100.2501831054688
 11
520
 21
100.2501831054688
  0
LINE
  8
0
  6
CONTINUOUS
 62
     7
 10
476
 20
90.495849609375
 11
520
 21
90.495849609375
  0
LINE
  8
0
  6
CONTINUOUS
 62
     7
 10
476
 20
74.94110107421875
 11
520
 21
74.94110107421875
  0
LINE
  8
0
  6
CONTINUOUS
 62
     7
 10
476
 20
61.28469848632813
 11
520
 21
61.28469848632813
  0
LINE
  8
0
  6
CONTINUOUS
 62
     7
 10
476
 20
52.53948974609375
 11
520
 21
52.53948974609375
  0
LINE
  8
0
  6
CONTINUOUS
 62
     7
 10
476
 20
37.16400146484375
 11
520
 21
37.16400146484375
  0
LINE
  8
0
  6
CONTINUOUS
 62
     7
 10
476
 20
27.5504150390625
 11
520
 21
27.5504150390625
  0
LINE
  8
0
  6
CONTINUOUS
 62
     7
 10
476
 20
10.99948120117188
 11
520
 21
10.99948120117188
  0
LINE
  8
0
  6
CONTINUOUS
 62
     7
 10
476
 20
-90.49783325195313
 11
520
 21
-90.49783325195313
  0
LINE
  8
0
  6
CONTINUOUS
 62
     7
 10
476
 20
-100.2507019042969
 11
520
 21
-100.2507019042969
  0
LINE
  8
0
  6
CONTINUOUS
 62
     7
 10
476
 20
-105.0988464355469
 11
520
 21
-105.0988464355469
  0
LINE
  8
0
  6
CONTINUOUS
 62
     7
 10
476
 20
-111.4677429199219
 11
520
 21
-111.4677429199219
  0
LINE
  8
0
  6
CONTINUOUS
 62
     7
 10
524
 20
115
 11
524
 21
4
  0
LINE
  8
0
  6
CONTINUOUS
 62
     7
 10
595
 20
34.99996948242187
 11
595
 21
-35
  0
LINE
  8
0
  6
CONTINUOUS
 62
     7
 10
577
 20
55
 11
577
 21
-55
  0
LINE
  8
0
  6
CONTINUOUS
 62
     7
 10
595.0000610351563
 20
34.99995803833008
 11
589.0000610351562
 21
38.46406936645508
  0
LINE
  8
0
  6
CONTINUOUS
 62
     7
 10
595
 20
-34.99993896484375
 11
589.0000610351562
 21
-38.46403503417969
  0
LINE
  8
0
  6
CONTINUOUS
 62
     7
 10
589
 20
55
 11
589
 21
-55
  0
LINE
  8
0
  6
CONTINUOUS
 62
     7
 10
589
 20
55
 11
569.88671875
 21
55
  0
LINE
  8
0
  6
CONTINUOUS
 62
     7
 10
589
 20
-55
 11
569.88671875
 21
-55
  0
LINE
  8
0
  6
CONTINUOUS
 62
     7
 10
565.5565795898437
 20
57.50005340576172
 11
551.1228637695313
 21
82.50003814697266
  0
LINE
  8
0
  6
CONTINUOUS
 62
     7
 10
565.556640625
 20
-57.50001525878906
 11
551.1228637695313
 21
-82.50003814697266
  0
LINE
  8
0
  6
CONTINUOUS
 62
     7
 10
551.1228637695313
 20
-82.5
 11
547
 21
-82.5
  0
LINE
  8
0
  6
CONTINUOUS
 62
     7
 10
542
 20
115
 11
542
 21
12.58737182617188
  0
LINE
  8
0
  6
CONTINUOUS
 62
     7
 10
542
 20
-115
 11
524
 21
-115
  0
LINE
  8
0
  6
CONTINUOUS
 62
     7
 10
542
 20
115
 11
524
 21
115
  0
LINE
  8
0
  6
CONTINUOUS
 62
     7
 10
551.1228637695313
 20
82.5
 11
547
 21
82.5
  0
LINE
  8
0
  6
CONTINUOUS
 62
     7
 10
551
 20
-48.60107421875
 11
551
 21
-4
  0
LINE
  8
0
  6
CONTINUOUS
 62
     7
 10
542
 20
-50.92422485351563
 11
542
 21
-115
  0
LINE
  8
0
  6
CONTINUOUS
 62
     7
 10
645
 20
14
 11
645
 21
-14
  0
LINE
  8
0
  6
CONTINUOUS
 62
     7
 10
645
 20
-14
 11
600
 21
-14
  0
LINE
  8
0
  6
CONTINUOUS
 62
     7
 10
645
 20
14
 11
600
 21
14
  0
LINE
  8
0
  6
CONTINUOUS
 62
     7
 10
600
 20
17.5
 11
600
 21
-17.5
  0
LINE
  8
0
  6
CONTINUOUS
 62
     7
 10
600
 20
17.5
 11
595
 21
17.5
  0
LINE
  8
0
  6
CONTINUOUS
 62
     7
 10
600
 20
-17.5
 11
595
 21
-17.5
  0
LINE
  8
0
  6
CONTINUOUS
 62
     7
 10
645
 20
4
 11
606
 21
4
  0
LINE
  8
0
  6
CONTINUOUS
 62
     7
 10
645
 20
-4
 11
606
 21
-4
  0
LINE
  8
0
  6
CONTINUOUS
 62
     7
 10
551.1229248046875
 20
82.5
 11
551.1229248046875
 21
21.26470947265625
  0
LINE
  8
0
  6
CONTINUOUS
 62
     7
 10
551.1229248046875
 20
-50.8624267578125
 11
551.1229248046875
 21
-82.49996948242188
  0
LINE
  8
0
  6
CONTINUOUS
 62
     7
 10
609
 20
4
 11
609
 21
-4
  0
LINE
  8
0
  6
CONTINUOUS
 62
     7
 10
522.5
 20
4
 11
555.5
 21
4
  0
LINE
  8
0
  6
CONTINUOUS
 62
     7
 10
522.5
 20
-4
 11
555.5
 21
-4
  0
LINE
  8
0
  6
CONTINUOUS
 62
     7
 10
542
 20
12.58734226226807
 11
551
 21
10.05743312835693
  0
LINE
  8
0
  6
CONTINUOUS
 62
     7
 10
550.9999389648437
 20
-48.60105895996094
 11
541.9999389648437
 21
-50.92420196533203
  0
LINE
  8
0
  6
CONTINUOUS
 62
     7
 10
541.9999389648437
 20
21.90391540527344
 11
550.9999389648437
 21
19.22238922119141
  0
LINE
  8
0
  6
CONTINUOUS
 62
     7
 10
551
 20
4
 11
551
 21
19.222412109375
  0
LINE
  8
0
  6
CONTINUOUS
 62
     3
 10
539
 20
-38.84573364257813
 11
539
 21
-14.51168823242187
  0
LINE
  8
0
  6
CONTINUOUS
 62
     7
 10
530.5147094726563
 20
-25.86933326721191
 11
538.9999389648438
 21
-17.38405227661133
  0
LINE
  8
0
  6
CONTINUOUS
 62
     7
 10
539
 20
-34.35464859008789
 11
547.4852905273437
 21
-25.86936569213867
  0
LINE
  8
0
  6
CONTINUOUS
 62
     7
 10
538.9999389648438
 20
-17.38405227661133
 11
547.4852294921875
 21
-25.86933326721191
  0
LINE
  8
0
  6
CONTINUOUS
 62
     7
 10
530.5147094726563
 20
-25.86931228637695
 11
538.9999389648438
 21
-34.35459518432617
  0
LINE
  8
0
  6
CONTINUOUS
 62
     7
 10
524
 20
-115
 11
524
 21
-4
  0
LINE
  8
0
  6
CONTINUOUS
 62
     3
 10
526.0236206054688
 20
-25.86935424804688
 11
550.357666015625
 21
-25.86935424804688
  0
LINE
  8
0
  6
CONTINUOUS
 62
     7
 10
511.1908569335937
 20
-311.5
 11
566.29248046875
 21
-311.5
  0
ARC
  8
0
  6
CONTINUOUS
 62
     7
 10
430
 20
-525
 40
4.999999999999981
 50
179.9999776882003
 51
270.0000280040023
  0
ARC
  8
0
  6
CONTINUOUS
 62
     7
 10
420
 20
-490.443603515625
 40
5
 50
0
 51
89.99998201391097
  0
ARC
  8
0
  6
CONTINUOUS
 62
     7
 10
449
 20
-356.4973754882813
 40
4.999999999999978
 50
273.0000897865582
 51
0
  0
ARC
  8
0
  6
CONTINUOUS
 62
     7
 10
415.0901184082031
 20
-505.6014709472656
 40
5.00000000000001
 50
355.0000479567779
 51
89.99998201391097
  0
ARC
  8
0
  6
CONTINUOUS
 62
     7
 10
410.4183349609375
 20
-559
 40
5.000000000000004
 50
269.9999974955215
 51
354.9999967303589
  0
CIRCLE
  8
0
  6
CONTINUOUS
 62
     3
 10
440
 20
-450
 40
6.735937595367432
  0
CIRCLE
  8
0
  6
CONTINUOUS
 62
     3
 10
440
 20
-515
 40
6.735937595367432
  0
ARC
  8
0
  6
CONTINUOUS
 62
     7
 10
553.6941528320313
 20
-529
 40
35.00000000000004
 50
219.0000063216013
 51
269.9999974955218
  0
ARC
  8
0
  6
CONTINUOUS
 62
     7
 10
449
 20
-559
 40
5.000000000000004
 50
269.9999974955215
 51
0
  0
ARC
  8
0
  6
CONTINUOUS
 62
     7
 10
569.88671875
 20
-390
 40
5.000000000000044
 50
210.0000163164373
 51
269.9999838351438
  0
ARC
  8
0
  6
CONTINUOUS
 62
     7
 10
569.88671875
 20
-510
 40
4.999999999999972
 50
90.00001616485616
 51
149.9999836835628
  0
ARC
  8
0
  6
CONTINUOUS
 62
     7
 10
547
 20
-537.5
 40
4.999999999999972
 50
90.00001616485616
 51
180.0000050089569
  0
ARC
  8
0
  6
CONTINUOUS
 62
     7
 10
556
 20
-365.9474792480469
 40
4.999999999999943
 50
180.0000086514221
 51
210.0000163164373
  0
ARC
  8
0
  6
CONTINUOUS
 62
     7
 10
539
 20
-311.5
 40
20.50000000000002
 50
298.9583330102184
 51
241.7845165426792
  0
ARC
  8
0
  6
CONTINUOUS
 62
     7
 10
539
 20
-311.5
 40
12.5
 50
0
 51
256.8639076639099
  0
ARC
  8
0
  6
CONTINUOUS
 62
     7
 10
539
 20
-311.5
 40
12.49999999999998
 50
283.1360905148572
 51
0
  0
ARC
  8
0
  6
CONTINUOUS
 62
     7
 10
0
 20
-450
 40
27.50000000000001
 50
106.9124114932652
 51
73.08759670341468
  0
ARC
  8
0
  6
CONTINUOUS
 62
     7
 10
0
 20
-450
 40
115
 50
10.25839430313097
 51
169.7416209511091
  0
ARC
  8
0
  6
CONTINUOUS
 62
     7
 10
69.5
 20
-590
 40
3
 50
0
 51
89.9999820139107
  0
ARC
  8
0
  6
CONTINUOUS
 62
     7
 10
-69.5
 20
-590
 40
3.000000000000034
 50
89.9999820139107
 51
179.9999640278219
  0
ARC
  8
0
  6
CONTINUOUS
 62
     7
 10
-56.41864013671875
 20
-523.302001953125
 40
4.999999999999963
 50
52.41528833221685
 51
164.9998714028546
  0
ARC
  8
0
  6
CONTINUOUS
 62
     7
 10
-75.46356201171875
 20
-503.4930114746094
 40
5.000000000000007
 50
345.00003544108
 51
35.33142793488474
  0
ARC
  8
0
  6
CONTINUOUS
 62
     7
 10
56.41864013671875
 20
-523.302001953125
 40
4.999999999999997
 50
15.00014555893286
 51
127.5847235069286
  0
ARC
  8
0
  6
CONTINUOUS
 62
     7
 10
75.46356201171875
 20
-503.4929809570312
 40
4.99999999999999
 50
144.6687341684228
 51
194.999933709383
  0
ARC
  8
0
  6
CONTINUOUS
 62
     7
 10
-90.33660888671875
 20
-559
 40
5.000000000000019
 50
270.0000179860893
 51
344.9999381108851
  0
ARC
  8
0
  6
CONTINUOUS
 62
     7
 10
90.33660888671875
 20
-559
 40
4.999999999999988
 50
194.9999510122265
 51
270.0000179860893
  0
ARC
  8
0
  6
CONTINUOUS
 62
     3
 10
0
 20
-450
 40
105
 50
332.034924254785
 51
342.9649617948546
  0
ARC
  8
0
  6
CONTINUOUS
 62
     3
 10
0
 20
-450
 40
105
 50
62.03496091020903
 51
72.96500528046778
  0
ARC
  8
0
  6
CONTINUOUS
 62
     3
 10
0
 20
-450
 40
105
 50
107.0349587473535
 51
117.9650031176123
  0
ARC
  8
0
  6
CONTINUOUS
 62
     3
 10
0
 20
-450
 40
105
 50
152.0349839052547
 51
162.9650214453243
  0
ARC
  8
0
  6
CONTINUOUS
 62
     3
 10
0
 20
-450
 40
105
 50
197.034992215054
 51
207.9650297551236
  0
ARC
  8
0
  6
CONTINUOUS
 62
     3
 10
0
 20
-450
 40
105
 50
17.03496478061181
 51
27.96500744332328
  0
ARC
  8
0
  6
CONTINUOUS
 62
     3
 10
0
 20
-450
 40
105
 50
287.0349264176405
 51
297.9649639577101
  0
ARC
  8
0
  6
CONTINUOUS
 62
     3
 10
0
 20
-450
 40
105
 50
242.034928580496
 51
252.9649661205656
  0
CIRCLE
  8
0
  6
CONTINUOUS
 62
     7
 10
0
 20
-450
 40
87.5
  0
ARC
  8
0
  6
CONTINUOUS
 62
     7
 10
-64.951904296875
 20
-412.5
 40
12.99999999999999
 50
225.541059923669
 51
74.45884961421962
  0
ARC
  8
0
  6
CONTINUOUS
 62
     3
 10
0
 20
-450
 40
75
 50
142.3549119644325
 51
157.6451100442064
  0
ARC
  8
0
  6
CONTINUOUS
 62
     7
 10
0
 20
-375
 40
13.00000000000001
 50
165.5410136304162
 51
14.45902871720947
  0
ARC
  8
0
  6
CONTINUOUS
 62
     3
 10
0
 20
-450
 40
74.99999999999999
 50
82.35491029478037
 51
97.64511520474348
  0
ARC
  8
0
  6
CONTINUOUS
 62
     7
 10
64.951904296875
 20
-412.5
 40
13
 50
105.5411690551151
 51
314.4589041041523
  0
ARC
  8
0
  6
CONTINUOUS
 62
     3
 10
0
 20
-450
 40
75.00000000000001
 50
22.3549017949391
 51
37.64509987471304
  0
ARC
  8
0
  6
CONTINUOUS
 62
     7
 10
64.951904296875
 20
-487.5
 40
13.00000000000002
 50
45.54107517790922
 51
254.4588341326085
  0
ARC
  8
0
  6
CONTINUOUS
 62
     3
 10
0
 20
-450
 40
75
 50
322.3549069554762
 51
337.6451050352501
  0
ARC
  8
0
  6
CONTINUOUS
 62
     7
 10
0
 20
-525
 40
13.00000000000001
 50
345.5409778856085
 51
194.458982727118
  0
ARC
  8
0
  6
CONTINUOUS
 62
     3
 10
0
 20
-450
 40
75
 50
262.3549121160132
 51
277.6451101957871
  0
CIRCLE
  8
0
  6
CONTINUOUS
 62
     7
 10
0
 20
-450
 40
55
  0
ARC
  8
0
  6
CONTINUOUS
 62
     7
 10
-64.951904296875
 20
-487.5
 40
13.00000000000002
 50
285.541136725402
 51
134.458940076331
  0
ARC
  8
0
  6
CONTINUOUS
 62
     3
 10
0
 20
-450
 40
75
 50
202.3549172765502
 51
217.6451153563242
  0
ARC
  8
0
  6
CONTINUOUS
 62
     7
 10
0
 20
-450
 40
117.5
 50
13.56117240365202
 51
18.43890333431878
  0
ARC
  8
0
  6
CONTINUOUS
 62
     7
 10
0
 20
-450
 40
117.5
 50
39.62837165872587
 51
95.3717413810181
  0
ARC
  8
0
  6
CONTINUOUS
 62
     7
 10
0
 20
-450
 40
117.5
 50
358.4180522023705
 51
5.371741437860853
  0
ARC
  8
0
  6
CONTINUOUS
 62
     7
 10
0
 20
-450
 40
117.5
 50
148.5611496933862
 51
153.4388609872591
  0
ARC
  8
0
  6
CONTINUOUS
 62
     7
 10
0
 20
-450
 40
117.5
 50
161.5611580236982
 51
166.4388693175711
  0
ARC
  8
0
  6
CONTINUOUS
 62
     7
 10
0
 20
-450
 40
117.5
 50
174.6282661324164
 51
181.5817265565695
  0
ARC
  8
0
  6
CONTINUOUS
 62
     7
 10
0
 20
-450
 40
117.5
 50
103.5611586864309
 51
108.4388699803038
  0
ARC
  8
0
  6
CONTINUOUS
 62
     7
 10
0
 20
-450
 40
117.5
 50
116.5611670167429
 51
121.4388783106158
  0
ARC
  8
0
  6
CONTINUOUS
 62
     7
 10
0
 20
-450
 40
117.5
 50
129.6282751254611
 51
140.3717528785409
  0
ARC
  8
0
  6
CONTINUOUS
 62
     7
 10
0
 20
-450
 40
117.5
 50
26.56108425754197
 51
31.43879725896217
  0
ARC
  8
0
  6
CONTINUOUS
 62
     7
 10
7.7587890625
 20
-326.7000122070313
 40
1.20000004768372
 50
10.00000056286759
 51
79.05805311449633
  0
ARC
  8
0
  6
CONTINUOUS
 62
     7
 10
0
 20
-295
 40
4
 50
0
 51
179.9999640278211
  0
ARC
  8
0
  6
CONTINUOUS
 62
     7
 10
5.20001220703125
 20
-330.1000061035156
 40
1.200000047683716
 50
179.9999776881984
 51
270.000028004002
  0
ARC
  8
0
  6
CONTINUOUS
 62
     7
 10
-5.20001220703125
 20
-330.1000061035156
 40
1.200000047683734
 50
269.999963344576
 51
0
  0
ARC
  8
0
  6
CONTINUOUS
 62
     7
 10
-7.7587890625
 20
-326.7000122070313
 40
1.200000047683729
 50
100.9419109133251
 51
169.9999660262759
  0
ARC
  8
0
  6
CONTINUOUS
 62
     7
 10
449
 20
93.50262451171875
 40
5.000000000000006
 50
273.0000897865582
 51
0
  0
ARC
  8
0
  6
CONTINUOUS
 62
     7
 10
449
 20
-93.50262451171875
 40
5
 50
359.9999453584866
 51
86.99985557192848
  0
ARC
  8
0
  6
CONTINUOUS
 62
     7
 10
405
 20
127.5
 40
10.00000000000001
 50
89.99998201391064
 51
179.9999640278213
  0
ARC
  8
0
  6
CONTINUOUS
 62
     7
 10
585
 20
127.5
 40
10
 50
0
 51
89.99998201391097
  0
ARC
  8
0
  6
CONTINUOUS
 62
     7
 10
405
 20
-127.5
 40
10.00000000000002
 50
179.9999776881996
 51
270.0000280040019
  0
ARC
  8
0
  6
CONTINUOUS
 62
     7
 10
585
 20
-127.5
 40
10.00000000000001
 50
270.0000179860891
 51
0
  0
ARC
  8
0
  6
CONTINUOUS
 62
     7
 10
405
 20
-82.5
 40
10.00000000000001
 50
166.349516782849
 51
179.9999640278213
  0
ARC
  8
0
  6
CONTINUOUS
 62
     7
 10
405
 20
82.5
 40
10.00000000000002
 50
179.9999776881996
 51
193.6504795746853
  0
ARC
  8
0
  6
CONTINUOUS
 62
     7
 10
367
 20
0
 40
8
 50
270.0000179860895
 51
89.99998201391055
  0
CIRCLE
  8
0
  6
CONTINUOUS
 62
     7
 10
420
 20
112.4999389648438
 40
9.5
  0
CIRCLE
  8
0
  6
CONTINUOUS
 62
     7
 10
570
 20
112.4999389648438
 40
9.5
  0
CIRCLE
  8
0
  6
CONTINUOUS
 62
     7
 10
570
 20
-112.5000610351562
 40
9.5
  0
CIRCLE
  8
0
  6
CONTINUOUS
 62
     7
 10
420
 20
-112.5000610351562
 40
9.5
  0
ARC
  8
0
  6
CONTINUOUS
 62
     7
 10
585
 20
-95.6080322265625
 40
10
 50
0
 51
78.07068779826812
  0
ARC
  8
0
  6
CONTINUOUS
 62
     7
 10
585
 20
95.6080322265625
 40
10.00000000000001
 50
281.9293122017319
 51
0
  0
ARC
  8
0
  6
CONTINUOUS
 62
     7
 10
569.88671875
 20
60
 40
5.000000000000033
 50
210.000016316437
 51
269.9999838351438
  0
ARC
  8
0
  6
CONTINUOUS
 62
     7
 10
569.88671875
 20
-60
 40
5
 50
90.00001616485616
 51
149.999983683563
  0
ARC
  8
0
  6
CONTINUOUS
 62
     7
 10
547
 20
-87.5
 40
5
 50
90.00001616485616
 51
180.0000050089563
  0
ARC
  8
0
  6
CONTINUOUS
 62
     7
 10
547
 20
87.5
 40
4.999999999999943
 50
180.0000496325571
 51
270.0000384766572
  0
ARC
  8
0
  6
CONTINUOUS
 62
     7
 10
606
 20
0
 40
4
 50
90.00001616485682
 51
269.9999733624879
  0
ARC
  8
0
  6
CONTINUOUS
 62
     7
 10
539
 20
0
 40
9.999999999999986
 50
23.57817672245736
 51
156.4218368242355
  0
ARC
  8
0
  6
CONTINUOUS
 62
     7
 10
522.5
 20
0
 40
4
 50
89.99998201391097
 51
270.0000006832446
  0
ARC
  8
0
  6
CONTINUOUS
 62
     7
 10
555.5
 20
0
 40
4
 50
270.0000179860891
 51
89.99998201391097
  0
ARC
  8
0
  6
CONTINUOUS
 62
     7
 10
539
 20
0
 40
10.00000000000001
 50
203.5781631757645
 51
336.4218232775426
  0
CIRCLE
  8
0
  6
CONTINUOUS
 62
     3
 10
539
 20
-25.86935424804688
 40
8.5
  0
POLYLINE
  8
0
  6
CONTINUOUS
 62
     7
 66
     1
 10
0
 20
0
  0
VERTEX
  8
0
  6
CONTINUOUS
 62
     7
 10
530.6785278320312
 20
-338.2412109375
 42
0.2480522437187404
  0
VERTEX
  8
0
  6
CONTINUOUS
 62
     7
 10
531.4022615201091
 20
-339.0047737744212
 42
0.04463990180284401
  0
VERTEX
  8
0
  6
CONTINUOUS
 62
     7
 10
532.4331465268995
 20
-339.3909748147285
 42
0.02127762387049398
  0
VERTEX
  8
0
  6
CONTINUOUS
 62
     7
 10
533.5056188200575
 20
-339.6471060045365
 42
0.01386136775646428
  0
VERTEX
  8
0
  6
CONTINUOUS
 62
     7
 10
534.5936613283066
 20
-339.8291876965665
 42
0.01053527000224701
  0
VERTEX
  8
0
  6
CONTINUOUS
 62
     7
 10
535.6893414543212
 20
-339.9586353467766
 42
0.008818424501914515
  0
VERTEX
  8
0
  6
CONTINUOUS
 62
     7
 10
536.7895012168528
 20
-340.0459058361581
 42
0.007913264225774472
  0
VERTEX
  8
0
  6
CONTINUOUS
 62
     7
 10
537.8920725517108
 20
-340.0964935901883
 42
0.007515637858251947
  0
VERTEX
  8
0
  6
CONTINUOUS
 62
     7
 10
538.995711138312
 20
-340.1131589310629
 42
0.007513334320918036
  0
VERTEX
  8
0
  6
CONTINUOUS
 62
     7
 10
540.0992338133782
 20
-340.0967552574146
 42
0.007906207009292371
  0
VERTEX
  8
0
  6
CONTINUOUS
 62
     7
 10
541.201524906866
 20
-340.0464608484484
 42
0.008816489354695787
  0
VERTEX
  8
0
  6
CONTINUOUS
 62
     7
 10
542.3026340643212
 20
-339.9594170000563
 42
0.01052303832001411
  0
VERTEX
  8
0
  6
CONTINUOUS
 62
     7
 10
543.3988015790047
 20
-339.8302447768854
 42
0.01384211959205962
  0
VERTEX
  8
0
  6
CONTINUOUS
 62
     7
 10
544.4877924833868
 20
-339.6484076450952
 42
0.0212632908616973
  0
VERTEX
  8
0
  6
CONTINUOUS
 62
     7
 10
545.5626088150356
 20
-339.3922005803018
 42
0.04456868700695629
  0
VERTEX
  8
0
  6
CONTINUOUS
 62
     7
 10
546.5953877359457
 20
-339.0059563536506
 42
0.2481433673068801
  0
VERTEX
  8
0
  6
CONTINUOUS
 62
     7
 10
547.3214721679688
 20
-338.2412109375
 42
0
  0
SEQEND
  8
0
  0
POLYLINE
  8
0
  6
CONTINUOUS
 62
     7
 66
     1
 10
0
 20
0
  0
VERTEX
  8
0
  6
CONTINUOUS
 62
     7
 10
530.9289888622926
 20
-331.8370852165719
 42
0.5547857798615112
  0
VERTEX
  8
0
  6
CONTINUOUS
 62
     7
 10
530.6778639034385
 20
-332.8396515583628
 42
0.103524853689159
  0
VERTEX
  8
0
  6
CONTINUOUS
 62
     7
 10
531.7345343622235
 20
-333.4379499803122
 42
0.03106252824137275
  0
VERTEX
  8
0
  6
CONTINUOUS
 62
     7
 10
532.9097719666149
 20
-333.7785493893932
 42
0.01736673781311764
  0
VERTEX
  8
0
  6
CONTINUOUS
 62
     7
 10
534.1119838619867
 20
-334.0086373888836
 42
0.01227985003978767
  0
VERTEX
  8
0
  6
CONTINUOUS
 62
     7
 10
535.3258124149585
 20
-334.168371097726
 42
0.009889733834909461
  0
VERTEX
  8
0
  6
CONTINUOUS
 62
     7
 10
536.5465363664382
 20
-334.2747393640291
 42
0.008687866389117003
  0
VERTEX
  8
0
  6
CONTINUOUS
 62
     7
 10
537.7705185451121
 20
-334.3359583322951
 42
0.008173386458661083
  0
VERTEX
  8
0
  6
CONTINUOUS
 62
     7
 10
538.9959176238002
 20
-334.3560483636498
 42
0.008170841838060395
  0
VERTEX
  8
0
  6
CONTINUOUS
 62
     7
 10
540.2211855058654
 20
-334.3362299499761
 42
0.008682903142068252
  0
VERTEX
  8
0
  6
CONTINUOUS
 62
     7
 10
541.4452540017716
 20
-334.2752945649147
 42
0.009879475175224901
  0
VERTEX
  8
0
  6
CONTINUOUS
 62
     7
 10
542.6661143833642
 20
-334.1692395181668
 42
0.01227290497589885
  0
VERTEX
  8
0
  6
CONTINUOUS
 62
     7
 10
543.8813392644461
 20
-334.0096906699629
 42
0.01736352565592167
  0
VERTEX
  8
0
  6
CONTINUOUS
 62
     7
 10
545.0858518450069
 20
-333.779557912876
 42
0.03102292826687697
  0
VERTEX
  8
0
  6
CONTINUOUS
 62
     7
 10
546.262513791279
 20
-333.4390391196041
 42
0.1034608155170825
  0
VERTEX
  8
0
  6
CONTINUOUS
 62
     7
 10
547.3215742039044
 20
-332.8402465418254
 42
0.5548961732488983
  0
VERTEX
  8
0
  6
CONTINUOUS
 62
     7
 10
547.0729169736616
 20
-331.8383729335077
 42
0
  0
SEQEND
  8
0
  0
TEXT
  8
0
  6
CONTINUOUS
 62
     7
 10
-70.71429061889648
 20
-15
 40
30
 41
0.8489110518474969
  1
ＥＲ－＿Ｄ
  0
ENDSEC
  0
EOF
