  0
SECTION
  2
HEADER
  0
ENDSEC
  0
SECTION
  2
TABLES
  0
TABLE
  2
LTYPE
 70
    22
  0
LTYPE
  2
CONTINUOUS
 70
    64
  3
Solid line
 72
    65
 73
     0
 40
0.000000
  0
LTYPE
  2
DASHED
 70
    64
  3
__ __ __ __ __ __ __ __ __ __ __ __ __ __ __
 72
    65
 73
     2
 40
3.500000
 49
2.000000
 49
-1.500000
  0
LTYPE
  2
CENTER
 70
    64
  3
____ _ ____ _ ____ _ ____ _ ____ _ ____ _ ____
 72
    65
 73
     4
 40
17.500000
 49
13.000000
 49
-1.500000
 49
1.500000
 49
-1.500000
  0
LTYPE
  2
PHANTOM
 70
    64
  3
_____ _ _ _____ _ _ _____ _ _ _____ _ _ ____  
 72
    65
 73
     6
 40
15.500000
 49
8.000000
 49
-1.500000
 49
1.500000
 49
-1.500000
 49
1.500000
 49
-1.500000
  0
LTYPE
  2
DOT
 70
    64
  3
. . . . . . . . . . . . . . . . . . . . . . . .
 72
    65
 73
     2
 40
0.25
 49
0.0
 49
-0.25
  0
ENDTAB
  0
TABLE
  2
LAYER
 70
     1
  0
LAYER
  2
0
 70
     0
 62
     7
  6
CONTINUOUS
  0
ENDTAB
  0
TABLE
  2
STYLE
 70
     1
  0
STYLE
  2
STANDARD
 70
     0
 40
0.000000
 41
1.000000
 50
0.000000
 71
     0
 42
0.200000
  3
txt
  4
BIGFONT
  0
ENDTAB
  0
TABLE
  2
VIEW
 70
     0
  0
ENDTAB
  0
ENDSEC
  0
SECTION
  2
BLOCKS
  0
ENDSEC
  0
SECTION
  2
ENTITIES
  0
LINE
  8
0
  6
CONTINUOUS
 62
     7
 10
703
 20
-402
 11
703
 21
-648.987548828125
  0
LINE
  8
0
  6
CONTINUOUS
 62
     7
 10
791
 20
-457.5
 11
791
 21
-642.5
  0
LINE
  8
0
  6
CONTINUOUS
 62
     7
 10
703
 20
-402
 11
738
 21
-402
  0
LINE
  8
0
  6
CONTINUOUS
 62
     7
 10
723
 20
-402
 11
723
 21
-672.8226318359375
  0
LINE
  8
0
  6
CONTINUOUS
 62
     7
 10
746
 20
-447.0816650390625
 11
746
 21
-652.9183349609375
  0
LINE
  8
0
  6
CONTINUOUS
 62
     7
 10
776
 20
-457.5
 11
776
 21
-642.5
  0
LINE
  8
0
  6
CONTINUOUS
 62
     7
 10
727.5641479492187
 20
-659.1129150390625
 11
741.435791015625
 21
-657.8992919921875
  0
LINE
  8
0
  6
CONTINUOUS
 62
     7
 10
727.564208984375
 20
-440.886962890625
 11
742.5642700195313
 21
-442.1992797851562
  0
LINE
  8
0
  6
CONTINUOUS
 62
     7
 10
776
 20
-642.5
 11
791
 21
-642.5
  0
LINE
  8
0
  6
CONTINUOUS
 62
     7
 10
776
 20
-457.5
 11
791
 21
-457.5
  0
LINE
  8
0
  6
CONTINUOUS
 62
     7
 10
738
 20
-402
 11
738
 21
-437.2184448242187
  0
LINE
  8
0
  6
CONTINUOUS
 62
     3
 10
720
 20
-371.5600280761719
 11
720
 21
-422.5776062011719
  0
LINE
  8
0
  6
CONTINUOUS
 62
     7
 10
729.4823608398438
 20
-385.1600036621094
 11
710.5176391601563
 21
-385.1600036621094
  0
LINE
  8
0
  6
CONTINUOUS
 62
     7
 10
730.6937255859375
 20
-395.1600036621094
 11
709.3062744140625
 21
-395.1600036621094
  0
LINE
  8
0
  6
CONTINUOUS
 62
     7
 10
730.6937255859375
 20
-395.1600036621094
 11
730.47998046875
 21
-402
  0
LINE
  8
0
  6
CONTINUOUS
 62
     7
 10
709.3062133789062
 20
-395.1600036621094
 11
709.5199584960938
 21
-402
  0
LINE
  8
0
  6
CONTINUOUS
 62
     7
 10
729.4823608398438
 20
-385.1600036621094
 11
729.4823608398438
 21
-395.1600036621094
  0
LINE
  8
0
  6
CONTINUOUS
 62
     7
 10
710.5176391601563
 20
-385.1600036621094
 11
710.5176391601563
 21
-395.1600036621094
  0
LINE
  8
0
  6
CONTINUOUS
 62
     7
 10
746
 20
-506.3757934570312
 11
776
 21
-506.3757934570312
  0
LINE
  8
0
  6
CONTINUOUS
 62
     7
 10
746
 20
-468.7059326171875
 11
776
 21
-483.345458984375
  0
LINE
  8
0
  6
CONTINUOUS
 62
     7
 10
746
 20
-593.6242065429688
 11
776
 21
-593.6242065429688
  0
LINE
  8
0
  6
CONTINUOUS
 62
     7
 10
746
 20
-631.2940673828125
 11
776
 21
-616.654541015625
  0
LINE
  8
0
  6
CONTINUOUS
 62
     3
 10
710.5176391601563
 20
-385.1600036621094
 11
720
 21
-395.1600036621094
  0
LINE
  8
0
  6
CONTINUOUS
 62
     7
 10
720
 20
-395.1600036621094
 11
720
 21
-385.1600036621094
  0
LINE
  8
0
  6
CONTINUOUS
 62
     3
 10
720
 20
-385.1600036621094
 11
710.5176391601563
 21
-395.1600036621094
  0
LINE
  8
0
  6
CONTINUOUS
 62
     3
 10
720
 20
-395.1599731445313
 11
729.4823608398438
 21
-385.1599731445312
  0
LINE
  8
0
  6
CONTINUOUS
 62
     3
 10
720
 20
-385.1600036621094
 11
729.4823608398438
 21
-395.1600036621094
  0
LINE
  8
0
  6
CONTINUOUS
 62
     7
 10
795
 20
-645
 11
837
 21
-645
  0
LINE
  8
0
  6
CONTINUOUS
 62
     7
 10
795
 20
-455
 11
837
 21
-455
  0
LINE
  8
0
  6
CONTINUOUS
 62
     7
 10
795.0001220703125
 20
-455.0000915527344
 11
791.0000610351563
 21
-459.0000915527344
  0
LINE
  8
0
  6
CONTINUOUS
 62
     7
 10
791
 20
-640.9999389648437
 11
795
 21
-644.9999389648438
  0
LINE
  8
0
  6
CONTINUOUS
 62
     7
 10
837.0000610351563
 20
-645.0000610351563
 11
841.0000610351563
 21
-641.0000610351562
  0
LINE
  8
0
  6
CONTINUOUS
 62
     7
 10
840.9999389648437
 20
-459
 11
836.9999389648437
 21
-455
  0
LINE
  8
0
  6
CONTINUOUS
 62
     7
 10
795
 20
-512.3461303710937
 11
837
 21
-512.3461303710937
  0
LINE
  8
0
  6
CONTINUOUS
 62
     7
 10
795
 20
-523.7877197265625
 11
837
 21
-523.7877197265625
  0
LINE
  8
0
  6
CONTINUOUS
 62
     7
 10
795
 20
-533.53125
 11
837
 21
-533.53125
  0
LINE
  8
0
  6
CONTINUOUS
 62
     7
 10
795
 20
-545.00048828125
 11
837
 21
-545.00048828125
  0
LINE
  8
0
  6
CONTINUOUS
 62
     7
 10
795
 20
-555.0001220703125
 11
837
 21
-555.0001220703125
  0
LINE
  8
0
  6
CONTINUOUS
 62
     7
 10
795
 20
-566.469482421875
 11
837
 21
-566.469482421875
  0
LINE
  8
0
  6
CONTINUOUS
 62
     7
 10
795
 20
-576.2124633789062
 11
837
 21
-576.2124633789062
  0
LINE
  8
0
  6
CONTINUOUS
 62
     7
 10
795
 20
-587.6536865234375
 11
837
 21
-587.6536865234375
  0
LINE
  8
0
  6
CONTINUOUS
 62
     7
 10
795
 20
-606.7067260742188
 11
837
 21
-606.7067260742188
  0
LINE
  8
0
  6
CONTINUOUS
 62
     7
 10
795
 20
-615.9718017578125
 11
837
 21
-615.9718017578125
  0
LINE
  8
0
  6
CONTINUOUS
 62
     7
 10
795
 20
-622.793212890625
 11
837
 21
-622.793212890625
  0
LINE
  8
0
  6
CONTINUOUS
 62
     7
 10
795
 20
-629.658447265625
 11
837
 21
-629.658447265625
  0
LINE
  8
0
  6
CONTINUOUS
 62
     7
 10
795
 20
-634.65869140625
 11
837
 21
-634.65869140625
  0
LINE
  8
0
  6
CONTINUOUS
 62
     7
 10
795
 20
-639.26123046875
 11
837
 21
-639.26123046875
  0
LINE
  8
0
  6
CONTINUOUS
 62
     7
 10
630
 20
-400
 11
698
 21
-400
  0
LINE
  8
0
  6
CONTINUOUS
 62
     7
 10
625.0000610351563
 20
-405.0000305175781
 11
630.0000610351563
 21
-400.0000305175781
  0
LINE
  8
0
  6
CONTINUOUS
 62
     7
 10
698
 20
-400
 11
703
 21
-405.0000305175781
  0
LINE
  8
0
  6
CONTINUOUS
 62
     7
 10
669
 20
-390.0000305175781
 11
637
 21
-390.0000305175781
  0
LINE
  8
0
  6
CONTINUOUS
 62
     7
 10
668.9999389648437
 20
-390
 11
672.6396484375
 21
-400
  0
LINE
  8
0
  6
CONTINUOUS
 62
     7
 10
637
 20
-390.0001220703125
 11
633.3603515625
 21
-399.9999694824219
  0
LINE
  8
0
  6
CONTINUOUS
 62
     7
 10
630
 20
-406.3724670410156
 11
698
 21
-406.3724670410156
  0
LINE
  8
0
  6
CONTINUOUS
 62
     7
 10
630
 20
-437.4244689941406
 11
698
 21
-437.4244689941406
  0
LINE
  8
0
  6
CONTINUOUS
 62
     7
 10
630
 20
-450.8700866699219
 11
698
 21
-450.8700866699219
  0
LINE
  8
0
  6
CONTINUOUS
 62
     7
 10
630
 20
-462.6091613769531
 11
698
 21
-462.6091613769531
  0
LINE
  8
0
  6
CONTINUOUS
 62
     7
 10
630
 20
-479.0270385742187
 11
698
 21
-479.0270385742187
  0
LINE
  8
0
  6
CONTINUOUS
 62
     7
 10
630
 20
-506.7433471679687
 11
698
 21
-506.7433471679687
  0
LINE
  8
0
  6
CONTINUOUS
 62
     7
 10
630
 20
-525.5888671875
 11
698
 21
-525.5888671875
  0
LINE
  8
0
  6
CONTINUOUS
 62
     7
 10
630
 20
-540.4924926757813
 11
698
 21
-540.4924926757813
  0
LINE
  8
0
  6
CONTINUOUS
 62
     7
 10
633.29345703125
 20
-559.5074462890625
 11
698
 21
-559.5074462890625
  0
LINE
  8
0
  6
CONTINUOUS
 62
     7
 10
641.3372802734375
 20
-574.4110107421875
 11
698
 21
-574.4110107421875
  0
LINE
  8
0
  6
CONTINUOUS
 62
     7
 10
657.32666015625
 20
-593.256591796875
 11
698
 21
-593.256591796875
  0
LINE
  8
0
  6
CONTINUOUS
 62
     7
 10
679.4930419921875
 20
-620.9730224609375
 11
698
 21
-620.9730224609375
  0
LINE
  8
0
  6
CONTINUOUS
 62
     7
 10
693.2692260742187
 20
-637.390869140625
 11
698
 21
-637.390869140625
  0
LINE
  8
0
  6
CONTINUOUS
 62
     7
 10
640.5000610351563
 20
-387.0000305175781
 11
641.7955322265625
 21
-379.6527404785156
  0
LINE
  8
0
  6
CONTINUOUS
 62
     7
 10
664.2044677734375
 20
-379.6527099609375
 11
665.5
 21
-387.0000305175781
  0
LINE
  8
0
  6
CONTINUOUS
 62
     7
 10
643.76513671875
 20
-378.0000305175781
 11
662.23486328125
 21
-378.0000305175781
  0
LINE
  8
0
  6
CONTINUOUS
 62
     7
 10
643.3418579101562
 20
-378.0453186035156
 11
652.57666015625
 21
-376.0453186035156
  0
LINE
  8
0
  6
CONTINUOUS
 62
     7
 10
653.42333984375
 20
-376.0453186035156
 11
662.6581420898437
 21
-378.0453186035156
  0
LINE
  8
0
  6
CONTINUOUS
 62
     7
 10
640.5
 20
-387.0000305175781
 11
640.5
 21
-390.0000305175781
  0
LINE
  8
0
  6
CONTINUOUS
 62
     7
 10
665.5
 20
-387.0000305175781
 11
665.5
 21
-390.0000305175781
  0
LINE
  8
0
  6
CONTINUOUS
 62
     7
 10
525
 20
-735
 11
825
 21
-735
  0
LINE
  8
0
  6
CONTINUOUS
 62
     7
 10
574.9999389648438
 20
-439.9999084472656
 11
589.307373046875
 21
-438.7481994628906
  0
LINE
  8
0
  6
CONTINUOUS
 62
     7
 10
625
 20
-402
 11
625
 21
-519.6337890625
  0
LINE
  8
0
  6
CONTINUOUS
 62
     7
 10
603
 20
-402
 11
603
 21
-690
  0
LINE
  8
0
  6
CONTINUOUS
 62
     7
 10
590
 20
-402
 11
625
 21
-402
  0
LINE
  8
0
  6
CONTINUOUS
 62
     7
 10
590
 20
-402
 11
590
 21
-429.5243530273438
  0
LINE
  8
0
  6
CONTINUOUS
 62
     7
 10
528
 20
-705
 11
588
 21
-705
  0
LINE
  8
0
  6
CONTINUOUS
 62
     7
 10
525
 20
-708
 11
525
 21
-735
  0
LINE
  8
0
  6
CONTINUOUS
 62
     7
 10
825
 20
-708
 11
825
 21
-735
  0
LINE
  8
0
  6
CONTINUOUS
 62
     3
 10
550
 20
-695
 11
550
 21
-745
  0
LINE
  8
0
  6
CONTINUOUS
 62
     3
 10
800
 20
-695
 11
800
 21
-745
  0
LINE
  8
0
  6
CONTINUOUS
 62
     3
 10
573
 20
-635
 11
593
 21
-635
  0
LINE
  8
0
  6
CONTINUOUS
 62
     3
 10
583
 20
-625
 11
583
 21
-645
  0
LINE
  8
0
  6
CONTINUOUS
 62
     7
 10
527
 20
-440
 11
527
 21
-660
  0
LINE
  8
0
  6
CONTINUOUS
 62
     7
 10
545
 20
-440
 11
545
 21
-660
  0
LINE
  8
0
  6
CONTINUOUS
 62
     7
 10
517
 20
-625
 11
527
 21
-630.7735595703125
  0
LINE
  8
0
  6
CONTINUOUS
 62
     7
 10
527
 20
-660
 11
548.93701171875
 21
-660
  0
LINE
  8
0
  6
CONTINUOUS
 62
     7
 10
517
 20
-474.9999389648438
 11
517
 21
-625
  0
LINE
  8
0
  6
CONTINUOUS
 62
     3
 10
380
 20
-550
 11
958.3843383789062
 21
-550
  0
LINE
  8
0
  6
CONTINUOUS
 62
     7
 10
517
 20
-474.9999084472656
 11
527
 21
-469.2264099121094
  0
LINE
  8
0
  6
CONTINUOUS
 62
     7
 10
527
 20
-440
 11
574.9990234375
 21
-440
  0
LINE
  8
0
  6
CONTINUOUS
 62
     7
 10
400
 20
-508
 11
400
 21
-587.5
  0
LINE
  8
0
  6
CONTINUOUS
 62
     7
 10
400
 20
-512.5
 11
510
 21
-512.5
  0
LINE
  8
0
  6
CONTINUOUS
 62
     7
 10
400
 20
-587.5
 11
510
 21
-587.5
  0
LINE
  8
0
  6
CONTINUOUS
 62
     7
 10
510
 20
-507.5
 11
510
 21
-592.5
  0
LINE
  8
0
  6
CONTINUOUS
 62
     7
 10
510
 20
-507.5
 11
517
 21
-507.5
  0
LINE
  8
0
  6
CONTINUOUS
 62
     7
 10
510
 20
-592.5
 11
517
 21
-592.5
  0
LINE
  8
0
  6
CONTINUOUS
 62
     3
 10
585
 20
-560
 11
585
 21
-540
  0
LINE
  8
0
  6
CONTINUOUS
 62
     7
 10
400
 20
-508
 11
490
 21
-508
  0
LINE
  8
0
  6
CONTINUOUS
 62
     7
 10
768.6522827148438
 20
-705
 11
822
 21
-705
  0
LINE
  8
0
  6
DASHED
 62
     7
 10
561
 20
-705
 11
561
 21
-735
  0
LINE
  8
0
  6
DASHED
 62
     7
 10
539
 20
-705
 11
539
 21
-735
  0
LINE
  8
0
  6
DASHED
 62
     7
 10
811
 20
-705
 11
811
 21
-735
  0
LINE
  8
0
  6
DASHED
 62
     7
 10
789
 20
-705
 11
789
 21
-735
  0
LINE
  8
0
  6
CONTINUOUS
 62
     7
 10
648.3955688476562
 20
-583.9125366210938
 11
738.010498046875
 21
-690.7114868164063
  0
LINE
  8
0
  6
CONTINUOUS
 62
     7
 10
593.4852905273438
 20
-550
 11
585
 21
-541.5147094726562
  0
LINE
  8
0
  6
CONTINUOUS
 62
     7
 10
585
 20
-541.5147094726562
 11
576.5147094726563
 21
-550
  0
LINE
  8
0
  6
CONTINUOUS
 62
     7
 10
585
 20
-558.4852905273437
 11
576.5146484375
 21
-550
  0
LINE
  8
0
  6
CONTINUOUS
 62
     7
 10
593.4852905273438
 20
-550
 11
585
 21
-558.4852905273437
  0
LINE
  8
0
  6
CONTINUOUS
 62
     7
 10
583
 20
-626.5147094726563
 11
574.5147094726563
 21
-635
  0
LINE
  8
0
  6
CONTINUOUS
 62
     7
 10
583
 20
-643.4852905273438
 11
574.5147094726563
 21
-635
  0
LINE
  8
0
  6
CONTINUOUS
 62
     7
 10
591.4852905273437
 20
-635
 11
583
 21
-643.4852905273438
  0
LINE
  8
0
  6
CONTINUOUS
 62
     7
 10
591.4852905273437
 20
-635
 11
583
 21
-626.5147094726563
  0
LINE
  8
0
  6
CONTINUOUS
 62
     7
 10
548.9368896484375
 20
-660
 11
552.9269409179688
 21
-614.3936767578125
  0
LINE
  8
0
  6
CONTINUOUS
 62
     7
 10
490
 20
-508
 11
490
 21
-512.5
  0
LINE
  8
0
  6
CONTINUOUS
 62
     7
 10
851
 20
-457.5
 11
851
 21
-642.5
  0
LINE
  8
0
  6
CONTINUOUS
 62
     7
 10
851
 20
-457.5
 11
841
 21
-457.5
  0
LINE
  8
0
  6
CONTINUOUS
 62
     7
 10
851
 20
-642.5
 11
841
 21
-642.5
  0
LINE
  8
0
  6
CONTINUOUS
 62
     7
 10
841
 20
-457.5
 11
841
 21
-642.5
  0
LINE
  8
0
  6
CONTINUOUS
 62
     7
 10
898
 20
-510
 11
868
 21
-510
  0
LINE
  8
0
  6
CONTINUOUS
 62
     7
 10
898
 20
-590
 11
868
 21
-590
  0
LINE
  8
0
  6
CONTINUOUS
 62
     7
 10
898
 20
-510
 11
898
 21
-590
  0
LINE
  8
0
  6
CONTINUOUS
 62
     7
 10
868
 20
-590
 11
854.2899169921875
 21
-594.9900512695313
  0
LINE
  8
0
  6
CONTINUOUS
 62
     7
 10
868
 20
-510
 11
854.2898559570312
 21
-505.0099487304687
  0
LINE
  8
0
  6
CONTINUOUS
 62
     7
 10
942
 20
-535
 11
942
 21
-562
  0
LINE
  8
0
  6
CONTINUOUS
 62
     7
 10
902
 20
-535
 11
902
 21
-565
  0
LINE
  8
0
  6
CONTINUOUS
 62
     7
 10
942
 20
-538
 11
902
 21
-538
  0
LINE
  8
0
  6
CONTINUOUS
 62
     7
 10
942
 20
-562
 11
902
 21
-562
  0
LINE
  8
0
  6
CONTINUOUS
 62
     7
 10
902
 20
-535
 11
898
 21
-535
  0
LINE
  8
0
  6
CONTINUOUS
 62
     7
 10
902
 20
-565
 11
898
 21
-565
  0
LINE
  8
0
  6
CONTINUOUS
 62
     7
 10
910
 20
-535
 11
910
 21
-538
  0
LINE
  8
0
  6
CONTINUOUS
 62
     7
 10
942
 20
-535
 11
910
 21
-535
  0
LINE
  8
0
  6
CONTINUOUS
 62
     3
 10
-198.8800964355469
 20
-550
 11
197.4234008789063
 21
-550
  0
LINE
  8
0
  6
CONTINUOUS
 62
     7
 10
-24.99995803833008
 20
-402.0980834960938
 11
-25.40159225463867
 21
-403.8013610839844
  0
LINE
  8
0
  6
CONTINUOUS
 62
     7
 10
24.99995422363281
 20
-402.0980224609375
 11
25.40160179138184
 21
-403.8013610839844
  0
LINE
  8
0
  6
CONTINUOUS
 62
     7
 10
-43.25671005249023
 20
-406.3723449707031
 11
-42.5501823425293
 21
-407.1015014648437
  0
LINE
  8
0
  6
CONTINUOUS
 62
     7
 10
43.25647354125977
 20
-406.3724365234375
 11
42.55007553100586
 21
-407.1014709472656
  0
LINE
  8
0
  6
CONTINUOUS
 62
     7
 10
16
 20
-390.0000305175781
 11
-16
 21
-390.0000305175781
  0
LINE
  8
0
  6
CONTINUOUS
 62
     7
 10
15.9999828338623
 20
-390
 11
20.13370132446289
 21
-401.3572998046875
  0
LINE
  8
0
  6
CONTINUOUS
 62
     7
 10
-16.00002288818359
 20
-390.0001220703125
 11
-20.13373947143555
 21
-401.3573913574219
  0
LINE
  8
0
  6
CONTINUOUS
 62
     7
 10
11.11706256866455
 20
-379.1569213867188
 11
12.5000171661377
 21
-387.0000305175781
  0
LINE
  8
0
  6
CONTINUOUS
 62
     7
 10
4.999989032745361
 20
-376.9976806640625
 11
10.01997089385986
 21
-378.0286560058594
  0
LINE
  8
0
  6
CONTINUOUS
 62
     7
 10
5
 20
-341.0000305175781
 11
5
 21
-384.2000427246094
  0
LINE
  8
0
  6
CONTINUOUS
 62
     7
 10
-11.11699771881104
 20
-379.1569519042969
 11
-12.49994945526123
 21
-387.0000305175781
  0
LINE
  8
0
  6
CONTINUOUS
 62
     7
 10
-4.999991893768311
 20
-376.9976196289062
 11
-10.0199728012085
 21
-378.0285949707031
  0
LINE
  8
0
  6
CONTINUOUS
 62
     7
 10
-5
 20
-341.0000305175781
 11
-5
 21
-384.2000427246094
  0
LINE
  8
0
  6
CONTINUOUS
 62
     7
 10
-12.5
 20
-387.0000305175781
 11
-12.5
 21
-390.0000305175781
  0
LINE
  8
0
  6
CONTINUOUS
 62
     7
 10
12.5
 20
-387.0000610351563
 11
12.5
 21
-390.0000305175781
  0
LINE
  8
0
  6
CONTINUOUS
 62
     3
 10
0
 20
-326.0830078125
 11
0
 21
-749.19873046875
  0
LINE
  8
0
  6
CONTINUOUS
 62
     7
 10
-180
 20
-735
 11
-90
 21
-735
  0
LINE
  8
0
  6
CONTINUOUS
 62
     3
 10
-73.61207580566406
 20
-592.5001220703125
 11
-90.93258666992187
 21
-602.5001220703125
  0
LINE
  8
0
  6
CONTINUOUS
 62
     3
 10
-73.61238861083984
 20
-507.5000305175781
 11
-90.93289184570313
 21
-497.5000305175781
  0
LINE
  8
0
  6
CONTINUOUS
 62
     3
 10
73.61231231689453
 20
-507.5000305175781
 11
90.93281555175781
 21
-497.5000305175781
  0
LINE
  8
0
  6
CONTINUOUS
 62
     3
 10
73.61208343505859
 20
-592.5
 11
90.93258666992187
 21
-602.5
  0
LINE
  8
0
  6
CONTINUOUS
 62
     7
 10
180
 20
-582
 11
180
 21
-735
  0
LINE
  8
0
  6
CONTINUOUS
 62
     7
 10
-180
 20
-582
 11
-180
 21
-735
  0
LINE
  8
0
  6
CONTINUOUS
 62
     7
 10
-177
 20
-705
 11
-93
 21
-705
  0
LINE
  8
0
  6
CONTINUOUS
 62
     3
 10
-150
 20
-695
 11
-150
 21
-745
  0
LINE
  8
0
  6
CONTINUOUS
 62
     3
 10
150
 20
-695
 11
150
 21
-745
  0
LINE
  8
0
  6
CONTINUOUS
 62
     7
 10
-90
 20
-708
 11
-90
 21
-735
  0
LINE
  8
0
  6
CONTINUOUS
 62
     7
 10
90
 20
-708
 11
90
 21
-735
  0
LINE
  8
0
  6
CONTINUOUS
 62
     7
 10
-85
 20
-730
 11
85
 21
-730
  0
LINE
  8
0
  6
CONTINUOUS
 62
     7
 10
-82
 20
-713
 11
-28
 21
-713
  0
LINE
  8
0
  6
CONTINUOUS
 62
     7
 10
90
 20
-735
 11
180
 21
-735
  0
LINE
  8
0
  6
CONTINUOUS
 62
     7
 10
93
 20
-705
 11
177
 21
-705
  0
LINE
  8
0
  6
CONTINUOUS
 62
     7
 10
28
 20
-713
 11
82
 21
-713
  0
LINE
  8
0
  6
CONTINUOUS
 62
     7
 10
89.99992370605469
 20
-705
 11
80.91262054443359
 21
-653.4633178710937
  0
LINE
  8
0
  6
CONTINUOUS
 62
     7
 10
-90.00001525878906
 20
-705
 11
-80.91270446777344
 21
-653.4632568359375
  0
LINE
  8
0
  6
CONTINUOUS
 62
     7
 10
-105.8143157958984
 20
-692.604736328125
 11
-99.99995422363281
 21
-659.6298828125
  0
LINE
  8
0
  6
CONTINUOUS
 62
     7
 10
105.8144149780273
 20
-692.6046752929687
 11
100.0000152587891
 21
-659.6295776367188
  0
LINE
  8
0
  6
CONTINUOUS
 62
     7
 10
100
 20
-598.9898071289063
 11
100
 21
-659.6295776367188
  0
LINE
  8
0
  6
CONTINUOUS
 62
     7
 10
-100
 20
-598.9898071289063
 11
-100
 21
-659.6298217773438
  0
LINE
  8
0
  6
CONTINUOUS
 62
     3
 10
108.5546112060547
 20
-594.9668579101563
 11
136.27099609375
 21
-606.4473266601563
  0
LINE
  8
0
  6
CONTINUOUS
 62
     3
 10
-44.9653205871582
 20
-441.4442138671875
 11
-56.44584655761719
 21
-413.727783203125
  0
LINE
  8
0
  6
CONTINUOUS
 62
     3
 10
44.96499633789062
 20
-658.555908203125
 11
56.44553756713867
 21
-686.2723999023437
  0
LINE
  8
0
  6
CONTINUOUS
 62
     3
 10
-44.96570205688477
 20
-658.5558471679687
 11
-56.44621276855469
 21
-686.2722778320312
  0
LINE
  8
0
  6
CONTINUOUS
 62
     3
 10
-108.5560760498047
 20
-505.034912109375
 11
-136.2724609375
 21
-493.5544128417969
  0
LINE
  8
0
  6
CONTINUOUS
 62
     3
 10
-108.5560607910156
 20
-594.9647827148437
 11
-136.2724456787109
 21
-606.4452514648437
  0
LINE
  8
0
  6
CONTINUOUS
 62
     7
 10
-18.7349853515625
 20
-405.7008056640625
 11
-18.7349853515625
 21
-439.1100158691406
  0
LINE
  8
0
  6
CONTINUOUS
 62
     7
 10
18.7349853515625
 20
-405.7008056640625
 11
18.7349853515625
 21
-439.1100158691406
  0
LINE
  8
0
  6
CONTINUOUS
 62
     3
 10
85
 20
-635
 11
124.6500244140625
 21
-635
  0
LINE
  8
0
  6
CONTINUOUS
 62
     7
 10
-10
 20
-508
 11
-10
 21
-520
  0
LINE
  8
0
  6
CONTINUOUS
 62
     7
 10
10
 20
-508
 11
10
 21
-520
  0
LINE
  8
0
  6
CONTINUOUS
 62
     3
 10
108.5558319091797
 20
-505.03466796875
 11
136.2722778320312
 21
-493.5541381835937
  0
LINE
  8
0
  6
CONTINUOUS
 62
     3
 10
44.9653205871582
 20
-441.4441528320313
 11
56.44584655761719
 21
-413.7277221679687
  0
LINE
  8
0
  6
CONTINUOUS
 62
     7
 10
-10
 20
-520
 11
10
 21
-520
  0
LINE
  8
0
  6
CONTINUOUS
 62
     7
 10
-10
 20
-508
 11
10
 21
-508
  0
LINE
  8
0
  6
DASHED
 62
     7
 10
139
 20
-705
 11
139
 21
-735
  0
LINE
  8
0
  6
DASHED
 62
     7
 10
161
 20
-705
 11
161
 21
-735
  0
LINE
  8
0
  6
DASHED
 62
     7
 10
-139
 20
-705
 11
-139
 21
-735
  0
LINE
  8
0
  6
DASHED
 62
     7
 10
-161
 20
-705
 11
-161
 21
-735
  0
LINE
  8
0
  6
CONTINUOUS
 62
     7
 10
114.6500244140625
 20
-643.071044921875
 11
114.6500244140625
 21
-626.928955078125
  0
LINE
  8
0
  6
CONTINUOUS
 62
     7
 10
105.6500244140625
 20
-643.507568359375
 11
105.6500244140625
 21
-626.492431640625
  0
LINE
  8
0
  6
CONTINUOUS
 62
     7
 10
105.650016784668
 20
-643.507568359375
 11
100
 21
-643.3309936523438
  0
LINE
  8
0
  6
CONTINUOUS
 62
     7
 10
105.6499862670898
 20
-626.492431640625
 11
99.99997711181641
 21
-626.6690063476562
  0
LINE
  8
0
  6
CONTINUOUS
 62
     7
 10
114.6500244140625
 20
-643.071044921875
 11
105.6500244140625
 21
-643.071044921875
  0
LINE
  8
0
  6
CONTINUOUS
 62
     7
 10
114.6500244140625
 20
-626.928955078125
 11
105.6500244140625
 21
-626.928955078125
  0
LINE
  8
0
  6
CONTINUOUS
 62
     7
 10
124.6500244140625
 20
-558.071044921875
 11
124.6500244140625
 21
-541.928955078125
  0
LINE
  8
0
  6
CONTINUOUS
 62
     7
 10
115.6500244140625
 20
-558.507568359375
 11
115.6500244140625
 21
-541.492431640625
  0
LINE
  8
0
  6
CONTINUOUS
 62
     7
 10
115.6500701904297
 20
-558.507568359375
 11
109.6848449707031
 21
-558.3211669921875
  0
LINE
  8
0
  6
CONTINUOUS
 62
     7
 10
115.6500091552734
 20
-541.492431640625
 11
109.6847839355469
 21
-541.6788330078125
  0
LINE
  8
0
  6
CONTINUOUS
 62
     7
 10
124.6500244140625
 20
-558.071044921875
 11
115.6500244140625
 21
-558.071044921875
  0
LINE
  8
0
  6
CONTINUOUS
 62
     7
 10
124.6500244140625
 20
-541.928955078125
 11
115.6500244140625
 21
-541.928955078125
  0
LINE
  8
0
  6
CONTINUOUS
 62
     3
 10
105.6500091552734
 20
-626.9288940429688
 11
114.6500473022461
 21
-635.0000610351563
  0
LINE
  8
0
  6
CONTINUOUS
 62
     3
 10
105.6500473022461
 20
-634.9999389648438
 11
114.6500473022461
 21
-626.9288940429688
  0
LINE
  8
0
  6
CONTINUOUS
 62
     3
 10
105.6499633789062
 20
-635
 11
114.6499633789063
 21
-643.071044921875
  0
LINE
  8
0
  6
CONTINUOUS
 62
     3
 10
105.6500244140625
 20
-643.0711059570312
 11
114.6500244140625
 21
-635
  0
LINE
  8
0
  6
CONTINUOUS
 62
     7
 10
114.6500244140625
 20
-634.9996337890625
 11
105.6500244140625
 21
-634.9996337890625
  0
LINE
  8
0
  6
CONTINUOUS
 62
     3
 10
115.6499786376953
 20
-541.9288940429688
 11
124.6499786376953
 21
-549.9999389648437
  0
LINE
  8
0
  6
CONTINUOUS
 62
     3
 10
115.6500091552734
 20
-550
 11
124.6500015258789
 21
-541.928955078125
  0
LINE
  8
0
  6
CONTINUOUS
 62
     3
 10
115.6500015258789
 20
-549.9999389648437
 11
124.6500015258789
 21
-558.071044921875
  0
LINE
  8
0
  6
CONTINUOUS
 62
     3
 10
115.6500549316406
 20
-558.0711059570313
 11
124.6500473022461
 21
-550
  0
LINE
  8
0
  6
CONTINUOUS
 62
     7
 10
124.6500244140625
 20
-549.9996337890625
 11
115.6500244140625
 21
-549.9996337890625
  0
LINE
  8
0
  6
CONTINUOUS
 62
     7
 10
703
 20
148.0000152587891
 11
703
 21
-147.9999847412109
  0
LINE
  8
0
  6
CONTINUOUS
 62
     7
 10
791
 20
92.50000762939453
 11
791
 21
-92.49999237060547
  0
LINE
  8
0
  6
CONTINUOUS
 62
     7
 10
703
 20
-148
 11
723
 21
-148
  0
LINE
  8
0
  6
CONTINUOUS
 62
     7
 10
703
 20
148
 11
723
 21
148
  0
LINE
  8
0
  6
CONTINUOUS
 62
     7
 10
723
 20
148.0000152587891
 11
723
 21
28.72284889221191
  0
LINE
  8
0
  6
CONTINUOUS
 62
     7
 10
746
 20
102.918342590332
 11
746
 21
-102.918327331543
  0
LINE
  8
0
  6
CONTINUOUS
 62
     7
 10
776
 20
92.50000762939453
 11
776
 21
-92.49999237060547
  0
LINE
  8
0
  6
CONTINUOUS
 62
     7
 10
727.5641479492187
 20
-109.1126937866211
 11
741.435791015625
 21
-107.8990859985352
  0
LINE
  8
0
  6
CONTINUOUS
 62
     7
 10
727.564208984375
 20
109.1133193969727
 11
742.564208984375
 21
107.8009872436523
  0
LINE
  8
0
  6
CONTINUOUS
 62
     7
 10
776
 20
-92.5
 11
791
 21
-92.5
  0
LINE
  8
0
  6
CONTINUOUS
 62
     7
 10
776
 20
92.5
 11
791
 21
92.5
  0
LINE
  8
0
  6
CONTINUOUS
 62
     3
 10
720
 20
13.6803674697876
 11
720
 21
-16.92503929138184
  0
LINE
  8
0
  6
CONTINUOUS
 62
     7
 10
723
 20
-28.72276878356934
 11
723
 21
-147.9999847412109
  0
LINE
  8
0
  6
CONTINUOUS
 62
     7
 10
720.0000610351563
 20
9.899477958679199
 11
710.1005859375
 21
6.031660632288549E-06
  0
LINE
  8
0
  6
CONTINUOUS
 62
     7
 10
710.1005249023437
 20
-2.47776029027591E-06
 11
720
 21
-9.899477005004883
  0
LINE
  8
0
  6
CONTINUOUS
 62
     7
 10
720.0000610351563
 20
-9.899477005004883
 11
729.8995361328125
 21
6.086987468734151E-06
  0
LINE
  8
0
  6
CONTINUOUS
 62
     7
 10
729.8995361328125
 20
-3.033673010577331E-06
 11
720
 21
9.899480819702148
  0
LINE
  8
0
  6
CONTINUOUS
 62
     7
 10
746
 20
-40.1566162109375
 11
776
 21
-40.1566162109375
  0
LINE
  8
0
  6
CONTINUOUS
 62
     7
 10
776
 20
-62.53787612915039
 11
746
 21
-76.18946838378906
  0
LINE
  8
0
  6
CONTINUOUS
 62
     7
 10
746
 20
40.1566162109375
 11
776
 21
40.1566162109375
  0
LINE
  8
0
  6
CONTINUOUS
 62
     7
 10
775.9999389648437
 20
62.53787994384766
 11
745.9999389648438
 21
76.18946838378906
  0
LINE
  8
0
  6
CONTINUOUS
 62
     7
 10
795
 20
-87.21929931640625
 11
837.0001220703125
 21
-87.21929931640625
  0
LINE
  8
0
  6
CONTINUOUS
 62
     7
 10
795
 20
-95
 11
837
 21
-95
  0
LINE
  8
0
  6
CONTINUOUS
 62
     7
 10
795
 20
95
 11
837
 21
95
  0
LINE
  8
0
  6
CONTINUOUS
 62
     7
 10
795.0001831054688
 20
94.99980163574219
 11
791.0001831054687
 21
90.99980163574219
  0
LINE
  8
0
  6
CONTINUOUS
 62
     7
 10
790.9999389648438
 20
-90.99995422363281
 11
794.9999389648437
 21
-94.99995422363281
  0
LINE
  8
0
  6
CONTINUOUS
 62
     7
 10
837.0000610351563
 20
-95.00002288818359
 11
841.0000610351563
 21
-91.00001525878906
  0
LINE
  8
0
  6
CONTINUOUS
 62
     7
 10
840.9998779296875
 20
91.00006103515625
 11
836.9998779296875
 21
95.00006866455078
  0
LINE
  8
0
  6
CONTINUOUS
 62
     7
 10
794.9999389648437
 20
87.218994140625
 11
837.0000610351563
 21
87.218994140625
  0
LINE
  8
0
  6
CONTINUOUS
 62
     7
 10
794.9999389648437
 20
76.21875
 11
837.0000610351563
 21
76.21875
  0
LINE
  8
0
  6
CONTINUOUS
 62
     7
 10
794.9999389648437
 20
68.35662841796875
 11
837.0000610351563
 21
68.35662841796875
  0
LINE
  8
0
  6
CONTINUOUS
 62
     7
 10
794.9999389648437
 20
61.04364013671875
 11
837.0000610351563
 21
61.04364013671875
  0
LINE
  8
0
  6
CONTINUOUS
 62
     7
 10
794.9999389648437
 20
51.7645263671875
 11
837.0000610351563
 21
51.7645263671875
  0
LINE
  8
0
  6
CONTINUOUS
 62
     7
 10
794.9999389648437
 20
43.10443115234375
 11
837.0000610351563
 21
43.10443115234375
  0
LINE
  8
0
  6
CONTINUOUS
 62
     7
 10
794.9999389648437
 20
32.5186767578125
 11
837.0000610351563
 21
32.5186767578125
  0
LINE
  8
0
  6
CONTINUOUS
 62
     7
 10
794.9999389648437
 20
22.95574951171875
 11
837.0000610351563
 21
22.95574951171875
  0
LINE
  8
0
  6
CONTINUOUS
 62
     7
 10
794.9999389648437
 20
11.00006103515625
 11
837.0000610351563
 21
11.00006103515625
  0
LINE
  8
0
  6
CONTINUOUS
 62
     7
 10
630
 20
150.0000610351562
 11
698
 21
150.0000610351562
  0
LINE
  8
0
  6
CONTINUOUS
 62
     7
 10
630
 20
-150
 11
698
 21
-150
  0
LINE
  8
0
  6
CONTINUOUS
 62
     7
 10
625.000244140625
 20
144.9999694824219
 11
630.0001831054688
 21
149.9999542236328
  0
LINE
  8
0
  6
CONTINUOUS
 62
     7
 10
697.9999389648437
 20
150.0001678466797
 11
702.9999389648437
 21
145.0001831054687
  0
LINE
  8
0
  6
CONTINUOUS
 62
     7
 10
624.9999389648437
 20
-144.9997863769531
 11
630
 21
-149.9998626708984
  0
LINE
  8
0
  6
CONTINUOUS
 62
     7
 10
698.0001831054688
 20
-150.0001220703125
 11
703.0001831054687
 21
-145.0001373291016
  0
LINE
  8
0
  6
CONTINUOUS
 62
     7
 10
630.0001831054688
 20
143.6275634765625
 11
697.9998779296875
 21
143.6275634765625
  0
LINE
  8
0
  6
CONTINUOUS
 62
     7
 10
630.0001831054688
 20
132.1470336914063
 11
697.9998779296875
 21
132.1470336914063
  0
LINE
  8
0
  6
CONTINUOUS
 62
     7
 10
630.0001831054688
 20
121.913330078125
 11
697.9998779296875
 21
121.913330078125
  0
LINE
  8
0
  6
CONTINUOUS
 62
     7
 10
630.0001831054688
 20
112.5756225585938
 11
697.9998779296875
 21
112.5756225585938
  0
LINE
  8
0
  6
CONTINUOUS
 62
     7
 10
630.0001831054688
 20
99.1300048828125
 11
697.9998779296875
 21
99.1300048828125
  0
LINE
  8
0
  6
CONTINUOUS
 62
     7
 10
630.0001831054688
 20
43.2567138671875
 11
697.9998779296875
 21
43.2567138671875
  0
LINE
  8
0
  6
CONTINUOUS
 62
     7
 10
630.0001831054688
 20
25.00006103515625
 11
697.9998779296875
 21
25.00006103515625
  0
LINE
  8
0
  6
CONTINUOUS
 62
     7
 10
630.0001831054688
 20
-25
 11
697.9999389648437
 21
-25
  0
LINE
  8
0
  6
CONTINUOUS
 62
     7
 10
630.0001831054688
 20
-43.25653076171875
 11
697.9999389648437
 21
-43.25653076171875
  0
LINE
  8
0
  6
CONTINUOUS
 62
     7
 10
630.0001831054688
 20
-99.12994384765625
 11
697.9999389648437
 21
-99.12994384765625
  0
LINE
  8
0
  6
CONTINUOUS
 62
     7
 10
630.0001831054688
 20
-112.5755615234375
 11
697.9999389648437
 21
-112.5755615234375
  0
LINE
  8
0
  6
CONTINUOUS
 62
     7
 10
630.0001831054688
 20
-121.9132690429687
 11
697.9999389648437
 21
-121.9132690429687
  0
LINE
  8
0
  6
CONTINUOUS
 62
     7
 10
630.0001831054688
 20
-132.1470336914063
 11
697.9999389648437
 21
-132.1470336914063
  0
LINE
  8
0
  6
CONTINUOUS
 62
     7
 10
630.0001831054688
 20
-143.6275329589844
 11
697.9999389648437
 21
-143.6275329589844
  0
LINE
  8
0
  6
CONTINUOUS
 62
     7
 10
632.9999389648437
 20
5
 11
672.9999389648438
 21
5
  0
LINE
  8
0
  6
CONTINUOUS
 62
     7
 10
632.9999389648437
 20
-5
 11
672.9999389648438
 21
-5
  0
LINE
  8
0
  6
CONTINUOUS
 62
     7
 10
545
 20
110.0000076293945
 11
545
 21
-109.9999923706055
  0
LINE
  8
0
  6
CONTINUOUS
 62
     7
 10
527
 20
-110
 11
575
 21
-110
  0
LINE
  8
0
  6
CONTINUOUS
 62
     7
 10
527
 20
110
 11
575.000244140625
 21
110
  0
LINE
  8
0
  6
CONTINUOUS
 62
     7
 10
517
 20
75.00018310546875
 11
517
 21
-74.99993896484375
  0
LINE
  8
0
  6
CONTINUOUS
 62
     7
 10
527
 20
110
 11
527
 21
-110
  0
LINE
  8
0
  6
CONTINUOUS
 62
     7
 10
517
 20
75.00022888183594
 11
524.4999389648438
 21
79.33031463623047
  0
LINE
  8
0
  6
CONTINUOUS
 62
     7
 10
517
 20
-74.99994659423828
 11
524.5
 21
-79.33005523681641
  0
LINE
  8
0
  6
CONTINUOUS
 62
     3
 10
380
 20
0
 11
958.3843383789062
 21
0
  0
LINE
  8
0
  6
CONTINUOUS
 62
     7
 10
625
 20
165
 11
625
 21
-165
  0
LINE
  8
0
  6
CONTINUOUS
 62
     7
 10
603
 20
180
 11
603
 21
24.7183895111084
  0
LINE
  8
0
  6
CONTINUOUS
 62
     7
 10
575.000244140625
 20
110.000129699707
 11
589.307373046875
 21
111.251838684082
  0
LINE
  8
0
  6
CONTINUOUS
 62
     7
 10
575
 20
-109.9999618530273
 11
589.307373046875
 21
-111.2516937255859
  0
LINE
  8
0
  6
CONTINUOUS
 62
     7
 10
540
 20
180
 11
810
 21
180
  0
LINE
  8
0
  6
CONTINUOUS
 62
     7
 10
540
 20
-180
 11
810
 21
-180
  0
LINE
  8
0
  6
CONTINUOUS
 62
     3
 10
535
 20
-150
 11
565
 21
-150
  0
LINE
  8
0
  6
CONTINUOUS
 62
     3
 10
535
 20
150
 11
565
 21
150
  0
LINE
  8
0
  6
CONTINUOUS
 62
     7
 10
525
 20
165
 11
525
 21
105
  0
LINE
  8
0
  6
CONTINUOUS
 62
     7
 10
825
 20
165.0000152587891
 11
825
 21
122.5586700439453
  0
LINE
  8
0
  6
CONTINUOUS
 62
     7
 10
746
 20
95.89307403564453
 11
812.6368408203125
 21
107.7925033569336
  0
LINE
  8
0
  6
CONTINUOUS
 62
     7
 10
746
 20
-95.8927001953125
 11
812.6368408203125
 21
-107.7921371459961
  0
LINE
  8
0
  6
CONTINUOUS
 62
     7
 10
525
 20
-105
 11
525
 21
-165
  0
LINE
  8
0
  6
CONTINUOUS
 62
     7
 10
825
 20
-122.5587005615234
 11
825
 21
-164.9999847412109
  0
LINE
  8
0
  6
CONTINUOUS
 62
     3
 10
550
 20
165
 11
550
 21
135
  0
LINE
  8
0
  6
CONTINUOUS
 62
     3
 10
800
 20
165.0000152587891
 11
800
 21
135.0000152587891
  0
LINE
  8
0
  6
CONTINUOUS
 62
     3
 10
550
 20
-135
 11
550
 21
-165
  0
LINE
  8
0
  6
CONTINUOUS
 62
     3
 10
800
 20
-134.9999847412109
 11
800
 21
-164.9999847412109
  0
LINE
  8
0
  6
CONTINUOUS
 62
     3
 10
785
 20
-150
 11
815
 21
-150
  0
LINE
  8
0
  6
CONTINUOUS
 62
     3
 10
785
 20
150
 11
815
 21
150
  0
LINE
  8
0
  6
CONTINUOUS
 62
     7
 10
603
 20
-24.7183780670166
 11
603
 21
-180
  0
LINE
  8
0
  6
CONTINUOUS
 62
     7
 10
400
 20
37.5
 11
400
 21
-37.5
  0
LINE
  8
0
  6
CONTINUOUS
 62
     7
 10
400
 20
37.5
 11
510
 21
37.5
  0
LINE
  8
0
  6
CONTINUOUS
 62
     7
 10
400
 20
-37.5
 11
510
 21
-37.5
  0
LINE
  8
0
  6
CONTINUOUS
 62
     7
 10
510
 20
42.50000381469727
 11
510
 21
-42.49999618530273
  0
LINE
  8
0
  6
CONTINUOUS
 62
     7
 10
510
 20
-42.5
 11
517
 21
-42.5
  0
LINE
  8
0
  6
CONTINUOUS
 62
     7
 10
510
 20
42.5
 11
517
 21
42.5
  0
LINE
  8
0
  6
CONTINUOUS
 62
     7
 10
400
 20
10
 11
495
 21
10
  0
LINE
  8
0
  6
CONTINUOUS
 62
     7
 10
400
 20
-10
 11
495
 21
-10
  0
LINE
  8
0
  6
CONTINUOUS
 62
     7
 10
625
 20
-165
 11
745
 21
-165
  0
LINE
  8
0
  6
CONTINUOUS
 62
     7
 10
625
 20
165
 11
745
 21
165
  0
LINE
  8
0
  6
CONTINUOUS
 62
     7
 10
576.928955078125
 20
-124.6499938964844
 11
593.0711059570312
 21
-124.6499938964844
  0
LINE
  8
0
  6
CONTINUOUS
 62
     7
 10
576.492431640625
 20
-115.6500244140625
 11
593.507568359375
 21
-115.6500244140625
  0
LINE
  8
0
  6
CONTINUOUS
 62
     7
 10
576.492431640625
 20
-115.6499710083008
 11
576.6644897460937
 21
-110.1455459594727
  0
LINE
  8
0
  6
CONTINUOUS
 62
     7
 10
593.507568359375
 20
-115.6500015258789
 11
593.3997802734375
 21
-112.2002716064453
  0
LINE
  8
0
  6
CONTINUOUS
 62
     7
 10
576.9288940429687
 20
-124.6499862670898
 11
576.9288940429687
 21
-115.650016784668
  0
LINE
  8
0
  6
CONTINUOUS
 62
     7
 10
593.071044921875
 20
-124.6499862670898
 11
593.071044921875
 21
-115.650016784668
  0
LINE
  8
0
  6
CONTINUOUS
 62
     3
 10
585
 20
-99.96178436279297
 11
585
 21
-134.6499938964844
  0
LINE
  8
0
  6
CONTINUOUS
 62
     3
 10
585
 20
-115.6500396728516
 11
593.0711059570312
 21
-124.6500396728516
  0
LINE
  8
0
  6
CONTINUOUS
 62
     3
 10
593.0711059570312
 20
-115.6500473022461
 11
585.0000610351562
 21
-124.6500473022461
  0
LINE
  8
0
  6
CONTINUOUS
 62
     3
 10
576.9288940429687
 20
-115.6500091552734
 11
585
 21
-124.6500091552734
  0
LINE
  8
0
  6
CONTINUOUS
 62
     3
 10
585
 20
-115.6499938964844
 11
576.9288940429687
 21
-124.6499938964844
  0
LINE
  8
0
  6
CONTINUOUS
 62
     7
 10
585.0003051757812
 20
-124.650016784668
 11
585.0003051757812
 21
-115.650016784668
  0
LINE
  8
0
  6
CONTINUOUS
 62
     7
 10
490
 20
10.00000286102295
 11
490
 21
-9.999997138977051
  0
LINE
  8
0
  6
CONTINUOUS
 62
     7
 10
851.0000610351562
 20
-92.49998474121094
 11
851.0000610351562
 21
92.50003051757812
  0
LINE
  8
0
  6
CONTINUOUS
 62
     7
 10
851
 20
-92.49998474121094
 11
841
 21
-92.49998474121094
  0
LINE
  8
0
  6
CONTINUOUS
 62
     7
 10
851
 20
92.50003051757812
 11
841
 21
92.50003051757812
  0
LINE
  8
0
  6
CONTINUOUS
 62
     7
 10
841.0000610351563
 20
-92.49998474121094
 11
841.0000610351563
 21
92.50003051757812
  0
LINE
  8
0
  6
CONTINUOUS
 62
     7
 10
898
 20
-39.99998474121094
 11
868
 21
-39.99998474121094
  0
LINE
  8
0
  6
CONTINUOUS
 62
     7
 10
898
 20
40.00001525878906
 11
868
 21
40.00001525878906
  0
LINE
  8
0
  6
CONTINUOUS
 62
     7
 10
898.0000610351562
 20
-39.99998474121094
 11
898.0000610351562
 21
40.00001525878906
  0
LINE
  8
0
  6
CONTINUOUS
 62
     7
 10
868
 20
39.99998474121094
 11
854.2898559570312
 21
44.99007034301758
  0
LINE
  8
0
  6
CONTINUOUS
 62
     7
 10
868
 20
-39.99997711181641
 11
854.2898559570312
 21
-44.99004745483398
  0
LINE
  8
0
  6
CONTINUOUS
 62
     7
 10
942.0000610351563
 20
-11.99998474121094
 11
942.0000610351563
 21
12.00001525878906
  0
LINE
  8
0
  6
CONTINUOUS
 62
     7
 10
902.0000610351562
 20
-14.99998569488525
 11
902.0000610351562
 21
15.00001430511475
  0
LINE
  8
0
  6
CONTINUOUS
 62
     7
 10
942
 20
-11.99998474121094
 11
902
 21
-11.99998474121094
  0
LINE
  8
0
  6
CONTINUOUS
 62
     7
 10
942
 20
12.00001525878906
 11
902
 21
12.00001525878906
  0
LINE
  8
0
  6
CONTINUOUS
 62
     7
 10
902
 20
-14.99998474121094
 11
898
 21
-14.99998474121094
  0
LINE
  8
0
  6
CONTINUOUS
 62
     7
 10
902
 20
15.00001525878906
 11
898
 21
15.00001525878906
  0
LINE
  8
0
  6
CONTINUOUS
 62
     7
 10
942
 20
4.000015258789063
 11
908
 21
4.000015258789063
  0
LINE
  8
0
  6
CONTINUOUS
 62
     7
 10
942
 20
-3.999984979629517
 11
908
 21
-3.999984979629517
  0
LINE
  8
0
  6
CONTINUOUS
 62
     7
 10
910.0000610351562
 20
-3.999985694885254
 11
910.0000610351562
 21
4.000014305114746
  0
LINE
  8
0
  6
CONTINUOUS
 62
     7
 10
653
 20
-328.9125671386719
 11
653
 21
-403.8289794921875
  0
LINE
  8
0
  6
CONTINUOUS
 62
     7
 10
621.313720703125
 20
-361.0000305175781
 11
684.4012451171875
 21
-361.0000305175781
  0
ARC
  8
0
  6
CONTINUOUS
 62
     7
 10
741
 20
-447.0816650390625
 40
5
 50
0
 51
84.99987373011112
  0
ARC
  8
0
  6
CONTINUOUS
 62
     7
 10
741
 20
-652.9183349609375
 40
5.000000000000052
 50
275.0001331000777
 51
0
  0
ARC
  8
0
  6
CONTINUOUS
 62
     7
 10
728
 20
-664.0938720703125
 40
5.000000000000004
 50
95.00015859960162
 51
179.9999640278219
  0
ARC
  8
0
  6
CONTINUOUS
 62
     7
 10
728
 20
-435.9060974121094
 40
5.000000000000038
 50
179.9999776881996
 51
264.9998650786887
  0
ARC
  8
0
  6
CONTINUOUS
 62
     7
 10
743
 20
-437.2184448242187
 40
5.000000000000038
 50
179.9999776881996
 51
264.9998377579323
  0
ARC
  8
0
  6
CONTINUOUS
 62
     7
 10
653
 20
-361.0000305175781
 40
25
 50
306.4238458862582
 51
233.5761318019415
  0
CIRCLE
  8
0
  6
CONTINUOUS
 62
     7
 10
653
 20
-361.0000305175781
 40
15
  0
ARC
  8
0
  6
CONTINUOUS
 62
     7
 10
643.76513671875
 20
-380.0000305175781
 40
1.999999999999985
 50
89.99998201391097
 51
170.0000206677889
  0
ARC
  8
0
  6
CONTINUOUS
 62
     7
 10
662.23486328125
 20
-380.0000305175781
 40
1.999999999999964
 50
9.999994586450628
 51
89.99998201391097
  0
ARC
  8
0
  6
CONTINUOUS
 62
     7
 10
634.5936279296875
 20
-385.944091796875
 40
6.000000000000009
 50
349.8636347103541
 51
53.57615411374161
  0
ARC
  8
0
  6
CONTINUOUS
 62
     7
 10
671.4063720703125
 20
-385.944091796875
 40
6.000000000000024
 50
126.4238645555929
 51
189.9999620293671
  0
ARC
  8
0
  6
CONTINUOUS
 62
     7
 10
580
 20
-429.5243530273438
 40
9.999999999999991
 50
274.9999691755382
 51
0
  0
ARC
  8
0
  6
CONTINUOUS
 62
     7
 10
479.3774108886719
 20
-651.9097290039063
 40
70.00000000000004
 50
310.6737705878531
 51
353.3631794618058
  0
ARC
  8
0
  6
CONTINUOUS
 62
     7
 10
588
 20
-690
 40
14.99999999999994
 50
270.0000179860892
 51
0
  0
ARC
  8
0
  6
CONTINUOUS
 62
     7
 10
528
 20
-708
 40
3.000000000000034
 50
89.99998201390989
 51
179.9999640278219
  0
ARC
  8
0
  6
CONTINUOUS
 62
     7
 10
822
 20
-708
 40
3
 50
0
 51
89.99998201390989
  0
ARC
  8
0
  6
CONTINUOUS
 62
     7
 10
588
 20
-423.8052673339844
 40
14.99999999999998
 50
275.0000238170512
 51
0
  0
ARC
  8
0
  6
CONTINUOUS
 62
     7
 10
768.6522827148438
 20
-665
 40
40.00000000000004
 50
219.9999869972261
 51
270.0000179860893
  0
ARC
  8
0
  6
CONTINUOUS
 62
     7
 10
725
 20
-519.6337890625
 40
99.99999999999996
 50
179.9999776881997
 51
219.9999833547605
  0
CIRCLE
  8
0
  6
CONTINUOUS
 62
     3
 10
585
 20
-550
 40
8.507550239562988
  0
CIRCLE
  8
0
  6
CONTINUOUS
 62
     3
 10
583
 20
-635
 40
8.507550239562988
  0
ARC
  8
0
  6
CONTINUOUS
 62
     7
 10
549.9384765625
 20
-614.1322021484375
 40
3.000000000000032
 50
355.0001030251773
 51
89.99998201390989
  0
ARC
  8
0
  6
CONTINUOUS
 62
     7
 10
856
 20
-599.6885375976562
 40
4.999999999999972
 50
109.9999370358672
 51
179.9999640278219
  0
ARC
  8
0
  6
CONTINUOUS
 62
     7
 10
856
 20
-500.3114624023438
 40
4.999999999999963
 50
180.0000359721788
 51
250.0000766245117
  0
ARC
  8
0
  6
CONTINUOUS
 62
     7
 10
0
 20
-550
 40
150
 50
80.40595679625224
 51
99.59408919383911
  0
ARC
  8
0
  6
CONTINUOUS
 62
     7
 10
0
 20
-550
 40
150
 50
106.7608291050151
 51
112.3943349814957
  0
ARC
  8
0
  6
CONTINUOUS
 62
     7
 10
0
 20
-550
 40
150
 50
67.60560855575807
 51
73.23914858318459
  0
ARC
  8
0
  6
CONTINUOUS
 62
     7
 10
9.73834228515625
 20
-379.4000244140625
 40
1.39999997615814
 50
9.999995440224259
 51
78.39428850076496
  0
ARC
  8
0
  6
CONTINUOUS
 62
     7
 10
0
 20
-341.0000305175781
 40
5
 50
0
 51
179.9999640278213
  0
ARC
  8
0
  6
CONTINUOUS
 62
     7
 10
6.4000244140625
 20
-384.2000427246094
 40
1.399999976158142
 50
179.9999776881999
 51
270.000028004002
  0
ARC
  8
0
  6
CONTINUOUS
 62
     7
 10
-6.4000244140625
 20
-384.2000427246094
 40
1.399999976158144
 50
269.999963344576
 51
0
  0
ARC
  8
0
  6
CONTINUOUS
 62
     7
 10
-9.73834228515625
 20
-379.4000244140625
 40
1.399999976158126
 50
101.6056755270564
 51
169.9999660262765
  0
CIRCLE
  8
0
  6
CONTINUOUS
 62
     7
 10
0
 20
-550
 40
75
  0
CIRCLE
  8
0
  6
CONTINUOUS
 62
     7
 10
0
 20
-550
 40
110
  0
ARC
  8
0
  6
CONTINUOUS
 62
     3
 10
0
 20
-550
 40
95
 50
23.96605804278047
 51
36.0338821551691
  0
ARC
  8
0
  6
CONTINUOUS
 62
     3
 10
0
 20
-550
 40
95.00000000000003
 50
83.966056297338
 51
96.03390773048332
  0
ARC
  8
0
  6
CONTINUOUS
 62
     3
 10
0
 20
-550
 40
95.00000000000001
 50
143.9660579669901
 51
156.0338957397571
  0
ARC
  8
0
  6
CONTINUOUS
 62
     3
 10
0
 20
-550
 40
95
 50
203.9660632791079
 51
216.0339010518749
  0
ARC
  8
0
  6
CONTINUOUS
 62
     3
 10
0
 20
-550
 40
95.00000000000001
 50
263.96606494876
 51
276.0338890611487
  0
ARC
  8
0
  6
CONTINUOUS
 62
     3
 10
0
 20
-550
 40
94.99999999999999
 50
323.9660632033175
 51
336.0338873157062
  0
ARC
  8
0
  6
CONTINUOUS
 62
     7
 10
0
 20
-582
 40
180
 50
0
 51
179.9999640278213
  0
ARC
  8
0
  6
CONTINUOUS
 62
     7
 10
-82
 20
-705
 40
7.999999999999996
 50
179.9999776881995
 51
270.000028004002
  0
ARC
  8
0
  6
CONTINUOUS
 62
     7
 10
82
 20
-705
 40
8.000000000000053
 50
270.0000179860893
 51
0
  0
ARC
  8
0
  6
CONTINUOUS
 62
     7
 10
-85
 20
-735
 40
5.000000000000019
 50
89.99998201391064
 51
179.9999640278219
  0
ARC
  8
0
  6
CONTINUOUS
 62
     7
 10
85
 20
-735
 40
5
 50
0
 51
89.99998201391064
  0
ARC
  8
0
  6
CONTINUOUS
 62
     7
 10
28
 20
-710
 40
3
 50
179.9999776882003
 51
270.0000280040019
  0
ARC
  8
0
  6
CONTINUOUS
 62
     7
 10
-28
 20
-710
 40
3.000000000000034
 50
270.0000179860893
 51
0
  0
ARC
  8
0
  6
CONTINUOUS
 62
     7
 10
120.5865478515625
 20
-690
 40
15
 50
189.9999793322108
 51
270.0000179860893
  0
ARC
  8
0
  6
CONTINUOUS
 62
     7
 10
-120.5864868164063
 20
-690
 40
14.99999999999994
 50
270.0000179860893
 51
349.9999917531708
  0
ARC
  8
0
  6
CONTINUOUS
 62
     7
 10
66.14056396484375
 20
-656.0679931640625
 40
14.99999999999999
 50
9.999968119467892
 51
121.9464160074611
  0
ARC
  8
0
  6
CONTINUOUS
 62
     7
 10
-66.14056396484375
 20
-656.0679931640625
 40
15.00000000000002
 50
58.05376658641372
 51
170.0000206677892
  0
ARC
  8
0
  6
CONTINUOUS
 62
     3
 10
0
 20
-550
 40
132.5
 50
331.0102046339863
 51
343.9897565477341
  0
ARC
  8
0
  6
CONTINUOUS
 62
     3
 10
0
 20
-550
 40
132.5
 50
106.010204975609
 51
118.9897773799243
  0
ARC
  8
0
  6
CONTINUOUS
 62
     3
 10
0
 20
-550
 40
132.5
 50
286.010172645896
 51
298.9897450502113
  0
ARC
  8
0
  6
CONTINUOUS
 62
     3
 10
0
 20
-550
 40
132.4999999999999
 50
241.0101816389407
 51
253.9897472130668
  0
ARC
  8
0
  6
CONTINUOUS
 62
     3
 10
0
 20
-550
 40
132.5
 50
151.0101959825643
 51
163.9897547265013
  0
ARC
  8
0
  6
CONTINUOUS
 62
     3
 10
0
 20
-550
 40
132.5
 50
196.010217952742
 51
208.9897630363006
  0
ARC
  8
0
  6
CONTINUOUS
 62
     3
 10
0
 20
-550
 40
132.5
 50
331.0102046339863
 51
343.9897565477341
  0
ARC
  8
0
  6
CONTINUOUS
 62
     7
 10
15.7349853515625
 20
-405.7008056640625
 40
3
 50
0
 51
84.89928553420441
  0
ARC
  8
0
  6
CONTINUOUS
 62
     7
 10
-15.7349853515625
 20
-405.7008056640625
 40
2.999999999999994
 50
95.10073313513033
 51
179.9999640278208
  0
ARC
  8
0
  6
CONTINUOUS
 62
     7
 10
-21.7349853515625
 20
-439.1100158691406
 40
3.000000000000006
 50
281.089554103657
 51
0
  0
ARC
  8
0
  6
CONTINUOUS
 62
     7
 10
21.7349853515625
 20
-439.1100158691406
 40
3
 50
179.9999776881992
 51
258.9104235845426
  0
ARC
  8
0
  6
CONTINUOUS
 62
     7
 10
115
 20
-598.9898071289063
 40
14.99999999999999
 50
156.9261096906576
 51
179.9999640278215
  0
ARC
  8
0
  6
CONTINUOUS
 62
     7
 10
-115
 20
-598.9898071289063
 40
15
 50
0
 51
23.07391410131893
  0
ARC
  8
0
  6
CONTINUOUS
 62
     7
 10
0
 20
-550
 40
37.50000000000002
 50
105.4660233138666
 51
74.53398488281326
  0
ARC
  8
0
  6
CONTINUOUS
 62
     7
 10
177
 20
-708
 40
3
 50
0
 51
89.99998201391043
  0
ARC
  8
0
  6
CONTINUOUS
 62
     7
 10
93
 20
-708
 40
3.000000000000034
 50
89.9999820139107
 51
179.9999640278219
  0
ARC
  8
0
  6
CONTINUOUS
 62
     7
 10
-93
 20
-708
 40
3
 50
0
 51
89.9999820139107
  0
ARC
  8
0
  6
CONTINUOUS
 62
     7
 10
-177
 20
-708
 40
3.000000000000034
 50
89.99998201391043
 51
179.9999640278219
  0
ARC
  8
0
  6
CONTINUOUS
 62
     3
 10
0
 20
-550
 40
132.5
 50
16.01020588622541
 51
28.98977487544615
  0
ARC
  8
0
  6
CONTINUOUS
 62
     3
 10
0
 20
-550
 40
132.5
 50
61.01020713846451
 51
73.98977271259065
  0
CIRCLE
  8
0
  6
CONTINUOUS
 62
     3
 10
0
 20
-550
 40
8
  0
CIRCLE
  8
0
  6
CONTINUOUS
 62
     7
 10
0
 20
-550
 40
7.099999904632568
  0
ARC
  8
0
  6
CONTINUOUS
 62
     7
 10
741
 20
102.918342590332
 40
5
 50
0
 51
84.99987373011112
  0
ARC
  8
0
  6
CONTINUOUS
 62
     7
 10
741
 20
-102.918327331543
 40
4.999999999999996
 50
275.0001331000777
 51
0
  0
ARC
  8
0
  6
CONTINUOUS
 62
     7
 10
728
 20
-114.093864440918
 40
5.000000000000004
 50
95.00015859960162
 51
179.9999640278213
  0
ARC
  8
0
  6
CONTINUOUS
 62
     7
 10
728
 20
114.093879699707
 40
5.000000000000038
 50
179.9999776881996
 51
264.9998650786887
  0
ARC
  8
0
  6
CONTINUOUS
 62
     7
 10
708
 20
8.666379471833352E-06
 40
29.99999999999999
 50
304.8498834335421
 51
55.15011656645786
  0
ARC
  8
0
  6
CONTINUOUS
 62
     7
 10
728
 20
28.72284889221191
 40
5.000000000000038
 50
179.9999776881997
 51
235.1501079150353
  0
ARC
  8
0
  6
CONTINUOUS
 62
     7
 10
728
 20
-28.72276878356934
 40
5.000000000000026
 50
124.8500796877957
 51
179.9999640278213
  0
CIRCLE
  8
0
  6
CONTINUOUS
 62
     3
 10
720
 20
9.004030289361253E-06
 40
10.69374942779541
  0
ARC
  8
0
  6
CONTINUOUS
 62
     7
 10
653
 20
7.118811481632292E-06
 40
20.13370323181152
 50
14.37929160866249
 51
165.620708277652
  0
ARC
  8
0
  6
CONTINUOUS
 62
     7
 10
653
 20
7.118811481632292E-06
 40
20.13370323181157
 50
194.379291722348
 51
345.6207083913375
  0
ARC
  8
0
  6
CONTINUOUS
 62
     7
 10
652.9999389648438
 20
7.11881011739024E-06
 40
12.5
 50
23.57817843000461
 51
156.4218368242355
  0
ARC
  8
0
  6
CONTINUOUS
 62
     7
 10
632.9999389648437
 20
6.556057996931486E-06
 40
5
 50
89.99998201391031
 51
270.0000006832456
  0
ARC
  8
0
  6
CONTINUOUS
 62
     7
 10
672.9999389648438
 20
7.681562237848993E-06
 40
5
 50
270.0000179860897
 51
89.99998201391031
  0
ARC
  8
0
  6
CONTINUOUS
 62
     7
 10
652.9999389648438
 20
7.11881011739024E-06
 40
12.50000000000001
 50
203.5781631757645
 51
336.4218215699954
  0
ARC
  8
0
  6
CONTINUOUS
 62
     7
 10
522
 20
-83.6602783203125
 40
5
 50
0
 51
59.99998117908478
  0
ARC
  8
0
  6
CONTINUOUS
 62
     7
 10
522
 20
83.6602783203125
 40
4.99999999999998
 50
299.9999300284557
 51
0
  0
ARC
  8
0
  6
CONTINUOUS
 62
     7
 10
588
 20
126.1946487426758
 40
14.99999999999999
 50
275.0000238170512
 51
0
  0
ARC
  8
0
  6
CONTINUOUS
 62
     7
 10
588
 20
-126.1946334838867
 40
15
 50
0
 51
84.99997618294879
  0
ARC
  8
0
  6
CONTINUOUS
 62
     7
 10
540
 20
165
 40
15
 50
89.99998201391075
 51
179.9999640278213
  0
ARC
  8
0
  6
CONTINUOUS
 62
     7
 10
540
 20
105.0000076293945
 40
15
 50
179.9999776881997
 51
209.9264925177456
  0
ARC
  8
0
  6
CONTINUOUS
 62
     7
 10
810
 20
165.0000152587891
 40
15
 50
0
 51
89.99998201391075
  0
ARC
  8
0
  6
CONTINUOUS
 62
     7
 10
810
 20
122.5586700439453
 40
15
 50
280.1246942607443
 51
0
  0
ARC
  8
0
  6
CONTINUOUS
 62
     7
 10
810
 20
-122.5587005615234
 40
15
 50
0
 51
79.87534672039071
  0
ARC
  8
0
  6
CONTINUOUS
 62
     7
 10
810
 20
-164.9999847412109
 40
15
 50
270.0000179860892
 51
0
  0
ARC
  8
0
  6
CONTINUOUS
 62
     7
 10
540
 20
-104.9999923706055
 40
15.00000000000003
 50
150.0735038397889
 51
179.9999640278213
  0
ARC
  8
0
  6
CONTINUOUS
 62
     7
 10
540
 20
-165
 40
15
 50
179.9999776881996
 51
270.0000280040019
  0
ARC
  8
0
  6
CONTINUOUS
 62
     7
 10
610
 20
5.908895218453836E-06
 40
20.00000000000001
 50
124.518146154511
 51
235.481836542645
  0
ARC
  8
0
  6
CONTINUOUS
 62
     7
 10
593
 20
24.7183895111084
 40
10.00000000000003
 50
304.5181582210278
 51
360
  0
ARC
  8
0
  6
CONTINUOUS
 62
     7
 10
495
 20
2.673071548997541E-06
 40
10
 50
270.0000179860893
 51
89.99998201391064
  0
ARC
  8
0
  6
CONTINUOUS
 62
     7
 10
593
 20
-24.7183780670166
 40
10
 50
0
 51
55.48184177897218
  0
CIRCLE
  8
0
  6
CONTINUOUS
 62
     7
 10
550
 20
-150
 40
11
  0
CIRCLE
  8
0
  6
CONTINUOUS
 62
     7
 10
550
 20
150
 40
11
  0
CIRCLE
  8
0
  6
CONTINUOUS
 62
     7
 10
800
 20
150.0000152587891
 40
11
  0
CIRCLE
  8
0
  6
CONTINUOUS
 62
     7
 10
800
 20
-149.9999847412109
 40
11
  0
ARC
  8
0
  6
CONTINUOUS
 62
     7
 10
745
 20
160.0000152587891
 40
4.999999999999977
 50
6.865607969727686
 51
90.00000250447782
  0
ARC
  8
0
  6
CONTINUOUS
 62
     7
 10
745
 20
-159.9999847412109
 40
5.000000000000004
 50
269.9999974955222
 51
355.0391469477946
  0
ARC
  8
0
  6
CONTINUOUS
 62
     7
 10
908
 20
4.177179562248057E-06
 40
4
 50
90.00002299504598
 51
270.0000006832446
  0
ARC
  8
0
  6
CONTINUOUS
 62
     7
 10
856
 20
49.68854522705078
 40
4.999999999999943
 50
180.000008651422
 51
250.0000288131876
  0
ARC
  8
0
  6
CONTINUOUS
 62
     7
 10
856
 20
-49.68849945068359
 40
4.999999999999991
 50
109.9999233754883
 51
179.9999503674429
  0
TEXT
  8
0
  6
CONTINUOUS
 62
     7
 10
-100.7143068313599
 20
-15
 40
30
 41
0.8463386888263608
  1
ＥＲ－＿ＮＣＥ
  0
ENDSEC
  0
EOF
