  0
SECTION
  2
HEADER
  0
ENDSEC
  0
SECTION
  2
TABLES
  0
TABLE
  2
LTYPE
 70
    22
  0
LTYPE
  2
CONTINUOUS
 70
    64
  3
Solid line
 72
    65
 73
     0
 40
0.000000
  0
LTYPE
  2
DASHED
 70
    64
  3
__ __ __ __ __ __ __ __ __ __ __ __ __ __ __
 72
    65
 73
     2
 40
3.500000
 49
2.000000
 49
-1.500000
  0
LTYPE
  2
CENTER
 70
    64
  3
____ _ ____ _ ____ _ ____ _ ____ _ ____ _ ____
 72
    65
 73
     4
 40
17.500000
 49
13.000000
 49
-1.500000
 49
1.500000
 49
-1.500000
  0
LTYPE
  2
PHANTOM
 70
    64
  3
_____ _ _ _____ _ _ _____ _ _ _____ _ _ ____  
 72
    65
 73
     6
 40
15.500000
 49
8.000000
 49
-1.500000
 49
1.500000
 49
-1.500000
 49
1.500000
 49
-1.500000
  0
LTYPE
  2
DOT
 70
    64
  3
. . . . . . . . . . . . . . . . . . . . . . . .
 72
    65
 73
     2
 40
0.25
 49
0.0
 49
-0.25
  0
ENDTAB
  0
TABLE
  2
LAYER
 70
     1
  0
LAYER
  2
0
 70
     0
 62
     7
  6
CONTINUOUS
  0
ENDTAB
  0
TABLE
  2
STYLE
 70
     1
  0
STYLE
  2
STANDARD
 70
     0
 40
0.000000
 41
1.000000
 50
0.000000
 71
     0
 42
0.200000
  3
txt
  4
BIGFONT
  0
ENDTAB
  0
TABLE
  2
VIEW
 70
     0
  0
ENDTAB
  0
ENDSEC
  0
SECTION
  2
BLOCKS
  0
ENDSEC
  0
SECTION
  2
ENTITIES
  0
LINE
  8
0
  6
CONTINUOUS
 62
     3
 10
235
 20
-300
 11
560
 21
-300
  0
LINE
  8
0
  6
CONTINUOUS
 62
     7
 10
444
 20
-207.5
 11
444
 21
-387.008056640625
  0
LINE
  8
0
  6
CONTINUOUS
 62
     7
 10
398
 20
-205
 11
440
 21
-205
  0
LINE
  8
0
  6
CONTINUOUS
 62
     7
 10
398.0000610351562
 20
-205.0000915527344
 11
394.0000610351562
 21
-209.0000762939453
  0
LINE
  8
0
  6
CONTINUOUS
 62
     7
 10
443.9999694824219
 20
-209
 11
439.9999694824219
 21
-205
  0
LINE
  8
0
  6
CONTINUOUS
 62
     7
 10
398
 20
-262.3461303710937
 11
440
 21
-262.3461303710937
  0
LINE
  8
0
  6
CONTINUOUS
 62
     7
 10
398
 20
-273.7876892089844
 11
440
 21
-273.7876892089844
  0
LINE
  8
0
  6
CONTINUOUS
 62
     7
 10
398
 20
-283.5312194824219
 11
440
 21
-283.5312194824219
  0
LINE
  8
0
  6
CONTINUOUS
 62
     7
 10
398
 20
-295.0005187988281
 11
440
 21
-295.0005187988281
  0
LINE
  8
0
  6
CONTINUOUS
 62
     7
 10
398
 20
-305.0001220703125
 11
440
 21
-305.0001220703125
  0
LINE
  8
0
  6
CONTINUOUS
 62
     7
 10
398
 20
-316.4694519042969
 11
440
 21
-316.4694519042969
  0
LINE
  8
0
  6
CONTINUOUS
 62
     7
 10
398
 20
-326.2124633789062
 11
440
 21
-326.2124633789062
  0
LINE
  8
0
  6
CONTINUOUS
 62
     7
 10
401.5589599609375
 20
-337.6537170410156
 11
440
 21
-337.6537170410156
  0
LINE
  8
0
  6
CONTINUOUS
 62
     7
 10
417.5463256835937
 20
-356.7067260742187
 11
440
 21
-356.7067260742187
  0
LINE
  8
0
  6
CONTINUOUS
 62
     7
 10
425.3206787109375
 20
-365.9718017578125
 11
440
 21
-365.9718017578125
  0
LINE
  8
0
  6
CONTINUOUS
 62
     7
 10
431.0444946289062
 20
-372.7931823730469
 11
440
 21
-372.7931823730469
  0
LINE
  8
0
  6
CONTINUOUS
 62
     7
 10
436.8051452636719
 20
-379.6584777832031
 11
440
 21
-379.6584777832031
  0
LINE
  8
0
  6
CONTINUOUS
 62
     7
 10
454
 20
-207.5
 11
454
 21
-391.9166259765625
  0
LINE
  8
0
  6
CONTINUOUS
 62
     7
 10
454
 20
-207.5
 11
444
 21
-207.5
  0
LINE
  8
0
  6
CONTINUOUS
 62
     7
 10
501
 20
-260
 11
471
 21
-260
  0
LINE
  8
0
  6
CONTINUOUS
 62
     7
 10
501
 20
-340
 11
471
 21
-340
  0
LINE
  8
0
  6
CONTINUOUS
 62
     7
 10
501
 20
-260
 11
501
 21
-340
  0
LINE
  8
0
  6
CONTINUOUS
 62
     7
 10
470.9999694824219
 20
-340.0000305175781
 11
457.2898864746094
 21
-344.9900817871094
  0
LINE
  8
0
  6
CONTINUOUS
 62
     7
 10
470.9999694824219
 20
-260
 11
457.2898864746094
 21
-255.0099334716797
  0
LINE
  8
0
  6
CONTINUOUS
 62
     7
 10
545
 20
-285
 11
545
 21
-312
  0
LINE
  8
0
  6
CONTINUOUS
 62
     7
 10
505
 20
-285
 11
505
 21
-315
  0
LINE
  8
0
  6
CONTINUOUS
 62
     7
 10
545
 20
-288
 11
505
 21
-288
  0
LINE
  8
0
  6
CONTINUOUS
 62
     7
 10
545
 20
-312
 11
505
 21
-312
  0
LINE
  8
0
  6
CONTINUOUS
 62
     7
 10
505
 20
-285
 11
501
 21
-285
  0
LINE
  8
0
  6
CONTINUOUS
 62
     7
 10
505
 20
-315
 11
501
 21
-315
  0
LINE
  8
0
  6
CONTINUOUS
 62
     7
 10
513
 20
-285
 11
513
 21
-288
  0
LINE
  8
0
  6
CONTINUOUS
 62
     7
 10
545
 20
-285
 11
513
 21
-285
  0
LINE
  8
0
  6
CONTINUOUS
 62
     7
 10
313
 20
-237.5
 11
335
 21
-237.5
  0
LINE
  8
0
  6
CONTINUOUS
 62
     7
 10
313
 20
-362.5
 11
335
 21
-362.5
  0
LINE
  8
0
  6
CONTINUOUS
 62
     7
 10
394
 20
-207.5
 11
394
 21
-328.6453247070313
  0
LINE
  8
0
  6
CONTINUOUS
 62
     7
 10
325
 20
-393
 11
325
 21
-415
  0
LINE
  8
0
  6
CONTINUOUS
 62
     7
 10
325
 20
-415
 11
495
 21
-415
  0
LINE
  8
0
  6
CONTINUOUS
 62
     7
 10
495
 20
-393
 11
495
 21
-415
  0
LINE
  8
0
  6
CONTINUOUS
 62
     7
 10
325
 20
-393
 11
364
 21
-393
  0
LINE
  8
0
  6
CONTINUOUS
 62
     7
 10
313
 20
-237.5
 11
313
 21
-247.3037414550781
  0
LINE
  8
0
  6
CONTINUOUS
 62
     7
 10
379
 20
-207.5
 11
379
 21
-285.3508911132813
  0
LINE
  8
0
  6
CONTINUOUS
 62
     7
 10
335
 20
-362.5
 11
337.6562194824219
 21
-362.6392211914062
  0
LINE
  8
0
  6
CONTINUOUS
 62
     7
 10
379
 20
-207.5
 11
394
 21
-207.5
  0
LINE
  8
0
  6
CONTINUOUS
 62
     7
 10
369
 20
-298
 11
369
 21
-388
  0
LINE
  8
0
  6
CONTINUOUS
 62
     7
 10
394
 20
-328.6452941894531
 11
439.0079040527344
 21
-382.2836303710938
  0
LINE
  8
0
  6
CONTINUOUS
 62
     7
 10
335.3992614746094
 20
-388.435791015625
 11
339.6081237792969
 21
-340.328125
  0
LINE
  8
0
  6
CONTINUOUS
 62
     7
 10
310
 20
-252.5000305175781
 11
310
 21
-347.5
  0
LINE
  8
0
  6
CONTINUOUS
 62
     7
 10
309.9999084472656
 20
-252.5000152587891
 11
312.9999084472656
 21
-247.3038940429687
  0
LINE
  8
0
  6
CONTINUOUS
 62
     7
 10
309.9999694824219
 20
-347.5
 11
312.9999389648438
 21
-352.6961059570313
  0
LINE
  8
0
  6
CONTINUOUS
 62
     3
 10
345
 20
-385.133544921875
 11
345
 21
-421.895751953125
  0
LINE
  8
0
  6
CONTINUOUS
 62
     3
 10
475
 20
-384.1661376953125
 11
475
 21
-424.7980346679687
  0
LINE
  8
0
  6
CONTINUOUS
 62
     7
 10
295
 20
-278
 11
295
 21
-281
  0
LINE
  8
0
  6
CONTINUOUS
 62
     7
 10
250
 20
-278
 11
250
 21
-319
  0
LINE
  8
0
  6
CONTINUOUS
 62
     7
 10
250
 20
-281
 11
305
 21
-281
  0
LINE
  8
0
  6
CONTINUOUS
 62
     7
 10
250
 20
-319
 11
305
 21
-319
  0
LINE
  8
0
  6
CONTINUOUS
 62
     7
 10
305
 20
-277.5
 11
305
 21
-322.5
  0
LINE
  8
0
  6
CONTINUOUS
 62
     7
 10
305
 20
-277.5
 11
310
 21
-277.5
  0
LINE
  8
0
  6
CONTINUOUS
 62
     7
 10
305
 20
-322.5
 11
310
 21
-322.5
  0
LINE
  8
0
  6
CONTINUOUS
 62
     7
 10
250
 20
-278
 11
295
 21
-278
  0
LINE
  8
0
  6
DASHED
 62
     7
 10
352.5
 20
-393
 11
352.5
 21
-415
  0
LINE
  8
0
  6
DASHED
 62
     7
 10
337.5
 20
-393
 11
337.5
 21
-415
  0
LINE
  8
0
  6
DASHED
 62
     7
 10
482.5
 20
-393
 11
482.5
 21
-415
  0
LINE
  8
0
  6
DASHED
 62
     7
 10
467.5
 20
-393
 11
467.5
 21
-415
  0
LINE
  8
0
  6
CONTINUOUS
 62
     7
 10
335
 20
-237.5000305175781
 11
374.2616882324219
 21
-235.4424133300781
  0
LINE
  8
0
  6
CONTINUOUS
 62
     7
 10
461.9892272949219
 20
-393
 11
495
 21
-393
  0
LINE
  8
0
  6
CONTINUOUS
 62
     7
 10
313
 20
-352.6961975097656
 11
313
 21
-362.5
  0
LINE
  8
0
  6
CONTINUOUS
 62
     3
 10
-110
 20
-300
 11
110
 21
-300
  0
LINE
  8
0
  6
CONTINUOUS
 62
     3
 10
0
 20
-190
 11
0
 21
-426.3888854980469
  0
LINE
  8
0
  6
CONTINUOUS
 62
     7
 10
93.56163024902344
 20
-283.5312194824219
 11
91.20693969726563
 21
-284.5875244140625
  0
LINE
  8
0
  6
CONTINUOUS
 62
     7
 10
91.31198120117187
 20
-273.7876892089844
 11
88.73274230957031
 21
-273.8705139160156
  0
LINE
  8
0
  6
CONTINUOUS
 62
     7
 10
87.21929931640625
 20
-262.3461303710937
 11
85.33287811279297
 21
-264.2991638183594
  0
LINE
  8
0
  6
CONTINUOUS
 62
     7
 10
-11.00004482269287
 20
-205.6389770507813
 11
-11.74817180633545
 21
-208.2490844726563
  0
LINE
  8
0
  6
CONTINUOUS
 62
     7
 10
-22.95572853088379
 20
-207.8154602050781
 11
-21.73784446716309
 21
-210.0905151367188
  0
LINE
  8
0
  6
CONTINUOUS
 62
     7
 10
-32.51862716674805
 20
-210.7388153076172
 11
-32.25603866577148
 21
-213.3062896728516
  0
LINE
  8
0
  6
CONTINUOUS
 62
     7
 10
-43.10442733764648
 20
-215.3421325683594
 11
-41.4060173034668
 21
-217.2848815917969
  0
LINE
  8
0
  6
CONTINUOUS
 62
     7
 10
-51.76449966430664
 20
-220.3416595458984
 11
-50.93109130859375
 21
-222.7842407226562
  0
LINE
  8
0
  6
CONTINUOUS
 62
     7
 10
-61.04362869262695
 20
-227.2085113525391
 11
-58.95182418823242
 21
-228.7193298339844
  0
LINE
  8
0
  6
CONTINUOUS
 62
     7
 10
-68.35663604736328
 20
-234.0274810791016
 11
-66.99516296386719
 21
-236.2199249267578
  0
LINE
  8
0
  6
CONTINUOUS
 62
     7
 10
-76.21876525878906
 20
-243.2924957275391
 11
-73.58406066894531
 21
-243.94970703125
  0
LINE
  8
0
  6
CONTINUOUS
 62
     7
 10
-87.21897888183594
 20
-262.3460388183594
 11
-85.33274841308594
 21
-264.2988586425781
  0
LINE
  8
0
  6
CONTINUOUS
 62
     7
 10
-91.31203460693359
 20
-273.7865905761719
 11
-88.73242950439453
 21
-273.8694458007812
  0
LINE
  8
0
  6
CONTINUOUS
 62
     7
 10
-93.56208801269531
 20
-283.5323486328125
 11
-91.20714569091797
 21
-284.5887756347656
  0
LINE
  8
0
  6
CONTINUOUS
 62
     3
 10
76.33903503417969
 20
-255.92529296875
 11
58.08922958374023
 21
-266.4618225097656
  0
LINE
  8
0
  6
CONTINUOUS
 62
     7
 10
-110
 20
-415
 11
-55
 21
-415
  0
LINE
  8
0
  6
CONTINUOUS
 62
     7
 10
-110
 20
-393
 11
-55
 21
-393
  0
LINE
  8
0
  6
CONTINUOUS
 62
     7
 10
-110
 20
-393
 11
-110
 21
-415
  0
LINE
  8
0
  6
CONTINUOUS
 62
     7
 10
110
 20
-393
 11
110
 21
-415
  0
LINE
  8
0
  6
CONTINUOUS
 62
     7
 10
-55
 20
-393
 11
-55
 21
-415
  0
LINE
  8
0
  6
CONTINUOUS
 62
     7
 10
55
 20
-393
 11
55
 21
-415
  0
LINE
  8
0
  6
CONTINUOUS
 62
     7
 10
-52
 20
-412
 11
52
 21
-412
  0
LINE
  8
0
  6
CONTINUOUS
 62
     7
 10
55
 20
-393
 11
110
 21
-393
  0
LINE
  8
0
  6
CONTINUOUS
 62
     7
 10
55
 20
-415
 11
110
 21
-415
  0
LINE
  8
0
  6
CONTINUOUS
 62
     7
 10
44.38893890380859
 20
-353.3988037109375
 11
55.00004196166992
 21
-393
  0
LINE
  8
0
  6
CONTINUOUS
 62
     7
 10
52.42877197265625
 20
-337.0393981933594
 11
66.43037414550781
 21
-389.2940673828125
  0
LINE
  8
0
  6
CONTINUOUS
 62
     7
 10
65.812255859375
 20
-290
 11
87.642822265625
 21
-290
  0
LINE
  8
0
  6
CONTINUOUS
 62
     7
 10
65.812255859375
 20
-310
 11
81.01513671875
 21
-310
  0
LINE
  8
0
  6
CONTINUOUS
 62
     7
 10
92.56694793701172
 20
-294.1317138671875
 11
110.0000991821289
 21
-393
  0
LINE
  8
0
  6
CONTINUOUS
 62
     7
 10
85.93922424316406
 20
-314.1317749023438
 11
98.81109619140625
 21
-387.1317443847656
  0
LINE
  8
0
  6
CONTINUOUS
 62
     7
 10
-44.38883590698242
 20
-353.3988647460938
 11
-54.99993133544922
 21
-393
  0
LINE
  8
0
  6
CONTINUOUS
 62
     7
 10
-52.42868041992187
 20
-337.0394897460938
 11
-66.43025970458984
 21
-389.2940673828125
  0
LINE
  8
0
  6
CONTINUOUS
 62
     7
 10
-65.812255859375
 20
-290
 11
-87.642822265625
 21
-290
  0
LINE
  8
0
  6
CONTINUOUS
 62
     7
 10
-65.812255859375
 20
-310
 11
-81.01513671875
 21
-310
  0
LINE
  8
0
  6
CONTINUOUS
 62
     7
 10
-92.56659698486328
 20
-294.1318054199219
 11
-109.9997406005859
 21
-393.0000305175781
  0
LINE
  8
0
  6
CONTINUOUS
 62
     7
 10
-85.93893432617188
 20
-314.1318359375
 11
-98.81079864501953
 21
-387.1318054199219
  0
LINE
  8
0
  6
CONTINUOUS
 62
     3
 10
-76.33926391601563
 20
-255.9255065917969
 11
-58.08940887451172
 21
-266.4620666503906
  0
LINE
  8
0
  6
CONTINUOUS
 62
     3
 10
-76.33926391601563
 20
-344.0742492675781
 11
-58.08950805664063
 21
-333.5377502441406
  0
LINE
  8
0
  6
CONTINUOUS
 62
     3
 10
76.33929443359375
 20
-344.0744323730469
 11
58.0894889831543
 21
-333.5379028320313
  0
LINE
  8
0
  6
CONTINUOUS
 62
     3
 10
-90
 20
-386.1009826660156
 11
-90
 21
-423.8306274414062
  0
LINE
  8
0
  6
CONTINUOUS
 62
     3
 10
90
 20
-386.1009826660156
 11
90
 21
-423.8306274414062
  0
LINE
  8
0
  6
CONTINUOUS
 62
     7
 10
-5
 20
-278
 11
-5
 21
-286
  0
LINE
  8
0
  6
CONTINUOUS
 62
     7
 10
5
 20
-278
 11
5
 21
-286
  0
LINE
  8
0
  6
CONTINUOUS
 62
     7
 10
-5
 20
-286
 11
5
 21
-286
  0
LINE
  8
0
  6
CONTINUOUS
 62
     7
 10
-5
 20
-278
 11
5
 21
-278
  0
LINE
  8
0
  6
DASHED
 62
     7
 10
-82.5
 20
-393
 11
-82.5
 21
-415
  0
LINE
  8
0
  6
DASHED
 62
     7
 10
-97.5
 20
-393
 11
-97.5
 21
-415
  0
LINE
  8
0
  6
DASHED
 62
     7
 10
82.5
 20
-393
 11
82.5
 21
-415
  0
LINE
  8
0
  6
DASHED
 62
     7
 10
97.5
 20
-393
 11
97.5
 21
-415
  0
LINE
  8
0
  6
CONTINUOUS
 62
     7
 10
94.86818695068359
 20
-295.0005187988281
 11
92.62320709228516
 21
-294.5575866699219
  0
LINE
  8
0
  6
CONTINUOUS
 62
     7
 10
-94.86837005615234
 20
-295.0001831054687
 11
-92.64228057861328
 21
-294.5610046386719
  0
LINE
  8
0
  6
CONTINUOUS
 62
     3
 10
235
 20
0
 11
560
 21
0
  0
LINE
  8
0
  6
CONTINUOUS
 62
     7
 10
394
 20
98.65223693847656
 11
394
 21
-98.65232086181641
  0
LINE
  8
0
  6
CONTINUOUS
 62
     7
 10
398
 20
-95
 11
440
 21
-95
  0
LINE
  8
0
  6
CONTINUOUS
 62
     7
 10
398
 20
95
 11
440
 21
95
  0
LINE
  8
0
  6
CONTINUOUS
 62
     7
 10
398.0001831054688
 20
94.99987030029297
 11
394.0001831054687
 21
90.99986267089844
  0
LINE
  8
0
  6
CONTINUOUS
 62
     7
 10
393.9999694824219
 20
-90.99990844726563
 11
397.9999694824219
 21
-94.99991607666016
  0
LINE
  8
0
  6
CONTINUOUS
 62
     7
 10
440.0000915527344
 20
-95.00006103515625
 11
444.0000915527344
 21
-91.00006103515625
  0
LINE
  8
0
  6
CONTINUOUS
 62
     7
 10
443.9999694824219
 20
91.00004577636719
 11
439.9999694824219
 21
95.00004577636719
  0
LINE
  8
0
  6
CONTINUOUS
 62
     7
 10
397.9999694824219
 20
87.21896362304687
 11
440.0000915527344
 21
87.21896362304687
  0
LINE
  8
0
  6
CONTINUOUS
 62
     7
 10
397.9999694824219
 20
76.21878051757812
 11
440.0000915527344
 21
76.21878051757812
  0
LINE
  8
0
  6
CONTINUOUS
 62
     7
 10
397.9999694824219
 20
68.35662841796875
 11
440.0000915527344
 21
68.35662841796875
  0
LINE
  8
0
  6
CONTINUOUS
 62
     7
 10
397.9999694824219
 20
61.04364013671875
 11
440.0000915527344
 21
61.04364013671875
  0
LINE
  8
0
  6
CONTINUOUS
 62
     7
 10
397.9999694824219
 20
51.76449584960938
 11
440.0000915527344
 21
51.76449584960938
  0
LINE
  8
0
  6
CONTINUOUS
 62
     7
 10
397.9999694824219
 20
43.10443115234375
 11
440.0000915527344
 21
43.10443115234375
  0
LINE
  8
0
  6
CONTINUOUS
 62
     7
 10
397.9999694824219
 20
32.51864624023438
 11
440.0000915527344
 21
32.51864624023438
  0
LINE
  8
0
  6
CONTINUOUS
 62
     7
 10
397.9999694824219
 20
22.95574951171875
 11
440.0000915527344
 21
22.95574951171875
  0
LINE
  8
0
  6
CONTINUOUS
 62
     7
 10
397.9999694824219
 20
11.00006103515625
 11
440.0000915527344
 21
11.00006103515625
  0
LINE
  8
0
  6
CONTINUOUS
 62
     7
 10
397.9999694824219
 20
-87.21929931640625
 11
440.0000915527344
 21
-87.21929931640625
  0
LINE
  8
0
  6
CONTINUOUS
 62
     7
 10
454
 20
92.5
 11
454
 21
-92.50001525878906
  0
LINE
  8
0
  6
CONTINUOUS
 62
     7
 10
454
 20
92.5
 11
444
 21
92.5
  0
LINE
  8
0
  6
CONTINUOUS
 62
     7
 10
444
 20
92.5
 11
444
 21
-92.50001525878906
  0
LINE
  8
0
  6
CONTINUOUS
 62
     7
 10
501
 20
40
 11
471
 21
40
  0
LINE
  8
0
  6
CONTINUOUS
 62
     7
 10
501
 20
-40
 11
471
 21
-40
  0
LINE
  8
0
  6
CONTINUOUS
 62
     7
 10
501
 20
40
 11
501
 21
-40
  0
LINE
  8
0
  6
CONTINUOUS
 62
     7
 10
471
 20
-40.00000762939453
 11
457.2898864746094
 21
-44.99008178710938
  0
LINE
  8
0
  6
CONTINUOUS
 62
     7
 10
471
 20
39.99995040893555
 11
457.2899169921875
 21
44.99002075195312
  0
LINE
  8
0
  6
CONTINUOUS
 62
     7
 10
545
 20
12
 11
545
 21
-12
  0
LINE
  8
0
  6
CONTINUOUS
 62
     7
 10
505
 20
15
 11
505
 21
-15
  0
LINE
  8
0
  6
CONTINUOUS
 62
     7
 10
545
 20
12
 11
505
 21
12
  0
LINE
  8
0
  6
CONTINUOUS
 62
     7
 10
545
 20
-12
 11
505
 21
-12
  0
LINE
  8
0
  6
CONTINUOUS
 62
     7
 10
505
 20
15
 11
501
 21
15
  0
LINE
  8
0
  6
CONTINUOUS
 62
     7
 10
505
 20
-15
 11
501
 21
-15
  0
LINE
  8
0
  6
CONTINUOUS
 62
     7
 10
545
 20
-4
 11
511
 21
-4
  0
LINE
  8
0
  6
CONTINUOUS
 62
     7
 10
545
 20
4
 11
511
 21
4
  0
LINE
  8
0
  6
CONTINUOUS
 62
     7
 10
513
 20
4
 11
513
 21
-4
  0
LINE
  8
0
  6
CONTINUOUS
 62
     7
 10
454
 20
-92.50001525878906
 11
444
 21
-92.50001525878906
  0
LINE
  8
0
  6
CONTINUOUS
 62
     7
 10
335
 20
62.49993896484375
 11
374.2616882324219
 21
64.55755615234375
  0
LINE
  8
0
  6
CONTINUOUS
 62
     7
 10
325
 20
101.9999694824219
 11
325
 21
62.49996948242188
  0
LINE
  8
0
  6
CONTINUOUS
 62
     7
 10
495
 20
101.9999694824219
 11
495
 21
76.13912963867187
  0
LINE
  8
0
  6
CONTINUOUS
 62
     7
 10
487
 20
109.9999694824219
 11
333
 21
109.9999694824219
  0
LINE
  8
0
  6
CONTINUOUS
 62
     7
 10
487
 20
-110
 11
333
 21
-110
  0
LINE
  8
0
  6
CONTINUOUS
 62
     7
 10
335
 20
62.49996948242188
 11
313
 21
62.49996948242188
  0
LINE
  8
0
  6
CONTINUOUS
 62
     7
 10
335
 20
-62.5
 11
313
 21
-62.5
  0
LINE
  8
0
  6
CONTINUOUS
 62
     7
 10
313
 20
62.49996948242188
 11
313
 21
52.69619750976563
  0
LINE
  8
0
  6
CONTINUOUS
 62
     7
 10
379
 20
91.83822631835938
 11
379
 21
-91.83822631835938
  0
LINE
  8
0
  6
CONTINUOUS
 62
     7
 10
454
 20
-59.01786041259766
 11
489.0698852539063
 21
-68.41158294677734
  0
LINE
  8
0
  6
CONTINUOUS
 62
     7
 10
454
 20
59.01775360107422
 11
489.0699157714844
 21
68.41147613525391
  0
LINE
  8
0
  6
CONTINUOUS
 62
     7
 10
495
 20
-76.13916015625
 11
495
 21
-102
  0
LINE
  8
0
  6
CONTINUOUS
 62
     7
 10
325
 20
-62.5
 11
325
 21
-102
  0
LINE
  8
0
  6
CONTINUOUS
 62
     7
 10
369
 20
-64.28182983398437
 11
369
 21
-110
  0
LINE
  8
0
  6
CONTINUOUS
 62
     7
 10
369
 20
64.28182983398437
 11
369
 21
109.9999694824219
  0
LINE
  8
0
  6
CONTINUOUS
 62
     3
 10
358.371337890625
 20
-90
 11
333
 21
-90
  0
LINE
  8
0
  6
CONTINUOUS
 62
     3
 10
345
 20
-76.83053588867187
 11
345
 21
-102
  0
LINE
  8
0
  6
CONTINUOUS
 62
     3
 10
461.628662109375
 20
-90
 11
487
 21
-90
  0
LINE
  8
0
  6
CONTINUOUS
 62
     3
 10
475
 20
-76.83053588867187
 11
475
 21
-102
  0
LINE
  8
0
  6
CONTINUOUS
 62
     3
 10
358.371337890625
 20
89.99996948242188
 11
333
 21
89.99996948242188
  0
LINE
  8
0
  6
CONTINUOUS
 62
     3
 10
345
 20
76.83053588867187
 11
345
 21
101.9999694824219
  0
LINE
  8
0
  6
CONTINUOUS
 62
     3
 10
461.628662109375
 20
89.99996948242188
 11
487
 21
89.99996948242188
  0
LINE
  8
0
  6
CONTINUOUS
 62
     3
 10
475
 20
76.83053588867187
 11
475
 21
101.9999694824219
  0
LINE
  8
0
  6
CONTINUOUS
 62
     7
 10
250
 20
19
 11
250
 21
-19
  0
LINE
  8
0
  6
CONTINUOUS
 62
     7
 10
250
 20
19
 11
305
 21
19
  0
LINE
  8
0
  6
CONTINUOUS
 62
     7
 10
250
 20
-19
 11
305
 21
-19
  0
LINE
  8
0
  6
CONTINUOUS
 62
     7
 10
305
 20
22.5
 11
305
 21
-22.5
  0
LINE
  8
0
  6
CONTINUOUS
 62
     7
 10
305
 20
22.5
 11
310
 21
22.5
  0
LINE
  8
0
  6
CONTINUOUS
 62
     7
 10
305
 20
-22.5
 11
310
 21
-22.5
  0
LINE
  8
0
  6
CONTINUOUS
 62
     7
 10
298
 20
-5
 11
250
 21
-5
  0
LINE
  8
0
  6
CONTINUOUS
 62
     7
 10
298
 20
5
 11
250
 21
5
  0
LINE
  8
0
  6
CONTINUOUS
 62
     7
 10
295
 20
5
 11
295
 21
-5
  0
LINE
  8
0
  6
CONTINUOUS
 62
     7
 10
334.9999694824219
 20
-62.49995803833008
 11
374.2616882324219
 21
-64.55757904052734
  0
LINE
  8
0
  6
CONTINUOUS
 62
     7
 10
309.9999694824219
 20
-47.49997329711914
 11
312.9999389648438
 21
-52.69607162475586
  0
LINE
  8
0
  6
CONTINUOUS
 62
     7
 10
310
 20
47.49996948242188
 11
310
 21
-47.5
  0
LINE
  8
0
  6
CONTINUOUS
 62
     7
 10
309.9999389648438
 20
47.49998474121094
 11
312.9999389648438
 21
52.69610977172852
  0
LINE
  8
0
  6
CONTINUOUS
 62
     7
 10
379
 20
91.83822631835938
 11
369
 21
91.83822631835938
  0
LINE
  8
0
  6
CONTINUOUS
 62
     7
 10
379
 20
-91.83822631835938
 11
369
 21
-91.83822631835938
  0
LINE
  8
0
  6
CONTINUOUS
 62
     7
 10
394
 20
98.65223693847656
 11
448
 21
109.9999008178711
  0
LINE
  8
0
  6
CONTINUOUS
 62
     7
 10
393.9999694824219
 20
-98.65231323242188
 11
447.9999694824219
 21
-109.9999771118164
  0
LINE
  8
0
  6
CONTINUOUS
 62
     7
 10
313
 20
-52.69613647460938
 11
313
 21
-62.5
  0
ARC
  8
0
  6
CONTINUOUS
 62
     7
 10
459
 20
-349.6885375976562
 40
5.000000000000026
 50
109.999937035867
 51
179.9999640278213
  0
ARC
  8
0
  6
CONTINUOUS
 62
     7
 10
459
 20
-250.3114776611328
 40
5.00000000000002
 50
180.0000359721788
 51
250.0000766245117
  0
ARC
  8
0
  6
CONTINUOUS
 62
     7
 10
364
 20
-388
 40
5.000000000000019
 50
270.0000179860891
 51
0
  0
ARC
  8
0
  6
CONTINUOUS
 62
     7
 10
377
 20
-298
 40
8.000000000000018
 50
103.3424218782613
 51
179.9999640278211
  0
ARC
  8
0
  6
CONTINUOUS
 62
     7
 10
374
 20
-285.3508911132813
 40
5.000000000000002
 50
283.3423007560891
 51
0
  0
ARC
  8
0
  6
CONTINUOUS
 62
     7
 10
461.9892272949219
 20
-363
 40
30.00000000000001
 50
220.0000006576045
 51
270.0000179860893
  0
ARC
  8
0
  6
CONTINUOUS
 62
     7
 10
330.4183349609375
 20
-388
 40
5.000000000000019
 50
270.0000179860891
 51
355.0000172209265
  0
ARC
  8
0
  6
CONTINUOUS
 62
     7
 10
334.627197265625
 20
-339.892333984375
 40
5.00000000000001
 50
355.0000479567779
 51
89.99998201391097
  0
ARC
  8
0
  6
CONTINUOUS
 62
     7
 10
374
 20
-230.4492645263672
 40
5.000000000000009
 50
273.0000009940987
 51
0
  0
ARC
  8
0
  6
CONTINUOUS
 62
     7
 10
0
 20
-300
 40
95.00000000000001
 50
9.983048887120253
 51
16.01707022634129
  0
ARC
  8
0
  6
CONTINUOUS
 62
     7
 10
0
 20
-300
 40
95
 50
23.35063067780564
 51
96.64934875583648
  0
ARC
  8
0
  6
CONTINUOUS
 62
     7
 10
0
 20
-300
 40
95
 50
103.982957018625
 51
110.016937376711
  0
ARC
  8
0
  6
CONTINUOUS
 62
     7
 10
0
 20
-300
 40
94.99999999999999
 50
116.9830268206396
 51
123.0169388768339
  0
ARC
  8
0
  6
CONTINUOUS
 62
     7
 10
0
 20
-300
 40
95
 50
129.9829258679248
 51
136.0171111316859
  0
ARC
  8
0
  6
CONTINUOUS
 62
     7
 10
0
 20
-300
 40
94.99999999999999
 50
143.3506306020153
 51
156.6490225764084
  0
ARC
  8
0
  6
CONTINUOUS
 62
     7
 10
0
 20
-300
 40
95.00000000000001
 50
163.9828698958179
 51
170.0171781029841
  0
ARC
  8
0
  6
CONTINUOUS
 62
     7
 10
0
 20
-300
 40
92.5
 50
4.323779963977107
 51
175.6762357171498
  0
CIRCLE
  8
0
  6
CONTINUOUS
 62
     7
 10
0
 20
-300
 40
62.5
  0
CIRCLE
  8
0
  6
CONTINUOUS
 62
     7
 10
0
 20
-300
 40
47.5
  0
ARC
  8
0
  6
CONTINUOUS
 62
     7
 10
-52
 20
-415
 40
2.999999999999977
 50
89.9999820139107
 51
179.9999640278208
  0
ARC
  8
0
  6
CONTINUOUS
 62
     7
 10
52
 20
-415
 40
3
 50
0
 51
89.9999820139107
  0
ARC
  8
0
  6
CONTINUOUS
 62
     7
 10
71.25994873046875
 20
-388
 40
5.000000000000002
 50
194.9999510122271
 51
270.0000179860893
  0
ARC
  8
0
  6
CONTINUOUS
 62
     7
 10
87.642822265625
 20
-295
 40
5.000000000000002
 50
10.00004837419058
 51
89.99998201391064
  0
ARC
  8
0
  6
CONTINUOUS
 62
     7
 10
81.01513671875
 20
-315
 40
5.000000000000007
 50
9.999876765688141
 51
89.99998201391064
  0
ARC
  8
0
  6
CONTINUOUS
 62
     7
 10
93.886962890625
 20
-388
 40
5.000000000000019
 50
270.0000179860893
 51
10.00004837419058
  0
ARC
  8
0
  6
CONTINUOUS
 62
     7
 10
-93.886962890625
 20
-388
 40
5.000000000000004
 50
169.9999113847624
 51
269.9999460417319
  0
ARC
  8
0
  6
CONTINUOUS
 62
     7
 10
-81.01513671875
 20
-315
 40
5.000000000000019
 50
89.99998201391064
 51
170.0000889696805
  0
ARC
  8
0
  6
CONTINUOUS
 62
     7
 10
-87.642822265625
 20
-295
 40
5.000000000000019
 50
89.99998201391064
 51
169.9999113847624
  0
ARC
  8
0
  6
CONTINUOUS
 62
     7
 10
-71.25994873046875
 20
-388
 40
5
 50
269.999963344576
 51
345.0000303184381
  0
ARC
  8
0
  6
CONTINUOUS
 62
     3
 10
0
 20
-300
 40
80.99999999999999
 50
23.67662536160658
 51
36.77558947261372
  0
ARC
  8
0
  6
CONTINUOUS
 62
     3
 10
0
 20
-300
 40
81
 50
83.6766270312587
 51
96.77561163283335
  0
ARC
  8
0
  6
CONTINUOUS
 62
     3
 10
0
 20
-300
 40
81
 50
143.6766218707216
 51
156.2036259406319
  0
ARC
  8
0
  6
CONTINUOUS
 62
     3
 10
0
 20
-300
 40
81.00000000000001
 50
203.6766408432178
 51
216.7756049542249
  0
ARC
  8
0
  6
CONTINUOUS
 62
     3
 10
0
 20
-300
 40
80.99999999999999
 50
263.6766356826807
 51
276.7755997936878
  0
ARC
  8
0
  6
CONTINUOUS
 62
     3
 10
0
 20
-300
 40
80.99999999999999
 50
323.6766305221436
 51
336.7755946331508
  0
ARC
  8
0
  6
CONTINUOUS
 62
     7
 10
0
 20
-300
 40
18.99999999999999
 50
105.2575386196411
 51
74.74246957703872
  0
ARC
  8
0
  6
CONTINUOUS
 62
     7
 10
57.2584228515625
 20
-335.7453002929688
 40
5.000000000000004
 50
148.0243651265148
 51
194.999933709383
  0
ARC
  8
0
  6
CONTINUOUS
 62
     7
 10
39.55926513671875
 20
-354.6929016113281
 40
5
 50
14.99996455892003
 51
125.8780641390174
  0
ARC
  8
0
  6
CONTINUOUS
 62
     7
 10
-39.5592041015625
 20
-354.6929626464844
 40
4.999999999999988
 50
54.12205698315492
 51
165.0001446104215
  0
ARC
  8
0
  6
CONTINUOUS
 62
     7
 10
-57.25836181640625
 20
-335.745361328125
 40
5
 50
345.0000354410799
 51
31.97565354281948
  0
ARC
  8
0
  6
CONTINUOUS
 62
     7
 10
65.812255859375
 20
-285
 40
5.000000000000004
 50
192.8395894985089
 51
269.9999974955218
  0
ARC
  8
0
  6
CONTINUOUS
 62
     7
 10
65.812255859375
 20
-315
 40
5.000000000000004
 50
90.00000250447815
 51
167.1604105014911
  0
ARC
  8
0
  6
CONTINUOUS
 62
     7
 10
-65.812255859375
 20
-285
 40
5.000000000000004
 50
269.9999974955218
 51
347.1604114689504
  0
ARC
  8
0
  6
CONTINUOUS
 62
     7
 10
-65.812255859375
 20
-315
 40
5
 50
12.83958853104958
 51
90.00000250447815
  0
ARC
  8
0
  6
CONTINUOUS
 62
     7
 10
0
 20
-300
 40
94.99999999999999
 50
356.9830815379433
 51
3.017020914894262
  0
ARC
  8
0
  6
CONTINUOUS
 62
     7
 10
0
 20
-300
 40
95.00000000000001
 50
176.9830284902916
 51
183.0170088483777
  0
ARC
  8
0
  6
CONTINUOUS
 62
     7
 10
459
 20
-49.68853759765625
 40
5.000000000000005
 50
109.9999370358671
 51
179.9999640278213
  0
ARC
  8
0
  6
CONTINUOUS
 62
     7
 10
459
 20
49.68850708007812
 40
5.00000000000002
 50
180.0000359721786
 51
250.0000766245117
  0
ARC
  8
0
  6
CONTINUOUS
 62
     7
 10
511
 20
0
 40
4
 50
89.99998201391097
 51
269.9999460417321
  0
ARC
  8
0
  6
CONTINUOUS
 62
     7
 10
333
 20
101.9999694824219
 40
7.999999999999996
 50
89.99998201391055
 51
179.9999640278213
  0
ARC
  8
0
  6
CONTINUOUS
 62
     7
 10
333
 20
-102
 40
7.999999999999981
 50
179.9999776881997
 51
270.0000280040021
  0
ARC
  8
0
  6
CONTINUOUS
 62
     7
 10
487
 20
-102
 40
7.999999999999996
 50
270.0000179860895
 51
0
  0
ARC
  8
0
  6
CONTINUOUS
 62
     7
 10
487
 20
101.9999694824219
 40
8
 50
0
 51
89.99998201391055
  0
ARC
  8
0
  6
CONTINUOUS
 62
     7
 10
487
 20
-76.13916015625
 40
8
 50
0
 51
75.00491640817314
  0
ARC
  8
0
  6
CONTINUOUS
 62
     7
 10
487
 20
76.13912963867187
 40
7.999999999999995
 50
284.9950835918269
 51
0
  0
CIRCLE
  8
0
  6
CONTINUOUS
 62
     7
 10
345
 20
-90
 40
7.5
  0
CIRCLE
  8
0
  6
CONTINUOUS
 62
     7
 10
475
 20
-90
 40
7.5
  0
CIRCLE
  8
0
  6
CONTINUOUS
 62
     7
 10
345
 20
89.99996948242188
 40
7.5
  0
CIRCLE
  8
0
  6
CONTINUOUS
 62
     7
 10
475
 20
89.99996948242188
 40
7.5
  0
ARC
  8
0
  6
CONTINUOUS
 62
     7
 10
298
 20
0
 40
5
 50
270.0000179860891
 51
89.99998201391097
  0
ARC
  8
0
  6
CONTINUOUS
 62
     7
 10
374
 20
69.55075073242188
 40
4.999999999999995
 50
273.0000009940987
 51
0
  0
ARC
  8
0
  6
CONTINUOUS
 62
     7
 10
374
 20
-69.55072021484375
 40
5
 50
0
 51
86.99999900590066
  0
TEXT
  8
0
  6
CONTINUOUS
 62
     7
 10
-47.14286041259766
 20
-10
 40
20
 41
0.8489110518474969
  1
ＥＲ－＿Ｃ
  0
ENDSEC
  0
EOF
