  0
SECTION
  2
HEADER
  0
ENDSEC
  0
SECTION
  2
TABLES
  0
TABLE
  2
LTYPE
 70
    22
  0
LTYPE
  2
CONTINUOUS
 70
    64
  3
Solid line
 72
    65
 73
     0
 40
0.000000
  0
LTYPE
  2
DASHED
 70
    64
  3
__ __ __ __ __ __ __ __ __ __ __ __ __ __ __
 72
    65
 73
     2
 40
3.500000
 49
2.000000
 49
-1.500000
  0
LTYPE
  2
CENTER
 70
    64
  3
____ _ ____ _ ____ _ ____ _ ____ _ ____ _ ____
 72
    65
 73
     4
 40
17.500000
 49
13.000000
 49
-1.500000
 49
1.500000
 49
-1.500000
  0
LTYPE
  2
PHANTOM
 70
    64
  3
_____ _ _ _____ _ _ _____ _ _ _____ _ _ ____  
 72
    65
 73
     6
 40
15.500000
 49
8.000000
 49
-1.500000
 49
1.500000
 49
-1.500000
 49
1.500000
 49
-1.500000
  0
LTYPE
  2
DOT
 70
    64
  3
. . . . . . . . . . . . . . . . . . . . . . . .
 72
    65
 73
     2
 40
0.25
 49
0.0
 49
-0.25
  0
ENDTAB
  0
TABLE
  2
LAYER
 70
     1
  0
LAYER
  2
0
 70
     0
 62
     7
  6
CONTINUOUS
  0
ENDTAB
  0
TABLE
  2
STYLE
 70
     1
  0
STYLE
  2
STANDARD
 70
     0
 40
0.000000
 41
1.000000
 50
0.000000
 71
     0
 42
0.200000
  3
txt
  4
BIGFONT
  0
ENDTAB
  0
TABLE
  2
VIEW
 70
     0
  0
ENDTAB
  0
ENDSEC
  0
SECTION
  2
BLOCKS
  0
ENDSEC
  0
SECTION
  2
ENTITIES
  0
LINE
  8
0
  6
CONTINUOUS
 62
     3
 10
501.0325927734375
 20
-285
 11
240.1666717529297
 21
-285
  0
LINE
  8
0
  6
CONTINUOUS
 62
     7
 10
456
 20
-265
 11
456
 21
-305
  0
LINE
  8
0
  6
CONTINUOUS
 62
     7
 10
413
 20
-212.5
 11
403
 21
-212.5
  0
LINE
  8
0
  6
CONTINUOUS
 62
     7
 10
418
 20
-233
 11
413
 21
-233
  0
LINE
  8
0
  6
CONTINUOUS
 62
     7
 10
413
 20
-212.5
 11
413
 21
-357.5
  0
LINE
  8
0
  6
CONTINUOUS
 62
     7
 10
449
 20
-256.5
 11
449
 21
-313.5
  0
LINE
  8
0
  6
CONTINUOUS
 62
     7
 10
456
 20
-264.9999694824219
 11
449.0000305175781
 21
-260.9585266113281
  0
LINE
  8
0
  6
CONTINUOUS
 62
     7
 10
449
 20
-256.5
 11
436.8580322265625
 21
-256.5
  0
LINE
  8
0
  6
CONTINUOUS
 62
     7
 10
456.0000305175781
 20
-305
 11
449.0000610351563
 21
-309.0414428710938
  0
LINE
  8
0
  6
CONTINUOUS
 62
     7
 10
418
 20
-337
 11
418
 21
-233
  0
LINE
  8
0
  6
CONTINUOUS
 62
     7
 10
418
 20
-337
 11
413
 21
-337
  0
LINE
  8
0
  6
CONTINUOUS
 62
     7
 10
413
 20
-357.5
 11
408.9994812011719
 21
-357.5
  0
LINE
  8
0
  6
CONTINUOUS
 62
     7
 10
490
 20
-273
 11
465
 21
-273
  0
LINE
  8
0
  6
CONTINUOUS
 62
     7
 10
490
 20
-273
 11
490
 21
-294.5
  0
LINE
  8
0
  6
CONTINUOUS
 62
     7
 10
490
 20
-294.5
 11
460
 21
-294.5
  0
LINE
  8
0
  6
CONTINUOUS
 62
     7
 10
490
 20
-275.5
 11
460
 21
-275.5
  0
LINE
  8
0
  6
CONTINUOUS
 62
     7
 10
460
 20
-272.5
 11
460
 21
-297.5
  0
LINE
  8
0
  6
CONTINUOUS
 62
     7
 10
460
 20
-297.5
 11
456
 21
-297.5
  0
LINE
  8
0
  6
CONTINUOUS
 62
     7
 10
460
 20
-272.5
 11
456
 21
-272.5
  0
LINE
  8
0
  6
CONTINUOUS
 62
     7
 10
465
 20
-273
 11
465
 21
-275.5
  0
LINE
  8
0
  6
CONTINUOUS
 62
     7
 10
449
 20
-313.5
 11
436.8580322265625
 21
-313.5
  0
LINE
  8
0
  6
CONTINUOUS
 62
     7
 10
437.4999694824219
 20
-279.0823974609375
 11
418.0000305175781
 21
-274.03125
  0
LINE
  8
0
  6
CONTINUOUS
 62
     7
 10
437.4999694824219
 20
-265.935302734375
 11
418
 21
-252.1353302001953
  0
LINE
  8
0
  6
CONTINUOUS
 62
     7
 10
418
 20
-238.2694549560547
 11
437.4999694824219
 21
-257.1205444335937
  0
LINE
  8
0
  6
CONTINUOUS
 62
     7
 10
437.5
 20
-293.8154602050781
 11
418
 21
-298.8665771484375
  0
LINE
  8
0
  6
CONTINUOUS
 62
     7
 10
418.0000305175781
 20
-319.9861145019531
 11
437.4999694824219
 21
-306.1861572265625
  0
LINE
  8
0
  6
CONTINUOUS
 62
     7
 10
418
 20
-331.7305297851563
 11
437.4999694824219
 21
-312.8794555664063
  0
LINE
  8
0
  6
CONTINUOUS
 62
     7
 10
366.5
 20
-210
 11
399.5
 21
-210
  0
LINE
  8
0
  6
CONTINUOUS
 62
     7
 10
366.5
 20
-209.9999847412109
 11
363
 21
-214.160888671875
  0
LINE
  8
0
  6
CONTINUOUS
 62
     7
 10
399.4999694824219
 20
-210
 11
403
 21
-214.160888671875
  0
LINE
  8
0
  6
CONTINUOUS
 62
     7
 10
403
 20
-212.5
 11
403
 21
-348.7102661132813
  0
LINE
  8
0
  6
CONTINUOUS
 62
     7
 10
366.5
 20
-255.5653228759766
 11
399.5
 21
-255.5653228759766
  0
LINE
  8
0
  6
CONTINUOUS
 62
     7
 10
366.5
 20
-264.2552795410156
 11
399.5
 21
-264.2552795410156
  0
LINE
  8
0
  6
CONTINUOUS
 62
     7
 10
366.5
 20
-272.0502319335938
 11
399.5
 21
-272.0502319335938
  0
LINE
  8
0
  6
CONTINUOUS
 62
     7
 10
369.2926330566406
 20
-281.0000610351563
 11
399.5
 21
-281.0000610351563
  0
LINE
  8
0
  6
CONTINUOUS
 62
     7
 10
373.8774108886719
 20
-289.0000915527344
 11
399.5
 21
-289.0000915527344
  0
LINE
  8
0
  6
CONTINUOUS
 62
     7
 10
378.2425231933594
 20
-297.9499206542969
 11
399.5
 21
-297.9499206542969
  0
LINE
  8
0
  6
CONTINUOUS
 62
     7
 10
382.0443725585937
 20
-305.744873046875
 11
399.5
 21
-305.744873046875
  0
LINE
  8
0
  6
CONTINUOUS
 62
     7
 10
386.28271484375
 20
-314.4347839355469
 11
399.5
 21
-314.4347839355469
  0
LINE
  8
0
  6
CONTINUOUS
 62
     7
 10
393.8857421875
 20
-330.0232543945313
 11
399.5
 21
-330.0232543945313
  0
LINE
  8
0
  6
CONTINUOUS
 62
     7
 10
397.3106689453125
 20
-337.0454406738281
 11
399.5
 21
-337.0454406738281
  0
LINE
  8
0
  6
CONTINUOUS
 62
     7
 10
295
 20
-251
 11
295
 21
-319
  0
LINE
  8
0
  6
CONTINUOUS
 62
     7
 10
445
 20
-359
 11
445
 21
-375
  0
LINE
  8
0
  6
CONTINUOUS
 62
     7
 10
310
 20
-375
 11
445
 21
-375
  0
LINE
  8
0
  6
CONTINUOUS
 62
     7
 10
310
 20
-359
 11
335
 21
-359
  0
LINE
  8
0
  6
CONTINUOUS
 62
     7
 10
310
 20
-359
 11
310
 21
-375
  0
LINE
  8
0
  6
CONTINUOUS
 62
     7
 10
300
 20
-239
 11
300
 21
-331
  0
LINE
  8
0
  6
CONTINUOUS
 62
     7
 10
300
 20
-239
 11
316
 21
-239
  0
LINE
  8
0
  6
CONTINUOUS
 62
     7
 10
300
 20
-331
 11
312.6669311523438
 21
-331
  0
LINE
  8
0
  6
CONTINUOUS
 62
     7
 10
333
 20
-240.566650390625
 11
333
 21
-268
  0
LINE
  8
0
  6
CONTINUOUS
 62
     7
 10
333
 20
-337.5
 11
340
 21
-337.5
  0
LINE
  8
0
  6
CONTINUOUS
 62
     7
 10
295
 20
-250.9999542236328
 11
299.9999694824219
 21
-248.1132049560547
  0
LINE
  8
0
  6
CONTINUOUS
 62
     7
 10
295
 20
-319
 11
300
 21
-321.8867492675781
  0
LINE
  8
0
  6
CONTINUOUS
 62
     7
 10
363
 20
-212.5
 11
363
 21
-279
  0
LINE
  8
0
  6
CONTINUOUS
 62
     7
 10
351
 20
-212.5
 11
363
 21
-212.5
  0
LINE
  8
0
  6
CONTINUOUS
 62
     7
 10
351
 20
-268.7216491699219
 11
354
 21
-268.7216491699219
  0
LINE
  8
0
  6
CONTINUOUS
 62
     7
 10
351
 20
-212.5
 11
351
 21
-268.7216491699219
  0
LINE
  8
0
  6
CONTINUOUS
 62
     7
 10
313
 20
-333.686279296875
 11
313
 21
-359
  0
LINE
  8
0
  6
CONTINUOUS
 62
     7
 10
340
 20
-287
 11
340
 21
-354
  0
LINE
  8
0
  6
CONTINUOUS
 62
     7
 10
348
 20
-279
 11
364.0010375976562
 21
-279
  0
LINE
  8
0
  6
CONTINUOUS
 62
     7
 10
405.2793884277344
 20
-353.3836975097656
 11
371.1914367675781
 21
-283.4930419921875
  0
LINE
  8
0
  6
CONTINUOUS
 62
     7
 10
333
 20
-302
 11
333
 21
-337.5
  0
LINE
  8
0
  6
CONTINUOUS
 62
     7
 10
311.0001831054687
 20
-244.2004852294922
 11
351
 21
-222.8390808105469
  0
LINE
  8
0
  6
CONTINUOUS
 62
     3
 10
325
 20
-352.98046875
 11
325
 21
-381.0260620117187
  0
LINE
  8
0
  6
CONTINUOUS
 62
     3
 10
430
 20
-351.6123657226563
 11
430
 21
-381.0260620117187
  0
LINE
  8
0
  6
CONTINUOUS
 62
     7
 10
250
 20
-268
 11
250
 21
-299
  0
LINE
  8
0
  6
CONTINUOUS
 62
     7
 10
250
 20
-271
 11
290
 21
-271
  0
LINE
  8
0
  6
CONTINUOUS
 62
     7
 10
250
 20
-299
 11
290
 21
-299
  0
LINE
  8
0
  6
CONTINUOUS
 62
     7
 10
290
 20
-267.5
 11
290
 21
-302.5
  0
LINE
  8
0
  6
CONTINUOUS
 62
     7
 10
282
 20
-268
 11
282
 21
-271
  0
LINE
  8
0
  6
CONTINUOUS
 62
     7
 10
250
 20
-268
 11
282
 21
-268
  0
LINE
  8
0
  6
CONTINUOUS
 62
     7
 10
290
 20
-267.5
 11
295
 21
-267.5
  0
LINE
  8
0
  6
CONTINUOUS
 62
     7
 10
290
 20
-302.5
 11
295
 21
-302.5
  0
LINE
  8
0
  6
DASHED
 62
     7
 10
319
 20
-359
 11
319
 21
-375
  0
LINE
  8
0
  6
DASHED
 62
     7
 10
331
 20
-359
 11
331
 21
-375
  0
LINE
  8
0
  6
DASHED
 62
     7
 10
424
 20
-359
 11
424
 21
-375
  0
LINE
  8
0
  6
DASHED
 62
     7
 10
436
 20
-359
 11
436
 21
-375
  0
LINE
  8
0
  6
CONTINUOUS
 62
     7
 10
316
 20
-233
 11
331.973388671875
 21
-233
  0
LINE
  8
0
  6
CONTINUOUS
 62
     7
 10
316
 20
-233
 11
316
 21
-239
  0
LINE
  8
0
  6
CONTINUOUS
 62
     7
 10
354
 20
-268.7216491699219
 11
354
 21
-279
  0
LINE
  8
0
  6
CONTINUOUS
 62
     7
 10
414.2673034667969
 20
-359
 11
445
 21
-359
  0
LINE
  8
0
  6
CONTINUOUS
 62
     7
 10
311
 20
-246.2004852294922
 11
330.33154296875
 21
-246.2004852294922
  0
LINE
  8
0
  6
CONTINUOUS
 62
     7
 10
333
 20
-240.566650390625
 11
348.4765930175781
 21
-240.566650390625
  0
LINE
  8
0
  6
CONTINUOUS
 62
     3
 10
-94.83750152587891
 20
-285
 11
95.16249847412109
 21
-285
  0
LINE
  8
0
  6
CONTINUOUS
 62
     7
 10
-40.91073226928711
 20
-222.1405487060547
 11
-40.76251602172852
 21
-222.5747680664062
  0
LINE
  8
0
  6
CONTINUOUS
 62
     7
 10
-33.98255157470703
 20
-218.1405487060547
 11
-33.19534683227539
 21
-219.0412445068359
  0
LINE
  8
0
  6
CONTINUOUS
 62
     7
 10
-25.72197914123535
 20
-214.5490112304688
 11
-25.54156112670898
 21
-216.3108215332031
  0
LINE
  8
0
  6
CONTINUOUS
 62
     7
 10
-18.07146453857422
 20
-212.2098388671875
 11
-17.02163124084473
 21
-214.1716003417969
  0
LINE
  8
0
  6
CONTINUOUS
 62
     7
 10
-9.000118255615234
 20
-210.5421142578125
 11
-9.477846145629883
 21
-213.0148315429688
  0
LINE
  8
0
  6
CONTINUOUS
 62
     3
 10
0
 20
-199.9837646484375
 11
0
 21
-385.8622436523438
  0
LINE
  8
0
  6
CONTINUOUS
 62
     7
 10
-87.5
 20
-359
 11
-87.5
 21
-375
  0
LINE
  8
0
  6
CONTINUOUS
 62
     7
 10
87.5
 20
-359
 11
87.5
 21
-375
  0
LINE
  8
0
  6
CONTINUOUS
 62
     7
 10
-87.5
 20
-375
 11
-47.5
 21
-375
  0
LINE
  8
0
  6
CONTINUOUS
 62
     7
 10
-87.5
 20
-359
 11
-47.5
 21
-359
  0
LINE
  8
0
  6
CONTINUOUS
 62
     7
 10
-82.0369873046875
 20
-279
 11
-52.156005859375
 21
-279
  0
LINE
  8
0
  6
CONTINUOUS
 62
     7
 10
52.156005859375
 20
-279
 11
82.0369873046875
 21
-279
  0
LINE
  8
0
  6
CONTINUOUS
 62
     7
 10
52.156005859375
 20
-295
 11
76.54550170898437
 21
-295
  0
LINE
  8
0
  6
CONTINUOUS
 62
     7
 10
-52.156005859375
 20
-295
 11
-76.54547119140625
 21
-295
  0
LINE
  8
0
  6
CONTINUOUS
 62
     7
 10
-47.5
 20
-372
 11
47.5
 21
-372
  0
LINE
  8
0
  6
CONTINUOUS
 62
     7
 10
-42.5
 20
-367
 11
-20
 21
-367
  0
LINE
  8
0
  6
CONTINUOUS
 62
     7
 10
-47.5
 20
-359
 11
-47.5
 21
-375
  0
LINE
  8
0
  6
CONTINUOUS
 62
     7
 10
47.5
 20
-359
 11
47.5
 21
-375
  0
LINE
  8
0
  6
CONTINUOUS
 62
     7
 10
47.5
 20
-359
 11
87.5
 21
-359
  0
LINE
  8
0
  6
CONTINUOUS
 62
     7
 10
47.5
 20
-375
 11
87.5
 21
-375
  0
LINE
  8
0
  6
CONTINUOUS
 62
     7
 10
-20.78476715087891
 20
-328.9999389648438
 11
-40.12603378295898
 21
-362.5
  0
LINE
  8
0
  6
CONTINUOUS
 62
     7
 10
-27.71296882629395
 20
-324.9998779296875
 11
-45.89956665039063
 21
-356.5
  0
LINE
  8
0
  6
CONTINUOUS
 62
     7
 10
20.78451728820801
 20
-329.0000305175781
 11
40.125732421875
 21
-362.5
  0
LINE
  8
0
  6
CONTINUOUS
 62
     7
 10
27.71272850036621
 20
-325.0000610351563
 11
45.89921951293945
 21
-356.5
  0
LINE
  8
0
  6
CONTINUOUS
 62
     7
 10
43.07309341430664
 20
-248.4501190185547
 11
52.518310546875
 21
-245.0123443603516
  0
LINE
  8
0
  6
CONTINUOUS
 62
     7
 10
60.88878631591797
 20
-259.5107421875
 11
53.49983978271484
 21
-265.7107849121094
  0
LINE
  8
0
  6
CONTINUOUS
 62
     7
 10
-9.992080688476563
 20
-228.7164001464844
 11
-8.371199607849121
 21
-219.52392578125
  0
LINE
  8
0
  6
CONTINUOUS
 62
     7
 10
8.370641708374023
 20
-219.5240173339844
 11
10.03387641906738
 21
-228.9566802978516
  0
LINE
  8
0
  6
CONTINUOUS
 62
     7
 10
-53.09603118896484
 20
-266.0511169433594
 11
-60.88954162597656
 21
-259.5115661621094
  0
LINE
  8
0
  6
CONTINUOUS
 62
     7
 10
-52.5184440612793
 20
-245.0126342773438
 11
-43.4686279296875
 21
-248.3065032958984
  0
LINE
  8
0
  6
CONTINUOUS
 62
     7
 10
-43.52659225463867
 20
-321.7144165039063
 11
-52.51851272583008
 21
-324.9871826171875
  0
LINE
  8
0
  6
CONTINUOUS
 62
     7
 10
-60.88967132568359
 20
-310.48828125
 11
-53.18478775024414
 21
-304.0231323242187
  0
LINE
  8
0
  6
CONTINUOUS
 62
     7
 10
10.01280212402344
 20
-341.1611328125
 11
8.370358467102051
 21
-350.4758605957031
  0
LINE
  8
0
  6
CONTINUOUS
 62
     7
 10
-8.371461868286133
 20
-350.4761047363281
 11
-9.998300552368164
 21
-341.2498474121094
  0
LINE
  8
0
  6
CONTINUOUS
 62
     7
 10
52.93500518798828
 20
-303.814453125
 11
60.88914108276367
 21
-310.48876953125
  0
LINE
  8
0
  6
CONTINUOUS
 62
     7
 10
52.51834869384766
 20
-324.9875183105469
 11
42.91764450073242
 21
-321.4931640625
  0
LINE
  8
0
  6
CONTINUOUS
 62
     3
 10
61.24731063842773
 20
-249.6381683349609
 11
49.12071990966797
 21
-256.6394653320312
  0
LINE
  8
0
  6
CONTINUOUS
 62
     3
 10
-62.0658073425293
 20
-249.1663513183594
 11
-47.69823837280273
 21
-257.4614868164062
  0
LINE
  8
0
  6
CONTINUOUS
 62
     3
 10
-60.61141204833984
 20
-319.99365234375
 11
-48.62858200073242
 21
-313.0753784179687
  0
LINE
  8
0
  6
CONTINUOUS
 62
     3
 10
61.4306640625
 20
-320.4673156738281
 11
48.80606079101563
 21
-313.1784973144531
  0
LINE
  8
0
  6
CONTINUOUS
 62
     7
 10
51.99996948242188
 20
-273
 11
51.99996948242188
 21
-297
  0
LINE
  8
0
  6
CONTINUOUS
 62
     7
 10
51.99996948242188
 20
-273
 11
46.64761352539063
 21
-273
  0
LINE
  8
0
  6
CONTINUOUS
 62
     7
 10
51.99996948242188
 20
-296.9999389648437
 11
46.64764404296875
 21
-296.9999389648437
  0
LINE
  8
0
  6
CONTINUOUS
 62
     7
 10
-12
 20
-233
 11
-12
 21
-238.3523864746094
  0
LINE
  8
0
  6
CONTINUOUS
 62
     7
 10
-12
 20
-233
 11
12
 21
-233
  0
LINE
  8
0
  6
CONTINUOUS
 62
     7
 10
12
 20
-233
 11
12
 21
-238.3523864746094
  0
LINE
  8
0
  6
CONTINUOUS
 62
     7
 10
-52
 20
-297
 11
-46.64761352539063
 21
-297
  0
LINE
  8
0
  6
CONTINUOUS
 62
     7
 10
-51.99993896484375
 20
-296.9999694824219
 11
-51.99993896484375
 21
-272.9999694824219
  0
LINE
  8
0
  6
CONTINUOUS
 62
     7
 10
-52
 20
-273
 11
-46.64761352539063
 21
-273
  0
LINE
  8
0
  6
CONTINUOUS
 62
     7
 10
12.00003051757812
 20
-336.9999694824219
 11
12.00003051757812
 21
-331.6476135253906
  0
LINE
  8
0
  6
CONTINUOUS
 62
     7
 10
11.99996948242188
 20
-336.9999389648438
 11
-12.00003051757812
 21
-336.9999389648438
  0
LINE
  8
0
  6
CONTINUOUS
 62
     7
 10
-11.99993896484375
 20
-336.9999694824219
 11
-11.99993896484375
 21
-331.6476440429687
  0
LINE
  8
0
  6
CONTINUOUS
 62
     7
 10
-84.94261169433594
 20
-279
 11
-87.50032043457031
 21
-359
  0
LINE
  8
0
  6
CONTINUOUS
 62
     7
 10
-79.54395294189453
 20
-297.9041442871094
 11
-81.33230590820313
 21
-353.8402099609375
  0
LINE
  8
0
  6
CONTINUOUS
 62
     7
 10
79.54396820068359
 20
-297.9041442871094
 11
81.33232116699219
 21
-353.8402404785156
  0
LINE
  8
0
  6
CONTINUOUS
 62
     7
 10
84.94259643554688
 20
-279
 11
87.50030517578125
 21
-359
  0
LINE
  8
0
  6
CONTINUOUS
 62
     7
 10
4
 20
-268
 11
4
 21
-275
  0
LINE
  8
0
  6
CONTINUOUS
 62
     7
 10
-4
 20
-268
 11
-4
 21
-275
  0
LINE
  8
0
  6
CONTINUOUS
 62
     7
 10
-4
 20
-275
 11
4
 21
-275
  0
LINE
  8
0
  6
CONTINUOUS
 62
     7
 10
-4
 20
-268
 11
4
 21
-268
  0
LINE
  8
0
  6
CONTINUOUS
 62
     3
 10
-72.5
 20
-353.6644897460938
 11
-72.5
 21
-380.342041015625
  0
LINE
  8
0
  6
CONTINUOUS
 62
     3
 10
72.5
 20
-353.6644897460938
 11
72.5
 21
-380.342041015625
  0
LINE
  8
0
  6
DASHED
 62
     7
 10
66.5
 20
-359
 11
66.5
 21
-375
  0
LINE
  8
0
  6
DASHED
 62
     7
 10
78.5
 20
-359
 11
78.5
 21
-375
  0
LINE
  8
0
  6
DASHED
 62
     7
 10
-66.5
 20
-359
 11
-66.5
 21
-375
  0
LINE
  8
0
  6
DASHED
 62
     7
 10
-78.5
 20
-359
 11
-78.5
 21
-375
  0
LINE
  8
0
  6
CONTINUOUS
 62
     7
 10
35.19209289550781
 20
-224.0451965332031
 11
22.97812843322754
 21
-245.2004089355469
  0
LINE
  8
0
  6
CONTINUOUS
 62
     7
 10
-35.14596557617187
 20
-224.1257934570312
 11
-22.97843933105469
 21
-245.2005615234375
  0
LINE
  8
0
  6
CONTINUOUS
 62
     7
 10
20
 20
-367
 11
42.5
 21
-367
  0
LINE
  8
0
  6
CONTINUOUS
 62
     3
 10
500.0652160644531
 20
0
 11
241.8333282470703
 21
0
  0
LINE
  8
0
  6
CONTINUOUS
 62
     7
 10
456
 20
20
 11
456
 21
-20
  0
LINE
  8
0
  6
CONTINUOUS
 62
     7
 10
410
 20
72.5
 11
403
 21
72.5
  0
LINE
  8
0
  6
CONTINUOUS
 62
     7
 10
418
 20
52
 11
413
 21
52
  0
LINE
  8
0
  6
CONTINUOUS
 62
     7
 10
410
 20
72.5
 11
410
 21
63.92559814453125
  0
LINE
  8
0
  6
CONTINUOUS
 62
     7
 10
413
 20
63.92559814453125
 11
413
 21
-63.92559814453125
  0
LINE
  8
0
  6
CONTINUOUS
 62
     7
 10
449
 20
28.5
 11
449
 21
-28.5
  0
LINE
  8
0
  6
CONTINUOUS
 62
     7
 10
455.9999694824219
 20
20.00008392333984
 11
449
 21
24.04152488708496
  0
LINE
  8
0
  6
CONTINUOUS
 62
     7
 10
449
 20
28.5
 11
436.8580322265625
 21
28.5
  0
LINE
  8
0
  6
CONTINUOUS
 62
     7
 10
456
 20
-19.99993133544922
 11
449.0000305175781
 21
-24.04137420654297
  0
LINE
  8
0
  6
CONTINUOUS
 62
     7
 10
449
 20
-28.5
 11
436.8580322265625
 21
-28.5
  0
LINE
  8
0
  6
CONTINUOUS
 62
     7
 10
418
 20
-52
 11
418
 21
52
  0
LINE
  8
0
  6
CONTINUOUS
 62
     7
 10
418
 20
-52
 11
413
 21
-52
  0
LINE
  8
0
  6
CONTINUOUS
 62
     7
 10
410
 20
-72.5
 11
403
 21
-72.5
  0
LINE
  8
0
  6
CONTINUOUS
 62
     7
 10
413
 20
63.92559814453125
 11
410
 21
63.92559814453125
  0
LINE
  8
0
  6
CONTINUOUS
 62
     7
 10
413
 20
-63.92559814453125
 11
410
 21
-63.92559814453125
  0
LINE
  8
0
  6
CONTINUOUS
 62
     7
 10
490
 20
9.5
 11
490
 21
-9.5
  0
LINE
  8
0
  6
CONTINUOUS
 62
     7
 10
490
 20
-9.5
 11
460
 21
-9.5
  0
LINE
  8
0
  6
CONTINUOUS
 62
     7
 10
490
 20
9.5
 11
460
 21
9.5
  0
LINE
  8
0
  6
CONTINUOUS
 62
     7
 10
460
 20
12.5
 11
460
 21
-12.5
  0
LINE
  8
0
  6
CONTINUOUS
 62
     7
 10
460
 20
-12.5
 11
456
 21
-12.5
  0
LINE
  8
0
  6
CONTINUOUS
 62
     7
 10
460
 20
12.5
 11
456
 21
12.5
  0
LINE
  8
0
  6
CONTINUOUS
 62
     7
 10
490
 20
3
 11
465
 21
3
  0
LINE
  8
0
  6
CONTINUOUS
 62
     7
 10
490
 20
-3
 11
465
 21
-3
  0
LINE
  8
0
  6
CONTINUOUS
 62
     7
 10
465
 20
3
 11
465
 21
-3
  0
LINE
  8
0
  6
CONTINUOUS
 62
     7
 10
437.4999694824219
 20
5.917618751525879
 11
418
 21
10.96874809265137
  0
LINE
  8
0
  6
CONTINUOUS
 62
     7
 10
437.4999389648438
 20
19.06470108032227
 11
418
 21
32.86467361450195
  0
LINE
  8
0
  6
CONTINUOUS
 62
     7
 10
418
 20
46.73052978515625
 11
437.4999694824219
 21
27.87942886352539
  0
LINE
  8
0
  6
CONTINUOUS
 62
     7
 10
437.5
 20
-5.917585372924805
 11
418
 21
-10.96872234344482
  0
LINE
  8
0
  6
CONTINUOUS
 62
     7
 10
437.4999694824219
 20
-19.06471061706543
 11
418
 21
-32.86469268798828
  0
LINE
  8
0
  6
CONTINUOUS
 62
     7
 10
418
 20
-46.73052978515625
 11
437.4999389648438
 21
-27.87945556640625
  0
LINE
  8
0
  6
CONTINUOUS
 62
     7
 10
410
 20
-63.92559814453125
 11
410
 21
-72.5
  0
LINE
  8
0
  6
CONTINUOUS
 62
     7
 10
403
 20
72.5
 11
403
 21
-72.5
  0
LINE
  8
0
  6
CONTINUOUS
 62
     7
 10
363
 20
78.94259643554687
 11
363
 21
-78.94259643554687
  0
LINE
  8
0
  6
CONTINUOUS
 62
     7
 10
366.5
 20
75
 11
399.5
 21
75
  0
LINE
  8
0
  6
CONTINUOUS
 62
     7
 10
366.4999694824219
 20
74.99998474121094
 11
362.9999694824219
 21
70.83910369873047
  0
LINE
  8
0
  6
CONTINUOUS
 62
     7
 10
399.5
 20
74.99999237060547
 11
403.0000305175781
 21
70.83909606933594
  0
LINE
  8
0
  6
CONTINUOUS
 62
     7
 10
399.5
 20
-74.99999237060547
 11
403
 21
-70.83910369873047
  0
LINE
  8
0
  6
CONTINUOUS
 62
     7
 10
366.5
 20
-75
 11
399.5
 21
-75
  0
LINE
  8
0
  6
CONTINUOUS
 62
     7
 10
366.5000305175781
 20
-75
 11
363.0000305175781
 21
-70.83912658691406
  0
LINE
  8
0
  6
CONTINUOUS
 62
     7
 10
366.5
 20
72.07391357421875
 11
399.5
 21
72.07391357421875
  0
LINE
  8
0
  6
CONTINUOUS
 62
     7
 10
366.5
 20
68.98251342773437
 11
399.5
 21
68.98251342773437
  0
LINE
  8
0
  6
CONTINUOUS
 62
     7
 10
366.5
 20
59.98248291015625
 11
399.5
 21
59.98248291015625
  0
LINE
  8
0
  6
CONTINUOUS
 62
     7
 10
366.5
 20
54.0025634765625
 11
399.5
 21
54.0025634765625
  0
LINE
  8
0
  6
CONTINUOUS
 62
     7
 10
366.5
 20
40.91079711914063
 11
399.5
 21
40.91079711914063
  0
LINE
  8
0
  6
CONTINUOUS
 62
     7
 10
366.5
 20
48.15170288085938
 11
399.5
 21
48.15170288085938
  0
LINE
  8
0
  6
CONTINUOUS
 62
     7
 10
366.5
 20
33.98257446289063
 11
399.5
 21
33.98257446289063
  0
LINE
  8
0
  6
CONTINUOUS
 62
     7
 10
366.5
 20
25.72195434570313
 11
399.5
 21
25.72195434570313
  0
LINE
  8
0
  6
CONTINUOUS
 62
     7
 10
366.5
 20
18.07150268554688
 11
399.5
 21
18.07150268554688
  0
LINE
  8
0
  6
CONTINUOUS
 62
     7
 10
366.5
 20
9.00006103515625
 11
399.5
 21
9.00006103515625
  0
LINE
  8
0
  6
CONTINUOUS
 62
     7
 10
366.5
 20
-68.98260498046875
 11
399.5
 21
-68.98260498046875
  0
LINE
  8
0
  6
CONTINUOUS
 62
     7
 10
366.5
 20
-72.07395935058594
 11
399.5
 21
-72.07395935058594
  0
LINE
  8
0
  6
CONTINUOUS
 62
     7
 10
440
 20
-87.5
 11
315
 21
-87.5
  0
LINE
  8
0
  6
CONTINUOUS
 62
     7
 10
440
 20
87.5
 11
315
 21
87.5
  0
LINE
  8
0
  6
CONTINUOUS
 62
     7
 10
310
 20
82.5
 11
310
 21
52.34249877929688
  0
LINE
  8
0
  6
CONTINUOUS
 62
     7
 10
445
 20
82.5
 11
445
 21
61.33663940429688
  0
LINE
  8
0
  6
CONTINUOUS
 62
     7
 10
418
 20
-50.26537322998047
 11
441.2940979003906
 21
-56.50700378417969
  0
LINE
  8
0
  6
CONTINUOUS
 62
     7
 10
420.6693115234375
 20
-44.15004730224609
 11
427.1579895019531
 21
-50.63872528076172
  0
LINE
  8
0
  6
CONTINUOUS
 62
     7
 10
420.6693115234375
 20
44.15004730224609
 11
427.157958984375
 21
50.63871383666992
  0
LINE
  8
0
  6
CONTINUOUS
 62
     7
 10
418
 20
50.26535797119141
 11
441.2940979003906
 21
56.50699234008789
  0
LINE
  8
0
  6
CONTINUOUS
 62
     7
 10
333
 20
-46
 11
300
 21
-46
  0
LINE
  8
0
  6
CONTINUOUS
 62
     7
 10
333
 20
46
 11
300
 21
46
  0
LINE
  8
0
  6
CONTINUOUS
 62
     7
 10
295
 20
34
 11
295
 21
-34
  0
LINE
  8
0
  6
CONTINUOUS
 62
     7
 10
300
 20
46
 11
300
 21
-46
  0
LINE
  8
0
  6
CONTINUOUS
 62
     7
 10
295
 20
34.00003051757812
 11
300
 21
36.88677978515625
  0
LINE
  8
0
  6
CONTINUOUS
 62
     7
 10
295
 20
-34.00002670288086
 11
300
 21
-36.88677597045898
  0
LINE
  8
0
  6
CONTINUOUS
 62
     7
 10
354
 20
78.94259643554687
 11
354
 21
63.92562866210938
  0
LINE
  8
0
  6
CONTINUOUS
 62
     7
 10
351
 20
52.5
 11
333
 21
52.5
  0
LINE
  8
0
  6
CONTINUOUS
 62
     7
 10
351
 20
-52.5
 11
333
 21
-52.5
  0
LINE
  8
0
  6
CONTINUOUS
 62
     7
 10
310
 20
-52.34249877929688
 11
310
 21
-82.5
  0
LINE
  8
0
  6
CONTINUOUS
 62
     7
 10
333
 20
52.5
 11
333
 21
34.92672729492187
  0
LINE
  8
0
  6
CONTINUOUS
 62
     7
 10
333
 20
-35.2203369140625
 11
333
 21
-52.5
  0
LINE
  8
0
  6
CONTINUOUS
 62
     7
 10
333
 20
24.49908447265625
 11
333
 21
17
  0
LINE
  8
0
  6
CONTINUOUS
 62
     7
 10
333
 20
-17
 11
333
 21
-24.4986572265625
  0
LINE
  8
0
  6
CONTINUOUS
 62
     7
 10
316
 20
52
 11
316
 21
46
  0
LINE
  8
0
  6
CONTINUOUS
 62
     7
 10
316
 20
-46
 11
316
 21
-52
  0
LINE
  8
0
  6
CONTINUOUS
 62
     7
 10
340
 20
-52.5
 11
340
 21
-84.5
  0
LINE
  8
0
  6
CONTINUOUS
 62
     7
 10
315
 20
-47.34249877929688
 11
316
 21
-47.34249877929688
  0
LINE
  8
0
  6
CONTINUOUS
 62
     7
 10
445
 20
-61.33662414550781
 11
445
 21
-82.5
  0
LINE
  8
0
  6
CONTINUOUS
 62
     7
 10
315
 20
47.34249877929688
 11
316
 21
47.34249877929688
  0
LINE
  8
0
  6
CONTINUOUS
 62
     7
 10
340
 20
52.5
 11
340
 21
84.5
  0
LINE
  8
0
  6
CONTINUOUS
 62
     7
 10
351
 20
63.92562866210938
 11
354
 21
63.92562866210938
  0
LINE
  8
0
  6
CONTINUOUS
 62
     7
 10
351
 20
63.92562866210938
 11
351
 21
-63.92562866210938
  0
LINE
  8
0
  6
CONTINUOUS
 62
     7
 10
351
 20
-63.92562866210938
 11
354
 21
-63.92562866210938
  0
LINE
  8
0
  6
CONTINUOUS
 62
     7
 10
333
 20
24.49908447265625
 11
348.6253051757812
 21
24.49908447265625
  0
LINE
  8
0
  6
CONTINUOUS
 62
     7
 10
333
 20
-24.4986572265625
 11
348.327880859375
 21
-24.4986572265625
  0
LINE
  8
0
  6
CONTINUOUS
 62
     7
 10
311
 20
-24.71051979064941
 11
351
 21
-37.04308319091797
  0
LINE
  8
0
  6
CONTINUOUS
 62
     7
 10
310.9999694824219
 20
24.71053314208984
 11
351.0000305175781
 21
37.04310989379883
  0
LINE
  8
0
  6
CONTINUOUS
 62
     7
 10
354
 20
78.94259643554687
 11
369.0000305175781
 21
78.94259643554687
  0
LINE
  8
0
  6
CONTINUOUS
 62
     7
 10
354
 20
-78.94259643554687
 11
369.0000305175781
 21
-78.94259643554687
  0
LINE
  8
0
  6
CONTINUOUS
 62
     3
 10
325
 20
-60.71656799316406
 11
325
 21
-83.28985595703125
  0
LINE
  8
0
  6
CONTINUOUS
 62
     3
 10
334.609130859375
 20
-72.5
 11
314.7720031738281
 21
-72.5
  0
LINE
  8
0
  6
CONTINUOUS
 62
     3
 10
420.390869140625
 20
-72.5
 11
440.2279968261719
 21
-72.5
  0
LINE
  8
0
  6
CONTINUOUS
 62
     3
 10
430
 20
-60.71656799316406
 11
430
 21
-83.28985595703125
  0
LINE
  8
0
  6
CONTINUOUS
 62
     3
 10
325
 20
60.716552734375
 11
325
 21
83.28985595703125
  0
LINE
  8
0
  6
CONTINUOUS
 62
     3
 10
334.609130859375
 20
72.5
 11
314.7720031738281
 21
72.5
  0
LINE
  8
0
  6
CONTINUOUS
 62
     3
 10
430
 20
60.716552734375
 11
430
 21
83.28985595703125
  0
LINE
  8
0
  6
CONTINUOUS
 62
     3
 10
420.390869140625
 20
72.5
 11
440.2279968261719
 21
72.5
  0
LINE
  8
0
  6
CONTINUOUS
 62
     7
 10
250
 20
14
 11
250
 21
-14
  0
LINE
  8
0
  6
CONTINUOUS
 62
     7
 10
250
 20
14
 11
290
 21
14
  0
LINE
  8
0
  6
CONTINUOUS
 62
     7
 10
250
 20
-14
 11
290
 21
-14
  0
LINE
  8
0
  6
CONTINUOUS
 62
     7
 10
290
 20
17.5
 11
290
 21
-17.5
  0
LINE
  8
0
  6
CONTINUOUS
 62
     7
 10
284
 20
4
 11
250
 21
4
  0
LINE
  8
0
  6
CONTINUOUS
 62
     7
 10
284
 20
-4
 11
250
 21
-4
  0
LINE
  8
0
  6
CONTINUOUS
 62
     7
 10
282
 20
4
 11
282
 21
-4
  0
LINE
  8
0
  6
CONTINUOUS
 62
     7
 10
295
 20
-17.5
 11
290
 21
-17.5
  0
LINE
  8
0
  6
CONTINUOUS
 62
     7
 10
295
 20
17.5
 11
290
 21
17.5
  0
LINE
  8
0
  6
CONTINUOUS
 62
     7
 10
333
 20
52
 11
316
 21
52
  0
LINE
  8
0
  6
CONTINUOUS
 62
     7
 10
333
 20
-52
 11
316
 21
-52
  0
LINE
  8
0
  6
CONTINUOUS
 62
     7
 10
369.3916015625
 20
-78.96825408935547
 11
404.8224182128906
 21
-81.29049682617187
  0
LINE
  8
0
  6
CONTINUOUS
 62
     7
 10
369.3915710449219
 20
78.96826171875
 11
404.8224182128906
 21
81.29051208496094
  0
LINE
  8
0
  6
CONTINUOUS
 62
     7
 10
354
 20
-63.92562866210938
 11
354
 21
-78.94259643554687
  0
LINE
  8
0
  6
CONTINUOUS
 62
     7
 10
311
 20
21.24639892578125
 11
331.0751953125
 21
21.24639892578125
  0
LINE
  8
0
  6
CONTINUOUS
 62
     7
 10
311
 20
-21.24639892578125
 11
331.0751953125
 21
-21.24639892578125
  0
ARC
  8
0
  6
CONTINUOUS
 62
     7
 10
348
 20
-287
 40
7.999999999999996
 50
89.99998201391055
 51
179.9999640278211
  0
ARC
  8
0
  6
CONTINUOUS
 62
     7
 10
364.0010375976562
 20
-287
 40
7.999999999999998
 50
26.00002349081295
 51
89.99998201391055
  0
ARC
  8
0
  6
CONTINUOUS
 62
     7
 10
414.2673034667969
 20
-349
 40
10
 50
205.9999706705327
 51
270.0000179860893
  0
ARC
  8
0
  6
CONTINUOUS
 62
     7
 10
302
 20
-333.686279296875
 40
11
 50
0
 51
53.93402870549391
  0
CIRCLE
  8
0
  6
CONTINUOUS
 62
     7
 10
328
 20
-285
 40
12
  0
ARC
  8
0
  6
CONTINUOUS
 62
     7
 10
335
 20
-354
 40
5.000000000000004
 50
269.9999974955215
 51
0
  0
ARC
  8
0
  6
CONTINUOUS
 62
     7
 10
328
 20
-302
 40
5
 50
0
 51
90.00000250447847
  0
ARC
  8
0
  6
CONTINUOUS
 62
     7
 10
328
 20
-268
 40
5.000000000000004
 50
269.9999974955215
 51
0
  0
ARC
  8
0
  6
CONTINUOUS
 62
     7
 10
0
 20
-285
 40
74.99999999999999
 50
116.9428106668065
 51
123.057277974072
  0
ARC
  8
0
  6
CONTINUOUS
 62
     7
 10
0
 20
-285
 40
75.00000000000001
 50
103.9428023364945
 51
110.05726964376
  0
ARC
  8
0
  6
CONTINUOUS
 62
     7
 10
0
 20
-285
 40
75
 50
53.39618545930109
 51
96.89213466007376
  0
ARC
  8
0
  6
CONTINUOUS
 62
     7
 10
0
 20
-300
 40
87.5
 50
13.88654041759661
 51
166.1134791055117
  0
CIRCLE
  8
0
  6
CONTINUOUS
 62
     7
 10
0
 20
-285
 40
46
  0
CIRCLE
  8
0
  6
CONTINUOUS
 62
     7
 10
0
 20
-285
 40
34
  0
ARC
  8
0
  6
CONTINUOUS
 62
     7
 10
-42.5
 20
-362
 40
5.000000000000003
 50
179.9999776881996
 51
270.000028004002
  0
ARC
  8
0
  6
CONTINUOUS
 62
     7
 10
42.5
 20
-362
 40
5.000000000000019
 50
270.0000179860893
 51
0
  0
ARC
  8
0
  6
CONTINUOUS
 62
     3
 10
0
 20
-285
 40
64
 50
24.37233647763306
 51
36.78547617143732
  0
ARC
  8
0
  6
CONTINUOUS
 62
     7
 10
55.42559814453125
 20
-253.0000610351563
 40
8.500000000000002
 50
309.9999963318934
 51
109.9999916773803
  0
ARC
  8
0
  6
CONTINUOUS
 62
     7
 10
0
 20
-221
 40
8.499999999999998
 50
10.0000082468293
 51
170.0000206677891
  0
ARC
  8
0
  6
CONTINUOUS
 62
     3
 10
0
 20
-285
 40
63.99999999999999
 50
84.07926668283095
 51
96.67983872029143
  0
ARC
  8
0
  6
CONTINUOUS
 62
     7
 10
-55.42559814453125
 20
-253
 40
8.500000000000002
 50
69.99999967119777
 51
230.0000086770629
  0
ARC
  8
0
  6
CONTINUOUS
 62
     3
 10
0
 20
-285
 40
64
 50
143.5305924262668
 51
156.4710141862596
  0
ARC
  8
0
  6
CONTINUOUS
 62
     7
 10
-55.42559814453125
 20
-316.9999694824219
 40
8.499999999999991
 50
130.0000013408499
 51
289.9999966863365
  0
ARC
  8
0
  6
CONTINUOUS
 62
     3
 10
0
 20
-285
 40
64
 50
203.6770643149463
 51
216.3600152639863
  0
ARC
  8
0
  6
CONTINUOUS
 62
     7
 10
-3.0517578125E-05
 20
-348.9999694824219
 40
8.499999999999998
 50
190.0000066529675
 51
350.0000019984543
  0
ARC
  8
0
  6
CONTINUOUS
 62
     3
 10
0
 20
-285
 40
64
 50
263.6029379415363
 51
276.8628076490106
  0
ARC
  8
0
  6
CONTINUOUS
 62
     7
 10
55.42556762695313
 20
-317
 40
8.50000000000002
 50
250.0000014924306
 51
49.99999683791737
  0
ARC
  8
0
  6
CONTINUOUS
 62
     3
 10
0
 20
-285
 40
64.00000000000001
 50
323.3233321571356
 51
336.1494780221249
  0
ARC
  8
0
  6
CONTINUOUS
 62
     7
 10
-76.3348388671875
 20
-354
 40
5
 50
178.1688312924762
 51
270.0000006832453
  0
ARC
  8
0
  6
CONTINUOUS
 62
     7
 10
76.3348388671875
 20
-354
 40
5
 50
269.999963344576
 51
1.831132735345485
  0
ARC
  8
0
  6
CONTINUOUS
 62
     7
 10
0
 20
-285
 40
14
 50
106.6015695841379
 51
73.39842495216361
  0
ARC
  8
0
  6
CONTINUOUS
 62
     7
 10
-76.54547119140625
 20
-298
 40
2.999999999999977
 50
89.9999820139107
 51
178.1688586132322
  0
ARC
  8
0
  6
CONTINUOUS
 62
     7
 10
76.54550170898437
 20
-298
 40
2.999999999999996
 50
1.831163044310224
 51
89.9999820139107
  0
ARC
  8
0
  6
CONTINUOUS
 62
     7
 10
-82.0369873046875
 20
-282
 40
2.999999999999977
 50
89.9999820139107
 51
178.1688586132322
  0
ARC
  8
0
  6
CONTINUOUS
 62
     7
 10
82.0369873046875
 20
-282
 40
2.999999999999996
 50
1.831163044310224
 51
89.9999820139107
  0
ARC
  8
0
  6
CONTINUOUS
 62
     7
 10
0
 20
-285
 40
52.50000000000001
 50
13.21299838806875
 51
57.81675902221421
  0
ARC
  8
0
  6
CONTINUOUS
 62
     7
 10
0
 20
-285
 40
52.50000000000001
 50
62.18321016614417
 51
76.78701521546684
  0
ARC
  8
0
  6
CONTINUOUS
 62
     7
 10
0
 20
-285
 40
52.50000000000001
 50
103.2130034538678
 51
117.8168016730014
  0
ARC
  8
0
  6
CONTINUOUS
 62
     7
 10
0
 20
-285
 40
52.50000000000001
 50
122.1832596471205
 51
166.78705870108
  0
ARC
  8
0
  6
CONTINUOUS
 62
     7
 10
0
 20
-285
 40
52.50000000000001
 50
193.2129686196766
 51
232.7540265551477
  0
ARC
  8
0
  6
CONTINUOUS
 62
     7
 10
0
 20
-285
 40
52.50000000000001
 50
247.2456389171637
 51
256.787071678213
  0
ARC
  8
0
  6
CONTINUOUS
 62
     7
 10
0
 20
-285
 40
52.49999999999999
 50
283.2130121052899
 51
292.7541238474482
  0
ARC
  8
0
  6
CONTINUOUS
 62
     7
 10
0
 20
-285
 40
52.49999999999999
 50
307.2456747377617
 51
346.7870827204276
  0
ARC
  8
0
  6
CONTINUOUS
 62
     7
 10
37.52767944335938
 20
-364
 40
3.000000000000003
 50
269.9999974955218
 51
29.99999741973159
  0
ARC
  8
0
  6
CONTINUOUS
 62
     7
 10
-37.52792358398438
 20
-364
 40
2.999999999999992
 50
149.9999973439415
 51
270.0000006832453
  0
ARC
  8
0
  6
CONTINUOUS
 62
     7
 10
50.22933959960938
 20
-354
 40
4.999999999999994
 50
210.0000026560587
 51
269.9999974955218
  0
ARC
  8
0
  6
CONTINUOUS
 62
     7
 10
-50.22967529296875
 20
-354
 40
5.000000000000004
 50
269.9999974955218
 51
330.0000025802686
  0
ARC
  8
0
  6
CONTINUOUS
 62
     7
 10
33.59048461914062
 20
-329.1806640625
 40
3.000000000000006
 50
127.2456729165288
 51
209.9999990135931
  0
ARC
  8
0
  6
CONTINUOUS
 62
     7
 10
21.46612548828125
 20
-336.1806030273437
 40
3.000000000000004
 50
29.99999741973159
 51
112.7541220262154
  0
ARC
  8
0
  6
CONTINUOUS
 62
     7
 10
-21.46633911132812
 20
-336.1805114746094
 40
2.999999999999994
 50
67.24563709593083
 51
149.9999973439414
  0
ARC
  8
0
  6
CONTINUOUS
 62
     7
 10
-33.59072875976563
 20
-329.1804809570312
 40
3.000000000000004
 50
330.0000025802684
 51
52.75402131882026
  0
ARC
  8
0
  6
CONTINUOUS
 62
     7
 10
18.18646240234375
 20
-330.5000305175781
 40
3.000000000000004
 50
29.99999741973159
 51
111.7866940321747
  0
ARC
  8
0
  6
CONTINUOUS
 62
     7
 10
30.310791015625
 20
-323.5000610351563
 40
3.000000000000008
 50
128.2130735898126
 51
209.9999990135931
  0
ARC
  8
0
  6
CONTINUOUS
 62
     7
 10
15.00003051757813
 20
-331.6476135253906
 40
3.000000000000016
 50
107.8257443890791
 51
180.0000050089558
  0
ARC
  8
0
  6
CONTINUOUS
 62
     7
 10
-14.99993896484375
 20
-331.6476440429687
 40
3
 50
0
 51
72.17436990290379
  0
ARC
  8
0
  6
CONTINUOUS
 62
     7
 10
-18.18667602539063
 20
-330.4999389648437
 40
3.000000000000012
 50
68.21303776921491
 51
149.9999973439414
  0
ARC
  8
0
  6
CONTINUOUS
 62
     7
 10
-30.31103515625
 20
-323.4998779296875
 40
3.000000000000004
 50
330.0000025802684
 51
51.78657966440133
  0
ARC
  8
0
  6
CONTINUOUS
 62
     7
 10
46.64764404296875
 20
-299.9999389648437
 40
3.000000000000003
 50
90.0000025044782
 51
162.1743724073819
  0
ARC
  8
0
  6
CONTINUOUS
 62
     7
 10
46.64761352539063
 20
-270
 40
2.999999999999996
 50
197.8257232152664
 51
269.9999974955218
  0
ARC
  8
0
  6
CONTINUOUS
 62
     7
 10
15
 20
-238.3523864746094
 40
3
 50
179.9999913485781
 51
252.1742997797793
  0
ARC
  8
0
  6
CONTINUOUS
 62
     7
 10
-15
 20
-238.3523864746094
 40
3.000000000000007
 50
287.825705229177
 51
0
  0
ARC
  8
0
  6
CONTINUOUS
 62
     7
 10
-46.64761352539063
 20
-270
 40
3.000000000000003
 50
269.9999974955218
 51
342.1743127569123
  0
ARC
  8
0
  6
CONTINUOUS
 62
     7
 10
-46.64761352539063
 20
-300
 40
3.000000000000005
 50
17.82570602610819
 51
90.0000025044782
  0
ARC
  8
0
  6
CONTINUOUS
 62
     7
 10
465
 20
0
 40
3
 50
89.99998201391097
 51
269.9999460417318
  0
ARC
  8
0
  6
CONTINUOUS
 62
     7
 10
437.7645874023438
 20
-40.03213500976562
 40
14.99999999999998
 50
224.999985997999
 51
254.999986832825
  0
ARC
  8
0
  6
CONTINUOUS
 62
     7
 10
437.7645874023438
 20
40.03213500976562
 40
15
 50
105.000013167175
 51
135.0000140020009
  0
CIRCLE
  8
0
  6
CONTINUOUS
 62
     7
 10
328
 20
0
 40
12
  0
ARC
  8
0
  6
CONTINUOUS
 62
     7
 10
440
 20
61.33663940429688
 40
5.000000000000003
 50
284.9999740072727
 51
0
  0
ARC
  8
0
  6
CONTINUOUS
 62
     7
 10
440
 20
-61.33662414550781
 40
5
 50
0
 51
75.00007380405127
  0
CIRCLE
  8
0
  6
CONTINUOUS
 62
     7
 10
325
 20
-72.5
 40
6
  0
CIRCLE
  8
0
  6
CONTINUOUS
 62
     7
 10
430
 20
-72.5
 40
6
  0
CIRCLE
  8
0
  6
CONTINUOUS
 62
     7
 10
325
 20
72.5
 40
6
  0
CIRCLE
  8
0
  6
CONTINUOUS
 62
     7
 10
430
 20
72.5
 40
6
  0
ARC
  8
0
  6
CONTINUOUS
 62
     7
 10
284
 20
0
 40
4
 50
270.0000179860891
 51
89.99998201391097
  0
ARC
  8
0
  6
CONTINUOUS
 62
     7
 10
315
 20
52.34249877929688
 40
4.999999999999981
 50
179.9999776881996
 51
270.0000280040023
  0
ARC
  8
0
  6
CONTINUOUS
 62
     7
 10
315
 20
82.5
 40
5.000000000000004
 50
89.99998201391097
 51
179.9999640278213
  0
ARC
  8
0
  6
CONTINUOUS
 62
     7
 10
440
 20
82.5
 40
5
 50
0
 51
89.99998201391097
  0
ARC
  8
0
  6
CONTINUOUS
 62
     7
 10
315
 20
-82.5
 40
4.999999999999981
 50
179.9999776881996
 51
270.0000280040023
  0
ARC
  8
0
  6
CONTINUOUS
 62
     7
 10
315
 20
-52.34249877929688
 40
4.999999999999997
 50
89.99998201391097
 51
179.9999640278213
  0
ARC
  8
0
  6
CONTINUOUS
 62
     7
 10
440
 20
-82.5
 40
5.000000000000004
 50
270.0000179860891
 51
0
  0
ARC
  8
0
  6
CONTINUOUS
 62
     7
 10
343
 20
84.5
 40
3.000000000000003
 50
90.00000250447847
 51
180.0000050089564
  0
ARC
  8
0
  6
CONTINUOUS
 62
     7
 10
343
 20
-84.5
 40
2.999999999999977
 50
179.9999913485781
 51
270.0000006832452
  0
ARC
  8
0
  6
CONTINUOUS
 62
     7
 10
328
 20
17
 40
4.999999999999999
 50
269.9999974955215
 51
0
  0
ARC
  8
0
  6
CONTINUOUS
 62
     7
 10
328
 20
-17
 40
5
 50
0
 51
90.00000250447847
  0
ARC
  8
0
  6
CONTINUOUS
 62
     7
 10
405.0186157226563
 20
-78.29693603515625
 40
2.999999999999994
 50
266.2500187355097
 51
333.500725539352
  0
ARC
  8
0
  6
CONTINUOUS
 62
     7
 10
405.0186157226563
 20
78.29693603515625
 40
3.000000000000003
 50
37.63148389260259
 51
93.74998126449026
  0
TEXT
  8
0
  6
CONTINUOUS
 62
     7
 10
-35.35714530944824
 20
-7.5
 40
15
 41
0.8489110518474969
  1
ＥＲ－＿Ｂ
  0
ENDSEC
  0
EOF
