  0
SECTION
  2
HEADER
  0
ENDSEC
  0
SECTION
  2
TABLES
  0
TABLE
  2
LTYPE
 70
    22
  0
LTYPE
  2
CONTINUOUS
 70
    64
  3
Solid line
 72
    65
 73
     0
 40
0.000000
  0
LTYPE
  2
DASHED
 70
    64
  3
__ __ __ __ __ __ __ __ __ __ __ __ __ __ __
 72
    65
 73
     2
 40
3.500000
 49
2.000000
 49
-1.500000
  0
LTYPE
  2
CENTER
 70
    64
  3
____ _ ____ _ ____ _ ____ _ ____ _ ____ _ ____
 72
    65
 73
     4
 40
17.500000
 49
13.000000
 49
-1.500000
 49
1.500000
 49
-1.500000
  0
LTYPE
  2
PHANTOM
 70
    64
  3
_____ _ _ _____ _ _ _____ _ _ _____ _ _ ____  
 72
    65
 73
     6
 40
15.500000
 49
8.000000
 49
-1.500000
 49
1.500000
 49
-1.500000
 49
1.500000
 49
-1.500000
  0
LTYPE
  2
DOT
 70
    64
  3
. . . . . . . . . . . . . . . . . . . . . . . .
 72
    65
 73
     2
 40
0.25
 49
0.0
 49
-0.25
  0
ENDTAB
  0
TABLE
  2
LAYER
 70
     1
  0
LAYER
  2
0
 70
     0
 62
     7
  6
CONTINUOUS
  0
ENDTAB
  0
TABLE
  2
STYLE
 70
     1
  0
STYLE
  2
STANDARD
 70
     0
 40
0.000000
 41
1.000000
 50
0.000000
 71
     0
 42
0.200000
  3
txt
  4
BIGFONT
  0
ENDTAB
  0
TABLE
  2
VIEW
 70
     0
  0
ENDTAB
  0
ENDSEC
  0
SECTION
  2
BLOCKS
  0
ENDSEC
  0
SECTION
  2
ENTITIES
  0
LINE
  8
0
  6
CONTINUOUS
 62
     3
 10
280
 20
-395
 11
734.5325927734375
 21
-395
  0
LINE
  8
0
  6
CONTINUOUS
 62
     7
 10
539
 20
-280
 11
539
 21
-469.7333679199219
  0
LINE
  8
0
  6
CONTINUOUS
 62
     7
 10
539
 20
-280
 11
545.5742797851563
 21
-280
  0
LINE
  8
0
  6
CONTINUOUS
 62
     7
 10
557
 20
-291.816650390625
 11
557
 21
-495.4400024414063
  0
LINE
  8
0
  6
CONTINUOUS
 62
     7
 10
614
 20
-321.5
 11
614
 21
-468.5
  0
LINE
  8
0
  6
CONTINUOUS
 62
     7
 10
604
 20
-322.5
 11
604
 21
-467.5
  0
LINE
  8
0
  6
CONTINUOUS
 62
     7
 10
604
 20
-467.5
 11
614
 21
-467.5
  0
LINE
  8
0
  6
CONTINUOUS
 62
     7
 10
604
 20
-322.5
 11
614
 21
-322.5
  0
LINE
  8
0
  6
CONTINUOUS
 62
     7
 10
572
 20
-317.5
 11
572
 21
-472.5
  0
LINE
  8
0
  6
CONTINUOUS
 62
     7
 10
562
 20
-477.5
 11
567
 21
-477.5
  0
LINE
  8
0
  6
CONTINUOUS
 62
     7
 10
566
 20
-280
 11
566
 21
-310.5
  0
LINE
  8
0
  6
CONTINUOUS
 62
     7
 10
562
 20
-312.5
 11
567
 21
-312.5
  0
LINE
  8
0
  6
CONTINUOUS
 62
     7
 10
566
 20
-508.2933349609375
 11
566
 21
-479.5
  0
LINE
  8
0
  6
CONTINUOUS
 62
     7
 10
571.9999389648437
 20
-334.2030334472656
 11
603.9999389648437
 21
-341.5271911621094
  0
LINE
  8
0
  6
CONTINUOUS
 62
     7
 10
572
 20
-360.947509765625
 11
604
 21
-360.947509765625
  0
LINE
  8
0
  6
CONTINUOUS
 62
     7
 10
572
 20
-455.7969665527344
 11
604
 21
-448.4728088378906
  0
LINE
  8
0
  6
CONTINUOUS
 62
     7
 10
572
 20
-429.052490234375
 11
604
 21
-429.052490234375
  0
LINE
  8
0
  6
CONTINUOUS
 62
     7
 10
545.928955078125
 20
-268.6729125976563
 11
545.928955078125
 21
-277.4422607421875
  0
LINE
  8
0
  6
CONTINUOUS
 62
     7
 10
562.071044921875
 20
-268.6729125976563
 11
562.071044921875
 21
-277.4422607421875
  0
LINE
  8
0
  6
CONTINUOUS
 62
     3
 10
545.928955078125
 20
-268.6729431152344
 11
554
 21
-279.2578430175781
  0
LINE
  8
0
  6
CONTINUOUS
 62
     3
 10
554
 20
-279.2578430175781
 11
562.071044921875
 21
-268.6728820800781
  0
LINE
  8
0
  6
CONTINUOUS
 62
     7
 10
545.49267578125
 20
-277.4560546875
 11
545.6787109375
 21
-283.2546997070313
  0
LINE
  8
0
  6
CONTINUOUS
 62
     7
 10
562.50732421875
 20
-277.4560852050781
 11
562.3212890625
 21
-283.2546997070313
  0
LINE
  8
0
  6
CONTINUOUS
 62
     7
 10
562.4257202148438
 20
-280
 11
566
 21
-280
  0
LINE
  8
0
  6
CONTINUOUS
 62
     7
 10
554
 20
-268.6729125976563
 11
554
 21
-279.2578430175781
  0
LINE
  8
0
  6
CONTINUOUS
 62
     7
 10
556.9999389648437
 20
-291.8166809082031
 11
565.9999389648437
 21
-290.7745971679688
  0
LINE
  8
0
  6
CONTINUOUS
 62
     7
 10
545.928955078125
 20
-268.6729125976563
 11
562.071044921875
 21
-268.6729125976563
  0
LINE
  8
0
  6
CONTINUOUS
 62
     3
 10
554
 20
-268.6729125976563
 11
545.928955078125
 21
-277.4422607421875
  0
LINE
  8
0
  6
CONTINUOUS
 62
     3
 10
562.071044921875
 20
-277.4422302246094
 11
554
 21
-268.6728820800781
  0
LINE
  8
0
  6
CONTINUOUS
 62
     7
 10
614
 20
-321.5
 11
636.5
 21
-321.5
  0
LINE
  8
0
  6
CONTINUOUS
 62
     7
 10
614
 20
-468.5
 11
636.5
 21
-468.5
  0
LINE
  8
0
  6
CONTINUOUS
 62
     7
 10
636.5
 20
-321.5
 11
636.5
 21
-468.5
  0
LINE
  8
0
  6
CONTINUOUS
 62
     7
 10
491
 20
-277.5
 11
535
 21
-277.5
  0
LINE
  8
0
  6
CONTINUOUS
 62
     7
 10
487
 20
-281.5000305175781
 11
491.0000305175781
 21
-277.5
  0
LINE
  8
0
  6
CONTINUOUS
 62
     7
 10
535
 20
-277.5
 11
539
 21
-281.5
  0
LINE
  8
0
  6
CONTINUOUS
 62
     7
 10
491
 20
-320.0578002929687
 11
535
 21
-320.0578002929687
  0
LINE
  8
0
  6
CONTINUOUS
 62
     7
 10
491
 20
-333.7132568359375
 11
535
 21
-333.7132568359375
  0
LINE
  8
0
  6
CONTINUOUS
 62
     7
 10
491
 20
-342.4596557617187
 11
535
 21
-342.4596557617187
  0
LINE
  8
0
  6
CONTINUOUS
 62
     7
 10
491
 20
-357.8352966308594
 11
535
 21
-357.8352966308594
  0
LINE
  8
0
  6
CONTINUOUS
 62
     7
 10
491
 20
-367.447998046875
 11
535
 21
-367.447998046875
  0
LINE
  8
0
  6
CONTINUOUS
 62
     7
 10
491
 20
-384.00048828125
 11
535
 21
-384.00048828125
  0
LINE
  8
0
  6
CONTINUOUS
 62
     7
 10
494.7239379882813
 20
-406.0003051757813
 11
535
 21
-406.0003051757813
  0
LINE
  8
0
  6
CONTINUOUS
 62
     7
 10
505.9630126953125
 20
-422.5516662597656
 11
535
 21
-422.5516662597656
  0
LINE
  8
0
  6
CONTINUOUS
 62
     7
 10
512.693603515625
 20
-432.1639404296875
 11
535
 21
-432.1639404296875
  0
LINE
  8
0
  6
CONTINUOUS
 62
     7
 10
523.4603271484375
 20
-447.5404357910156
 11
535
 21
-447.5404357910156
  0
LINE
  8
0
  6
CONTINUOUS
 62
     7
 10
529.5843505859375
 20
-456.2864379882812
 11
535
 21
-456.2864379882812
  0
LINE
  8
0
  6
CONTINUOUS
 62
     7
 10
689.5
 20
-375
 11
689.5
 21
-415
  0
LINE
  8
0
  6
CONTINUOUS
 62
     7
 10
646.5
 20
-322.5
 11
636.5
 21
-322.5
  0
LINE
  8
0
  6
CONTINUOUS
 62
     7
 10
651.5
 20
-343
 11
646.5
 21
-343
  0
LINE
  8
0
  6
CONTINUOUS
 62
     7
 10
646.5
 20
-322.5
 11
646.5
 21
-467.5
  0
LINE
  8
0
  6
CONTINUOUS
 62
     7
 10
682.5
 20
-366.5
 11
682.5
 21
-423.5
  0
LINE
  8
0
  6
CONTINUOUS
 62
     7
 10
689.5
 20
-374.9999389648437
 11
682.5000610351563
 21
-370.95849609375
  0
LINE
  8
0
  6
CONTINUOUS
 62
     7
 10
682.5
 20
-366.5
 11
670.3580322265625
 21
-366.5
  0
LINE
  8
0
  6
CONTINUOUS
 62
     7
 10
689.5000610351562
 20
-415.0000305175781
 11
682.5000610351563
 21
-419.0414733886719
  0
LINE
  8
0
  6
CONTINUOUS
 62
     7
 10
651.5
 20
-447
 11
651.5
 21
-343
  0
LINE
  8
0
  6
CONTINUOUS
 62
     7
 10
651.5
 20
-447
 11
646.5
 21
-447
  0
LINE
  8
0
  6
CONTINUOUS
 62
     7
 10
646.5
 20
-467.5
 11
636.5
 21
-467.5
  0
LINE
  8
0
  6
CONTINUOUS
 62
     7
 10
723.5
 20
-383
 11
698.5
 21
-383
  0
LINE
  8
0
  6
CONTINUOUS
 62
     7
 10
723.5
 20
-383
 11
723.5
 21
-404.5
  0
LINE
  8
0
  6
CONTINUOUS
 62
     7
 10
723.5
 20
-404.5
 11
693.5
 21
-404.5
  0
LINE
  8
0
  6
CONTINUOUS
 62
     7
 10
723.5
 20
-385.5
 11
693.5
 21
-385.5
  0
LINE
  8
0
  6
CONTINUOUS
 62
     7
 10
693.5
 20
-382.5
 11
693.5
 21
-407.5
  0
LINE
  8
0
  6
CONTINUOUS
 62
     7
 10
693.5
 20
-407.5
 11
689.5
 21
-407.5
  0
LINE
  8
0
  6
CONTINUOUS
 62
     7
 10
693.5
 20
-382.5
 11
689.5
 21
-382.5
  0
LINE
  8
0
  6
CONTINUOUS
 62
     7
 10
698.5
 20
-383
 11
698.5
 21
-385.5
  0
LINE
  8
0
  6
CONTINUOUS
 62
     7
 10
682.5
 20
-423.5
 11
670.3580322265625
 21
-423.5
  0
LINE
  8
0
  6
CONTINUOUS
 62
     7
 10
670.9999389648438
 20
-389.0823669433594
 11
651.5
 21
-384.03125
  0
LINE
  8
0
  6
CONTINUOUS
 62
     7
 10
671
 20
-375.935302734375
 11
651.5000610351562
 21
-362.1353149414063
  0
LINE
  8
0
  6
CONTINUOUS
 62
     7
 10
651.5
 20
-348.2694702148437
 11
671
 21
-367.1205749511719
  0
LINE
  8
0
  6
CONTINUOUS
 62
     7
 10
671
 20
-403.8154602050781
 11
651.5
 21
-408.8665771484375
  0
LINE
  8
0
  6
CONTINUOUS
 62
     7
 10
651.5
 20
-429.9861450195312
 11
670.9999389648438
 21
-416.1861877441406
  0
LINE
  8
0
  6
CONTINUOUS
 62
     7
 10
651.5
 20
-441.7305297851563
 11
671
 21
-422.8794250488281
  0
LINE
  8
0
  6
CONTINUOUS
 62
     3
 10
455
 20
-385
 11
455
 21
-405
  0
LINE
  8
0
  6
CONTINUOUS
 62
     3
 10
445
 20
-460
 11
465
 21
-460
  0
LINE
  8
0
  6
CONTINUOUS
 62
     3
 10
455
 20
-450
 11
455
 21
-470
  0
LINE
  8
0
  6
CONTINUOUS
 62
     7
 10
401
 20
-340.0000305175781
 11
401
 21
-450
  0
LINE
  8
0
  6
CONTINUOUS
 62
     7
 10
413
 20
-307.5
 11
413
 21
-482.5
  0
LINE
  8
0
  6
CONTINUOUS
 62
     7
 10
413
 20
-482.5
 11
429.5056762695313
 21
-482.5
  0
LINE
  8
0
  6
CONTINUOUS
 62
     7
 10
425
 20
-307.5
 11
425
 21
-482.5
  0
LINE
  8
0
  6
CONTINUOUS
 62
     7
 10
413
 20
-307.5
 11
457
 21
-307.5
  0
LINE
  8
0
  6
CONTINUOUS
 62
     7
 10
410
 20
-560
 11
640
 21
-560
  0
LINE
  8
0
  6
CONTINUOUS
 62
     7
 10
410
 20
-534
 11
457
 21
-534
  0
LINE
  8
0
  6
CONTINUOUS
 62
     7
 10
410
 20
-534
 11
410
 21
-560
  0
LINE
  8
0
  6
CONTINUOUS
 62
     7
 10
640
 20
-534
 11
640
 21
-560
  0
LINE
  8
0
  6
CONTINUOUS
 62
     3
 10
615
 20
-519
 11
615
 21
-575
  0
LINE
  8
0
  6
CONTINUOUS
 62
     7
 10
497.8509216308594
 20
-410.9664001464844
 11
578.0283203125
 21
-525.4715576171875
  0
LINE
  8
0
  6
CONTINUOUS
 62
     7
 10
428.0852966308594
 20
-498.7347717285156
 11
434.0599975585938
 21
-430.4436340332031
  0
LINE
  8
0
  6
CONTINUOUS
 62
     7
 10
452
 20
-280
 11
487
 21
-280
  0
LINE
  8
0
  6
CONTINUOUS
 62
     7
 10
467
 20
-280
 11
467
 21
-524
  0
LINE
  8
0
  6
CONTINUOUS
 62
     7
 10
487
 20
-280
 11
487
 21
-376.5518188476563
  0
LINE
  8
0
  6
CONTINUOUS
 62
     7
 10
452
 20
-280
 11
452
 21
-297.5
  0
LINE
  8
0
  6
CONTINUOUS
 62
     3
 10
435
 20
-519
 11
435
 21
-575
  0
LINE
  8
0
  6
CONTINUOUS
 62
     7
 10
300
 20
-358.5
 11
300
 21
-427.5
  0
LINE
  8
0
  6
CONTINUOUS
 62
     7
 10
300
 20
-362.5
 11
395
 21
-362.5
  0
LINE
  8
0
  6
CONTINUOUS
 62
     7
 10
300
 20
-427.5
 11
395
 21
-427.5
  0
LINE
  8
0
  6
CONTINUOUS
 62
     7
 10
395
 20
-357.5
 11
395
 21
-432.5
  0
LINE
  8
0
  6
CONTINUOUS
 62
     7
 10
395
 20
-357.5
 11
401
 21
-357.5
  0
LINE
  8
0
  6
CONTINUOUS
 62
     7
 10
395
 20
-432.5
 11
401
 21
-432.5
  0
LINE
  8
0
  6
DASHED
 62
     7
 10
425.5
 20
-534
 11
425.5
 21
-560
  0
LINE
  8
0
  6
DASHED
 62
     7
 10
444.5
 20
-534
 11
444.5
 21
-560
  0
LINE
  8
0
  6
DASHED
 62
     7
 10
624.5
 20
-534
 11
624.5
 21
-560
  0
LINE
  8
0
  6
DASHED
 62
     7
 10
605.5
 20
-534
 11
605.5
 21
-560
  0
LINE
  8
0
  6
CONTINUOUS
 62
     7
 10
300
 20
-358.5
 11
380
 21
-358.5
  0
LINE
  8
0
  6
CONTINUOUS
 62
     7
 10
380
 20
-358.5
 11
380
 21
-362.5
  0
LINE
  8
0
  6
CONTINUOUS
 62
     7
 10
594.411376953125
 20
-534
 11
640
 21
-534
  0
LINE
  8
0
  6
CONTINUOUS
 62
     7
 10
455
 20
-388.6360473632812
 11
448.6360473632813
 21
-395
  0
LINE
  8
0
  6
CONTINUOUS
 62
     7
 10
448.6360473632813
 20
-395
 11
455
 21
-401.3639526367187
  0
LINE
  8
0
  6
CONTINUOUS
 62
     7
 10
455
 20
-401.3639526367187
 11
461.3639526367187
 21
-395
  0
LINE
  8
0
  6
CONTINUOUS
 62
     7
 10
461.3639526367187
 20
-395
 11
454.9999694824219
 21
-388.6360473632812
  0
LINE
  8
0
  6
CONTINUOUS
 62
     7
 10
455
 20
-453.6360473632812
 11
448.6360473632813
 21
-460
  0
LINE
  8
0
  6
CONTINUOUS
 62
     7
 10
448.6360473632813
 20
-459.9999694824219
 11
454.9999694824219
 21
-466.3639221191406
  0
LINE
  8
0
  6
CONTINUOUS
 62
     7
 10
455
 20
-466.3639526367188
 11
461.3639526367187
 21
-460
  0
LINE
  8
0
  6
CONTINUOUS
 62
     7
 10
461.3639526367187
 20
-460
 11
454.9999694824219
 21
-453.6360473632812
  0
LINE
  8
0
  6
CONTINUOUS
 62
     7
 10
401
 20
-340.0000305175781
 11
413
 21
-307.5
  0
LINE
  8
0
  6
CONTINUOUS
 62
     7
 10
401
 20
-450
 11
413
 21
-482.5
  0
LINE
  8
0
  6
CONTINUOUS
 62
     3
 10
554
 20
-230.2581329345703
 11
554
 21
-290.6965637207031
  0
LINE
  8
0
  6
CONTINUOUS
 62
     3
 10
-150.8310241699219
 20
-395
 11
150.8310241699219
 21
-395
  0
LINE
  8
0
  6
CONTINUOUS
 62
     3
 10
0
 20
-221
 11
0
 21
-575
  0
LINE
  8
0
  6
CONTINUOUS
 62
     3
 10
56.29155731201172
 20
-362.4999694824219
 11
73.61206817626953
 21
-352.4999694824219
  0
LINE
  8
0
  6
CONTINUOUS
 62
     3
 10
-56.2916259765625
 20
-362.4999694824219
 11
-73.61213684082031
 21
-352.4999694824219
  0
LINE
  8
0
  6
CONTINUOUS
 62
     3
 10
-56.29169845581055
 20
-427.4999084472656
 11
-73.61220550537109
 21
-437.4999084472656
  0
LINE
  8
0
  6
CONTINUOUS
 62
     3
 10
56.29160690307617
 20
-427.4999694824219
 11
73.61211395263672
 21
-437.4999694824219
  0
LINE
  8
0
  6
CONTINUOUS
 62
     3
 10
-112.5
 20
-524
 11
-112.5
 21
-570
  0
LINE
  8
0
  6
CONTINUOUS
 62
     3
 10
112.5
 20
-524
 11
112.5
 21
-570
  0
LINE
  8
0
  6
CONTINUOUS
 62
     3
 10
71.54827880859375
 20
-460
 11
95
 21
-460
  0
LINE
  8
0
  6
CONTINUOUS
 62
     7
 10
80
 20
-430.443603515625
 11
80
 21
-471.1348266601562
  0
LINE
  8
0
  6
CONTINUOUS
 62
     7
 10
-53.17486572265625
 20
-475
 11
-35.443603515625
 21
-475
  0
LINE
  8
0
  6
CONTINUOUS
 62
     7
 10
-137.5
 20
-417.5
 11
-137.5
 21
-560
  0
LINE
  8
0
  6
CONTINUOUS
 62
     7
 10
137.5
 20
-417.5
 11
137.5
 21
-560
  0
LINE
  8
0
  6
CONTINUOUS
 62
     7
 10
-137.5
 20
-560
 11
-67.5
 21
-560
  0
LINE
  8
0
  6
CONTINUOUS
 62
     7
 10
-137.5
 20
-534
 11
-67.5
 21
-534
  0
LINE
  8
0
  6
CONTINUOUS
 62
     7
 10
67.5
 20
-534
 11
67.5
 21
-560
  0
LINE
  8
0
  6
CONTINUOUS
 62
     7
 10
-67.5
 20
-534
 11
-67.5
 21
-560
  0
LINE
  8
0
  6
CONTINUOUS
 62
     7
 10
67.5
 20
-534
 11
137.5
 21
-534
  0
LINE
  8
0
  6
CONTINUOUS
 62
     7
 10
67.5
 20
-560
 11
137.5
 21
-560
  0
LINE
  8
0
  6
CONTINUOUS
 62
     7
 10
-62.5
 20
-557
 11
62.5
 21
-557
  0
LINE
  8
0
  6
CONTINUOUS
 62
     7
 10
-62.5
 20
-540
 11
-25
 21
-540
  0
LINE
  8
0
  6
CONTINUOUS
 62
     7
 10
25
 20
-540
 11
62.5
 21
-540
  0
LINE
  8
0
  6
CONTINUOUS
 62
     7
 10
-67.50003051757812
 20
-534
 11
-63.13683319091797
 21
-484.12841796875
  0
LINE
  8
0
  6
CONTINUOUS
 62
     7
 10
-85.50004577636719
 20
-534
 11
-80.00003814697266
 21
-471.1346435546875
  0
LINE
  8
0
  6
CONTINUOUS
 62
     7
 10
67.49996185302734
 20
-534
 11
63.13677215576172
 21
-484.1284484863281
  0
LINE
  8
0
  6
CONTINUOUS
 62
     7
 10
85.49997711181641
 20
-534
 11
79.99999237060547
 21
-471.1348266601562
  0
LINE
  8
0
  6
CONTINUOUS
 62
     7
 10
35.443603515625
 20
-475
 11
53.1748046875
 21
-475
  0
LINE
  8
0
  6
CONTINUOUS
 62
     7
 10
-80
 20
-430.443603515625
 11
-80
 21
-471.1346435546875
  0
LINE
  8
0
  6
CONTINUOUS
 62
     3
 10
87.76786804199219
 20
-431.3553161621094
 11
106.2455673217773
 21
-439.009033203125
  0
LINE
  8
0
  6
CONTINUOUS
 62
     3
 10
87.76849365234375
 20
-358.6450805664063
 11
106.2461395263672
 21
-350.9913940429687
  0
LINE
  8
0
  6
CONTINUOUS
 62
     3
 10
36.35481262207031
 20
-307.2314758300781
 11
44.00850677490234
 21
-288.7538146972656
  0
LINE
  8
0
  6
CONTINUOUS
 62
     3
 10
-36.35510635375977
 20
-307.2315063476562
 11
-44.00879669189453
 21
-288.7538757324219
  0
LINE
  8
0
  6
CONTINUOUS
 62
     3
 10
-87.76860809326172
 20
-358.6453552246094
 11
-106.2463073730469
 21
-350.9916381835937
  0
LINE
  8
0
  6
CONTINUOUS
 62
     3
 10
-87.76836395263672
 20
-431.3550720214844
 11
-106.2460708618164
 21
-439.0087890625
  0
LINE
  8
0
  6
CONTINUOUS
 62
     3
 10
-36.3548583984375
 20
-482.7683410644531
 11
-44.00857543945312
 21
-501.2460632324219
  0
LINE
  8
0
  6
CONTINUOUS
 62
     3
 10
36.35441589355469
 20
-482.7683715820313
 11
44.00812530517578
 21
-501.2460632324219
  0
LINE
  8
0
  6
CONTINUOUS
 62
     7
 10
20
 20
-281.4623413085937
 11
20
 21
-302.2301330566406
  0
LINE
  8
0
  6
CONTINUOUS
 62
     7
 10
-20
 20
-281.4623413085937
 11
-20
 21
-302.2301330566406
  0
LINE
  8
0
  6
DASHED
 62
     7
 10
-122
 20
-534
 11
-122
 21
-560
  0
LINE
  8
0
  6
DASHED
 62
     7
 10
-103
 20
-534
 11
-103
 21
-560
  0
LINE
  8
0
  6
DASHED
 62
     7
 10
122
 20
-534
 11
122
 21
-560
  0
LINE
  8
0
  6
DASHED
 62
     7
 10
103
 20
-534
 11
103
 21
-560
  0
LINE
  8
0
  6
CONTINUOUS
 62
     7
 10
-9
 20
-369.5
 11
9
 21
-369.5
  0
LINE
  8
0
  6
CONTINUOUS
 62
     7
 10
-9
 20
-358.5
 11
-9
 21
-369.5
  0
LINE
  8
0
  6
CONTINUOUS
 62
     7
 10
9
 20
-358.5
 11
9
 21
-369.5
  0
LINE
  8
0
  6
CONTINUOUS
 62
     7
 10
-9
 20
-358.5
 11
9
 21
-358.5
  0
LINE
  8
0
  6
CONTINUOUS
 62
     7
 10
100.489990234375
 20
-400.9497680664062
 11
100.489990234375
 21
-389.0502319335937
  0
LINE
  8
0
  6
CONTINUOUS
 62
     7
 10
92.489990234375
 20
-401.7359313964844
 11
92.489990234375
 21
-388.2640686035156
  0
LINE
  8
0
  6
CONTINUOUS
 62
     7
 10
92.49000549316406
 20
-401.7359313964844
 11
87.25281524658203
 21
-401.572265625
  0
LINE
  8
0
  6
CONTINUOUS
 62
     7
 10
92.49000549316406
 20
-388.2640380859375
 11
87.25281524658203
 21
-388.4277038574219
  0
LINE
  8
0
  6
CONTINUOUS
 62
     7
 10
100.489990234375
 20
-400.9497680664062
 11
92.489990234375
 21
-400.9497680664062
  0
LINE
  8
0
  6
CONTINUOUS
 62
     7
 10
100.489990234375
 20
-389.0502319335937
 11
92.489990234375
 21
-389.0502319335937
  0
LINE
  8
0
  6
CONTINUOUS
 62
     7
 10
92.989990234375
 20
-465.9497680664063
 11
92.989990234375
 21
-454.0502319335938
  0
LINE
  8
0
  6
CONTINUOUS
 62
     7
 10
84.989990234375
 20
-466.7359313964844
 11
84.989990234375
 21
-453.2640686035156
  0
LINE
  8
0
  6
CONTINUOUS
 62
     7
 10
84.98995971679687
 20
-466.7359313964844
 11
79.99996948242188
 21
-466.5800170898437
  0
LINE
  8
0
  6
CONTINUOUS
 62
     7
 10
84.989990234375
 20
-453.2640686035156
 11
80
 21
-453.4199829101562
  0
LINE
  8
0
  6
CONTINUOUS
 62
     7
 10
92.989990234375
 20
-465.9497680664063
 11
84.989990234375
 21
-465.9497680664063
  0
LINE
  8
0
  6
CONTINUOUS
 62
     7
 10
92.989990234375
 20
-454.0502319335938
 11
84.989990234375
 21
-454.0502319335938
  0
LINE
  8
0
  6
CONTINUOUS
 62
     3
 10
84.98996734619141
 20
-460.0000305175781
 11
92.98995208740234
 21
-454.05029296875
  0
LINE
  8
0
  6
CONTINUOUS
 62
     3
 10
84.98995971679687
 20
-454.0502319335938
 11
92.98993682861328
 21
-459.9999694824219
  0
LINE
  8
0
  6
CONTINUOUS
 62
     7
 10
92.989990234375
 20
-460
 11
84.989990234375
 21
-460
  0
LINE
  8
0
  6
CONTINUOUS
 62
     3
 10
84.99000549316406
 20
-459.9999694824219
 11
92.989990234375
 21
-465.94970703125
  0
LINE
  8
0
  6
CONTINUOUS
 62
     3
 10
92.98997497558594
 20
-460
 11
84.989990234375
 21
-465.9497375488281
  0
LINE
  8
0
  6
CONTINUOUS
 62
     3
 10
100.4899749755859
 20
-389.05029296875
 11
92.48996734619141
 21
-395.0000610351562
  0
LINE
  8
0
  6
CONTINUOUS
 62
     7
 10
92.489990234375
 20
-395
 11
100.489990234375
 21
-395
  0
LINE
  8
0
  6
CONTINUOUS
 62
     3
 10
100.4899978637695
 20
-395.0000305175781
 11
92.48996734619141
 21
-389.0502624511719
  0
LINE
  8
0
  6
CONTINUOUS
 62
     3
 10
92.49001312255859
 20
-395
 11
100.489990234375
 21
-400.9497375488281
  0
LINE
  8
0
  6
CONTINUOUS
 62
     3
 10
100.4900054931641
 20
-394.9999694824219
 11
92.49002838134766
 21
-400.94970703125
  0
LINE
  8
0
  6
CONTINUOUS
 62
     7
 10
8.940573692321777
 20
-271.4916076660156
 11
10.00001430511475
 21
-277.5
  0
LINE
  8
0
  6
CONTINUOUS
 62
     7
 10
4.000017166137695
 20
-269.7510986328125
 11
7.986563682556152
 21
-270.5218200683594
  0
LINE
  8
0
  6
CONTINUOUS
 62
     7
 10
4
 20
-240
 11
4
 21
-275.1000061035156
  0
LINE
  8
0
  6
CONTINUOUS
 62
     7
 10
-8.940563201904297
 20
-271.4916381835938
 11
-9.999966621398926
 21
-277.4998168945313
  0
LINE
  8
0
  6
CONTINUOUS
 62
     7
 10
-4.000070095062256
 20
-269.7511291503906
 11
-7.986616611480713
 21
-270.5218505859375
  0
LINE
  8
0
  6
CONTINUOUS
 62
     7
 10
-4
 20
-240
 11
-4
 21
-275.1000061035156
  0
LINE
  8
0
  6
CONTINUOUS
 62
     7
 10
37.02908706665039
 20
-270.488525390625
 11
21.3006591796875
 21
-266.8573303222656
  0
LINE
  8
0
  6
CONTINUOUS
 62
     7
 10
35.42986297607422
 20
-279.3560485839844
 11
18.8508243560791
 21
-275.5284729003906
  0
LINE
  8
0
  6
CONTINUOUS
 62
     7
 10
35.42986679077148
 20
-279.3560180664063
 11
34.54857635498047
 21
-282.6939697265625
  0
LINE
  8
0
  6
CONTINUOUS
 62
     7
 10
18.85086250305176
 20
-275.5284729003906
 11
18.1797046661377
 21
-278.9149475097656
  0
LINE
  8
0
  6
CONTINUOUS
 62
     7
 10
37.02914428710938
 20
-270.488525390625
 11
35.00458145141602
 21
-279.2578430175781
  0
LINE
  8
0
  6
CONTINUOUS
 62
     7
 10
21.30068588256836
 20
-266.8573303222656
 11
19.27612686157227
 21
-275.6266479492188
  0
LINE
  8
0
  6
CONTINUOUS
 62
     7
 10
-10
 20
-277.5
 11
-10
 21
-277.9263000488281
  0
LINE
  8
0
  6
CONTINUOUS
 62
     7
 10
10
 20
-277.5
 11
10
 21
-277.9263000488281
  0
LINE
  8
0
  6
CONTINUOUS
 62
     3
 10
19.27610015869141
 20
-275.6266784667969
 11
29.16485786437988
 21
-268.6729125976563
  0
LINE
  8
0
  6
CONTINUOUS
 62
     3
 10
21.30072402954102
 20
-266.8572998046875
 11
27.14035606384277
 21
-277.4422302246094
  0
LINE
  8
0
  6
CONTINUOUS
 62
     7
 10
27.14032363891602
 20
-277.4422607421875
 11
29.16488456726074
 21
-268.6729125976563
  0
LINE
  8
0
  6
CONTINUOUS
 62
     3
 10
35.00459289550781
 20
-279.2578430175781
 11
29.1649055480957
 21
-268.6729125976563
  0
LINE
  8
0
  6
CONTINUOUS
 62
     3
 10
37.02912521362305
 20
-270.488525390625
 11
27.14031410217285
 21
-277.4422607421875
  0
LINE
  8
0
  6
CONTINUOUS
 62
     3
 10
30.92712211608887
 20
-261.0398254394531
 11
25.86935424804688
 21
-282.9474182128906
  0
LINE
  8
0
  6
CONTINUOUS
 62
     7
 10
-10.99948120117188
 20
-278.0158386230469
 11
-11.71884155273438
 21
-280.5003051757813
  0
LINE
  8
0
  6
CONTINUOUS
 62
     7
 10
-37.16403579711914
 20
-283.5322875976562
 11
-37.03377532958984
 21
-285.0811767578125
  0
LINE
  8
0
  6
CONTINUOUS
 62
     7
 10
-27.55035209655762
 20
-280.7750244140625
 11
-26.61273956298828
 21
-282.6000061035156
  0
LINE
  8
0
  6
CONTINUOUS
 62
     3
 10
282.5
 20
0
 11
733.565185546875
 21
0
  0
LINE
  8
0
  6
CONTINUOUS
 62
     7
 10
689.5000610351562
 20
-20
 11
689.5000610351562
 21
20
  0
LINE
  8
0
  6
CONTINUOUS
 62
     7
 10
643.5
 20
-72.49997711181641
 11
636.5
 21
-72.49997711181641
  0
LINE
  8
0
  6
CONTINUOUS
 62
     7
 10
651.5
 20
-51.99997711181641
 11
646.5
 21
-51.99997711181641
  0
LINE
  8
0
  6
CONTINUOUS
 62
     7
 10
643.5000610351563
 20
-72.5
 11
643.5000610351563
 21
-63.92559814453125
  0
LINE
  8
0
  6
CONTINUOUS
 62
     7
 10
646.5000610351562
 20
-63.92559814453125
 11
646.5000610351562
 21
63.92559814453125
  0
LINE
  8
0
  6
CONTINUOUS
 62
     7
 10
682.5000610351563
 20
-28.5
 11
682.5000610351563
 21
28.5
  0
LINE
  8
0
  6
CONTINUOUS
 62
     7
 10
689.5
 20
-20.00008583068848
 11
682.5
 21
-24.04152870178223
  0
LINE
  8
0
  6
CONTINUOUS
 62
     7
 10
682.5
 20
-28.49997901916504
 11
670.3580322265625
 21
-28.49997901916504
  0
LINE
  8
0
  6
CONTINUOUS
 62
     7
 10
689.5
 20
19.99994850158691
 11
682.5
 21
24.04139137268066
  0
LINE
  8
0
  6
CONTINUOUS
 62
     7
 10
682.5
 20
28.50002098083496
 11
670.3580322265625
 21
28.50002098083496
  0
LINE
  8
0
  6
CONTINUOUS
 62
     7
 10
651.5000610351562
 20
52
 11
651.5000610351562
 21
-52
  0
LINE
  8
0
  6
CONTINUOUS
 62
     7
 10
651.5
 20
52.00002288818359
 11
646.5
 21
52.00002288818359
  0
LINE
  8
0
  6
CONTINUOUS
 62
     7
 10
643.5
 20
72.50002288818359
 11
636.5
 21
72.50002288818359
  0
LINE
  8
0
  6
CONTINUOUS
 62
     7
 10
646.5
 20
-63.92557525634766
 11
643.5
 21
-63.92557525634766
  0
LINE
  8
0
  6
CONTINUOUS
 62
     7
 10
646.5
 20
63.92562103271484
 11
643.5
 21
63.92562103271484
  0
LINE
  8
0
  6
CONTINUOUS
 62
     7
 10
723.5000610351563
 20
-9.5
 11
723.5000610351563
 21
9.5
  0
LINE
  8
0
  6
CONTINUOUS
 62
     7
 10
723.5
 20
9.500021934509277
 11
693.5
 21
9.500021934509277
  0
LINE
  8
0
  6
CONTINUOUS
 62
     7
 10
723.5
 20
-9.499978065490723
 11
693.5
 21
-9.499978065490723
  0
LINE
  8
0
  6
CONTINUOUS
 62
     7
 10
693.5000610351562
 20
-12.5
 11
693.5000610351562
 21
12.5
  0
LINE
  8
0
  6
CONTINUOUS
 62
     7
 10
693.5
 20
12.50002193450928
 11
689.5
 21
12.50002193450928
  0
LINE
  8
0
  6
CONTINUOUS
 62
     7
 10
693.5
 20
-12.49997806549072
 11
689.5
 21
-12.49997806549072
  0
LINE
  8
0
  6
CONTINUOUS
 62
     7
 10
723.5
 20
-2.999978303909302
 11
698.5
 21
-2.999978303909302
  0
LINE
  8
0
  6
CONTINUOUS
 62
     7
 10
723.5
 20
3.000021696090698
 11
698.5
 21
3.000021696090698
  0
LINE
  8
0
  6
CONTINUOUS
 62
     7
 10
698.5000610351563
 20
-3
 11
698.5000610351563
 21
3
  0
LINE
  8
0
  6
CONTINUOUS
 62
     7
 10
671
 20
-5.91762638092041
 11
651.5000610351562
 21
-10.96874809265137
  0
LINE
  8
0
  6
CONTINUOUS
 62
     7
 10
670.9999389648438
 20
-19.0646858215332
 11
651.5
 21
-32.86465454101562
  0
LINE
  8
0
  6
CONTINUOUS
 62
     7
 10
651.5
 20
-46.73051452636719
 11
670.9999389648438
 21
-27.87943840026855
  0
LINE
  8
0
  6
CONTINUOUS
 62
     7
 10
671
 20
5.917567253112793
 11
651.5000610351562
 21
10.9687032699585
  0
LINE
  8
0
  6
CONTINUOUS
 62
     7
 10
671
 20
19.06471633911133
 11
651.5000610351562
 21
32.86469268798828
  0
LINE
  8
0
  6
CONTINUOUS
 62
     7
 10
651.5
 20
46.73052597045898
 11
670.9999389648438
 21
27.87944221496582
  0
LINE
  8
0
  6
CONTINUOUS
 62
     7
 10
643.5000610351563
 20
63.92559814453125
 11
643.5000610351563
 21
72.5
  0
LINE
  8
0
  6
CONTINUOUS
 62
     7
 10
539
 20
114.9999694824219
 11
539
 21
4
  0
LINE
  8
0
  6
CONTINUOUS
 62
     7
 10
539
 20
114.9999694824219
 11
557
 21
114.9999694824219
  0
LINE
  8
0
  6
CONTINUOUS
 62
     7
 10
539
 20
-115
 11
557
 21
-115
  0
LINE
  8
0
  6
CONTINUOUS
 62
     7
 10
557
 20
114.9999694824219
 11
557
 21
12.43438720703125
  0
LINE
  8
0
  6
CONTINUOUS
 62
     7
 10
614
 20
73.49996948242188
 11
614
 21
-73.5
  0
LINE
  8
0
  6
CONTINUOUS
 62
     7
 10
604
 20
72.49996948242187
 11
604
 21
-72.5
  0
LINE
  8
0
  6
CONTINUOUS
 62
     7
 10
604
 20
-72.5
 11
614
 21
-72.5
  0
LINE
  8
0
  6
CONTINUOUS
 62
     7
 10
604
 20
72.49996948242187
 11
614
 21
72.49996948242187
  0
LINE
  8
0
  6
CONTINUOUS
 62
     7
 10
572
 20
77.49996948242187
 11
572
 21
3.708099365234375
  0
LINE
  8
0
  6
CONTINUOUS
 62
     7
 10
562
 20
-82.5
 11
567
 21
-82.5
  0
LINE
  8
0
  6
CONTINUOUS
 62
     7
 10
562
 20
82.49996948242188
 11
567
 21
82.49996948242188
  0
LINE
  8
0
  6
CONTINUOUS
 62
     7
 10
566
 20
-48.60113525390625
 11
566
 21
-4
  0
LINE
  8
0
  6
CONTINUOUS
 62
     7
 10
557.0000610351563
 20
12.43439197540283
 11
566
 21
10.02285289764404
  0
LINE
  8
0
  6
CONTINUOUS
 62
     7
 10
557
 20
-51.01267242431641
 11
566
 21
-48.60112380981445
  0
LINE
  8
0
  6
CONTINUOUS
 62
     7
 10
557
 20
-51.01266479492187
 11
557
 21
-115
  0
LINE
  8
0
  6
CONTINUOUS
 62
     7
 10
572
 20
31.18218994140625
 11
604
 21
31.18218994140625
  0
LINE
  8
0
  6
CONTINUOUS
 62
     7
 10
572.0000610351563
 20
57.07563781738281
 11
604.0000610351563
 21
50.24575805664062
  0
LINE
  8
0
  6
CONTINUOUS
 62
     7
 10
572
 20
-31.18218994140625
 11
604
 21
-31.18218994140625
  0
LINE
  8
0
  6
CONTINUOUS
 62
     7
 10
572
 20
-57.07560729980469
 11
604.0000610351563
 21
-50.24572372436523
  0
LINE
  8
0
  6
CONTINUOUS
 62
     7
 10
537.5
 20
4
 11
570.5
 21
4
  0
LINE
  8
0
  6
CONTINUOUS
 62
     7
 10
537.5
 20
-4
 11
570.5
 21
-4
  0
LINE
  8
0
  6
CONTINUOUS
 62
     7
 10
566
 20
4
 11
566
 21
10.0228271484375
  0
LINE
  8
0
  6
CONTINUOUS
 62
     7
 10
572
 20
-3.708099365234375
 11
572
 21
-77.5
  0
LINE
  8
0
  6
CONTINUOUS
 62
     7
 10
539
 20
-4
 11
539
 21
-115
  0
LINE
  8
0
  6
CONTINUOUS
 62
     3
 10
554
 20
-38.43377685546875
 11
554
 21
-15.05325317382813
  0
LINE
  8
0
  6
CONTINUOUS
 62
     7
 10
554
 20
-34.35464859008789
 11
562.4852905273438
 21
-25.86936569213867
  0
LINE
  8
0
  6
CONTINUOUS
 62
     7
 10
545.5147094726563
 20
-25.86938858032227
 11
554
 21
-17.38410568237305
  0
LINE
  8
0
  6
CONTINUOUS
 62
     7
 10
545.5147094726563
 20
-25.86934471130371
 11
554
 21
-34.3546257019043
  0
LINE
  8
0
  6
CONTINUOUS
 62
     7
 10
554
 20
-17.38408470153809
 11
562.4852905273438
 21
-25.86936569213867
  0
LINE
  8
0
  6
CONTINUOUS
 62
     7
 10
614
 20
73.49996948242188
 11
636.5
 21
73.49996948242188
  0
LINE
  8
0
  6
CONTINUOUS
 62
     7
 10
614
 20
-73.5
 11
636.5
 21
-73.5
  0
LINE
  8
0
  6
CONTINUOUS
 62
     7
 10
636.5
 20
73.49996948242188
 11
636.5
 21
-73.5
  0
LINE
  8
0
  6
CONTINUOUS
 62
     7
 10
491
 20
117.4999694824219
 11
535
 21
117.4999694824219
  0
LINE
  8
0
  6
CONTINUOUS
 62
     7
 10
491
 20
-117.5
 11
535
 21
-117.5
  0
LINE
  8
0
  6
CONTINUOUS
 62
     7
 10
491
 20
-111.4677429199219
 11
535
 21
-111.4677429199219
  0
LINE
  8
0
  6
CONTINUOUS
 62
     7
 10
487.0000305175781
 20
113.4999389648438
 11
491.0000305175781
 21
117.4999465942383
  0
LINE
  8
0
  6
CONTINUOUS
 62
     7
 10
534.9998168945313
 20
117.4999389648437
 11
538.9998168945312
 21
113.4999389648438
  0
LINE
  8
0
  6
CONTINUOUS
 62
     7
 10
539
 20
-113.5000457763672
 11
535
 21
-117.5000534057617
  0
LINE
  8
0
  6
CONTINUOUS
 62
     7
 10
491.0001525878906
 20
-117.4999008178711
 11
487.0001220703125
 21
-113.4998550415039
  0
LINE
  8
0
  6
CONTINUOUS
 62
     7
 10
491
 20
111.4676208496094
 11
535
 21
111.4676208496094
  0
LINE
  8
0
  6
CONTINUOUS
 62
     7
 10
491
 20
105.0982360839844
 11
535
 21
105.0982360839844
  0
LINE
  8
0
  6
CONTINUOUS
 62
     7
 10
491
 20
100.2502136230469
 11
535
 21
100.2502136230469
  0
LINE
  8
0
  6
CONTINUOUS
 62
     7
 10
491
 20
90.49581909179687
 11
535
 21
90.49581909179687
  0
LINE
  8
0
  6
CONTINUOUS
 62
     7
 10
491
 20
74.94113159179688
 11
535
 21
74.94113159179688
  0
LINE
  8
0
  6
CONTINUOUS
 62
     7
 10
491
 20
61.28469848632813
 11
535
 21
61.28469848632813
  0
LINE
  8
0
  6
CONTINUOUS
 62
     7
 10
491
 20
52.53948974609375
 11
535
 21
52.53948974609375
  0
LINE
  8
0
  6
CONTINUOUS
 62
     7
 10
491
 20
37.16400146484375
 11
535
 21
37.16400146484375
  0
LINE
  8
0
  6
CONTINUOUS
 62
     7
 10
491
 20
27.5504150390625
 11
535
 21
27.5504150390625
  0
LINE
  8
0
  6
CONTINUOUS
 62
     7
 10
491
 20
10.99948120117188
 11
535
 21
10.99948120117188
  0
LINE
  8
0
  6
CONTINUOUS
 62
     7
 10
491
 20
-90.49783325195313
 11
535
 21
-90.49783325195313
  0
LINE
  8
0
  6
CONTINUOUS
 62
     7
 10
491
 20
-100.2507019042969
 11
535
 21
-100.2507019042969
  0
LINE
  8
0
  6
CONTINUOUS
 62
     7
 10
491
 20
-105.0988464355469
 11
535
 21
-105.0988464355469
  0
LINE
  8
0
  6
CONTINUOUS
 62
     7
 10
425
 20
87.5
 11
425
 21
-87.5
  0
LINE
  8
0
  6
CONTINUOUS
 62
     7
 10
413
 20
87.5
 11
444.5633850097656
 21
87.5
  0
LINE
  8
0
  6
CONTINUOUS
 62
     7
 10
413
 20
87.5
 11
413
 21
-87.5
  0
LINE
  8
0
  6
CONTINUOUS
 62
     7
 10
401
 20
55
 11
401
 21
-55
  0
LINE
  8
0
  6
CONTINUOUS
 62
     7
 10
413
 20
-87.5
 11
444.5634765625
 21
-87.5
  0
LINE
  8
0
  6
CONTINUOUS
 62
     7
 10
401
 20
55.00004577636719
 11
413
 21
87.50001525878906
  0
LINE
  8
0
  6
CONTINUOUS
 62
     7
 10
400.9999694824219
 20
-54.99995803833008
 11
413
 21
-87.49998474121094
  0
LINE
  8
0
  6
CONTINUOUS
 62
     7
 10
487
 20
125.5
 11
487
 21
-125.5
  0
LINE
  8
0
  6
CONTINUOUS
 62
     7
 10
467
 20
137.5
 11
467
 21
25.98077392578125
  0
LINE
  8
0
  6
CONTINUOUS
 62
     7
 10
420
 20
137.5
 11
630
 21
137.5
  0
LINE
  8
0
  6
CONTINUOUS
 62
     7
 10
420
 20
-137.5
 11
630
 21
-137.5
  0
LINE
  8
0
  6
CONTINUOUS
 62
     7
 10
467
 20
-25.98077392578125
 11
467
 21
-137.5
  0
LINE
  8
0
  6
CONTINUOUS
 62
     7
 10
410
 20
127.5
 11
410
 21
79.37493896484375
  0
LINE
  8
0
  6
CONTINUOUS
 62
     7
 10
410
 20
-79.375
 11
410
 21
-127.5
  0
LINE
  8
0
  6
CONTINUOUS
 62
     7
 10
640
 20
127.5
 11
640
 21
90.98663330078125
  0
LINE
  8
0
  6
CONTINUOUS
 62
     7
 10
640
 20
-90.986572265625
 11
640
 21
-127.5
  0
LINE
  8
0
  6
CONTINUOUS
 62
     7
 10
572
 20
71.29118347167969
 11
631.6264038085938
 21
81.11972045898437
  0
LINE
  8
0
  6
CONTINUOUS
 62
     7
 10
572
 20
-71.29117584228516
 11
631.6264038085938
 21
-81.11970520019531
  0
LINE
  8
0
  6
CONTINUOUS
 62
     3
 10
420
 20
112.4999389648438
 11
450
 21
112.4999389648438
  0
LINE
  8
0
  6
CONTINUOUS
 62
     3
 10
435
 20
127.4999389648437
 11
435
 21
97.49993896484375
  0
LINE
  8
0
  6
CONTINUOUS
 62
     3
 10
435
 20
-97.50006103515625
 11
435
 21
-127.5000610351562
  0
LINE
  8
0
  6
CONTINUOUS
 62
     3
 10
420
 20
-112.5000610351562
 11
450
 21
-112.5000610351562
  0
LINE
  8
0
  6
CONTINUOUS
 62
     3
 10
615
 20
-97.50006103515625
 11
615
 21
-127.5000610351562
  0
LINE
  8
0
  6
CONTINUOUS
 62
     3
 10
600
 20
-112.5000610351562
 11
630
 21
-112.5000610351562
  0
LINE
  8
0
  6
CONTINUOUS
 62
     3
 10
615
 20
127.4999389648437
 11
615
 21
97.49993896484375
  0
LINE
  8
0
  6
CONTINUOUS
 62
     3
 10
600
 20
112.4999389648438
 11
630
 21
112.4999389648438
  0
LINE
  8
0
  6
CONTINUOUS
 62
     7
 10
300
 20
32.5
 11
300
 21
-32.5
  0
LINE
  8
0
  6
CONTINUOUS
 62
     7
 10
395
 20
37.5
 11
395
 21
-37.5
  0
LINE
  8
0
  6
CONTINUOUS
 62
     7
 10
300
 20
-32.5
 11
395
 21
-32.5
  0
LINE
  8
0
  6
CONTINUOUS
 62
     7
 10
300
 20
32.5
 11
395
 21
32.5
  0
LINE
  8
0
  6
CONTINUOUS
 62
     7
 10
395
 20
37.5
 11
401
 21
37.5
  0
LINE
  8
0
  6
CONTINUOUS
 62
     7
 10
395
 20
-37.5
 11
401
 21
-37.5
  0
LINE
  8
0
  6
CONTINUOUS
 62
     7
 10
300
 20
-9
 11
381
 21
-9
  0
LINE
  8
0
  6
CONTINUOUS
 62
     7
 10
300
 20
9
 11
381
 21
9
  0
LINE
  8
0
  6
CONTINUOUS
 62
     3
 10
455
 20
-80.56817626953125
 11
455
 21
-107.5
  0
LINE
  8
0
  6
CONTINUOUS
 62
     7
 10
445.4349670410156
 20
87.53807830810547
 11
457.87158203125
 21
88.62614440917969
  0
LINE
  8
0
  6
CONTINUOUS
 62
     7
 10
445.4350280761719
 20
-87.53804016113281
 11
457.8715515136719
 21
-88.6260986328125
  0
LINE
  8
0
  6
CONTINUOUS
 62
     7
 10
380
 20
9
 11
380
 21
-9
  0
LINE
  8
0
  6
CONTINUOUS
 62
     7
 10
449.0502624511719
 20
-100.489990234375
 11
460.9497375488281
 21
-100.489990234375
  0
LINE
  8
0
  6
CONTINUOUS
 62
     7
 10
448.2640686035156
 20
-92.489990234375
 11
461.7359313964844
 21
-92.489990234375
  0
LINE
  8
0
  6
CONTINUOUS
 62
     7
 10
448.2640380859375
 20
-92.48995971679687
 11
448.4106750488281
 21
-87.79833984375
  0
LINE
  8
0
  6
CONTINUOUS
 62
     7
 10
461.7359313964844
 20
-92.489990234375
 11
461.6498413085938
 21
-89.73488616943359
  0
LINE
  8
0
  6
CONTINUOUS
 62
     7
 10
449.0502624511719
 20
-100.489990234375
 11
449.0502624511719
 21
-92.489990234375
  0
LINE
  8
0
  6
CONTINUOUS
 62
     7
 10
460.9497375488281
 20
-100.489990234375
 11
460.9497375488281
 21
-92.489990234375
  0
LINE
  8
0
  6
CONTINUOUS
 62
     7
 10
487
 20
-125.5
 11
579
 21
-125.5
  0
LINE
  8
0
  6
CONTINUOUS
 62
     7
 10
487
 20
125.5
 11
579
 21
125.5
  0
LINE
  8
0
  6
CONTINUOUS
 62
     3
 10
449.0502624511719
 20
-92.48996734619141
 11
454.9999694824219
 21
-100.4899520874023
  0
LINE
  8
0
  6
CONTINUOUS
 62
     7
 10
455
 20
-100.489990234375
 11
455
 21
-92.489990234375
  0
LINE
  8
0
  6
CONTINUOUS
 62
     3
 10
455
 20
-92.48999786376953
 11
460.9497375488281
 21
-100.489990234375
  0
LINE
  8
0
  6
CONTINUOUS
 62
     3
 10
460.9497375488281
 20
-92.48998260498047
 11
455.0000305175781
 21
-100.4899749755859
  0
LINE
  8
0
  6
CONTINUOUS
 62
     3
 10
455
 20
-92.48996734619141
 11
449.0502624511719
 21
-100.4899826049805
  0
LINE
  8
0
  6
CONTINUOUS
 62
     3
 10
541.5988159179687
 20
-25.86935424804688
 11
564.8161010742187
 21
-25.86935424804688
  0
LINE
  8
0
  6
CONTINUOUS
 62
     7
 10
527.7117309570312
 20
-256.5
 11
579.1812744140625
 21
-256.5
  0
ARC
  8
0
  6
CONTINUOUS
 62
     7
 10
567
 20
-472.5
 40
5.000000000000019
 50
270.0000179860897
 51
0
  0
ARC
  8
0
  6
CONTINUOUS
 62
     7
 10
562
 20
-482.5
 40
5.000000000000019
 50
89.99998201391031
 51
179.9999640278213
  0
ARC
  8
0
  6
CONTINUOUS
 62
     7
 10
562
 20
-307.5
 40
5.000000000000038
 50
179.9999776881996
 51
269.9999733624889
  0
ARC
  8
0
  6
CONTINUOUS
 62
     7
 10
567
 20
-317.5
 40
5
 50
359.9999453584866
 51
89.99992737239695
  0
ARC
  8
0
  6
CONTINUOUS
 62
     7
 10
568
 20
-310.5
 40
2.000000000000038
 50
179.9999776882003
 51
270.0000280040029
  0
ARC
  8
0
  6
CONTINUOUS
 62
     7
 10
568
 20
-479.5
 40
1.999999999999985
 50
89.99998201391097
 51
179.9999640278219
  0
ARC
  8
0
  6
CONTINUOUS
 62
     7
 10
554
 20
-256.5
 40
20.50000000000003
 50
296.8635071615864
 51
242.0139835780352
  0
ARC
  8
0
  6
CONTINUOUS
 62
     7
 10
554
 20
-256.5
 40
12.5
 50
0
 51
256.8639076639099
  0
ARC
  8
0
  6
CONTINUOUS
 62
     7
 10
554
 20
-256.5
 40
12.49999999999998
 50
283.1360905148572
 51
0
  0
ARC
  8
0
  6
CONTINUOUS
 62
     7
 10
594.411376953125
 20
-514
 40
19.99999999999996
 50
215.0000016568316
 51
270.0000179860893
  0
ARC
  8
0
  6
CONTINUOUS
 62
     7
 10
457
 20
-524
 40
10.00000000000004
 50
270.0000179860893
 51
0
  0
ARC
  8
0
  6
CONTINUOUS
 62
     7
 10
378.1835327148437
 20
-495.4291381835937
 40
49.99999999999996
 50
309.5186524105152
 51
354.9999975841326
  0
ARC
  8
0
  6
CONTINUOUS
 62
     7
 10
547
 20
-376.5518188476563
 40
60
 50
179.999991348578
 51
215.0000116747444
  0
CIRCLE
  8
0
  6
CONTINUOUS
 62
     3
 10
455
 20
-395
 40
6.735937595367432
  0
CIRCLE
  8
0
  6
CONTINUOUS
 62
     3
 10
455
 20
-460
 40
6.735937595367432
  0
ARC
  8
0
  6
CONTINUOUS
 62
     7
 10
442
 20
-297.5
 40
10.00000000000001
 50
269.9999974955218
 51
0
  0
ARC
  8
0
  6
CONTINUOUS
 62
     7
 10
457
 20
-297.5
 40
10.00000000000001
 50
269.9999974955218
 51
0
  0
ARC
  8
0
  6
CONTINUOUS
 62
     7
 10
0
 20
-395
 40
32.50000000000001
 50
106.0766490558549
 51
73.92333865025743
  0
ARC
  8
0
  6
CONTINUOUS
 62
     7
 10
0
 20
-320
 40
13.00000000000001
 50
165.5410136304162
 51
14.45902871720947
  0
CIRCLE
  8
0
  6
CONTINUOUS
 62
     7
 10
0
 20
-395
 40
87.5
  0
ARC
  8
0
  6
CONTINUOUS
 62
     3
 10
0
 20
-395
 40
75.00000000000001
 50
22.3549017949391
 51
37.64509987471304
  0
ARC
  8
0
  6
CONTINUOUS
 62
     7
 10
64.951904296875
 20
-357.5
 40
13
 50
105.5411690551151
 51
314.4589041041523
  0
ARC
  8
0
  6
CONTINUOUS
 62
     3
 10
0
 20
-395
 40
74.99999999999999
 50
82.35491029478037
 51
97.64511520474348
  0
ARC
  8
0
  6
CONTINUOUS
 62
     7
 10
-64.951904296875
 20
-357.5
 40
12.99999999999999
 50
225.541059923669
 51
74.45884961421962
  0
ARC
  8
0
  6
CONTINUOUS
 62
     3
 10
0
 20
-395
 40
75
 50
142.3549119644325
 51
157.6451100442064
  0
ARC
  8
0
  6
CONTINUOUS
 62
     7
 10
-64.951904296875
 20
-432.5
 40
13.00000000000002
 50
285.541136725402
 51
134.458940076331
  0
ARC
  8
0
  6
CONTINUOUS
 62
     3
 10
0
 20
-395
 40
75
 50
202.3549172765502
 51
217.6451153563242
  0
ARC
  8
0
  6
CONTINUOUS
 62
     7
 10
0
 20
-470
 40
13
 50
345.5409778856087
 51
194.458982727118
  0
ARC
  8
0
  6
CONTINUOUS
 62
     3
 10
0
 20
-395
 40
75
 50
262.3549121160132
 51
277.6451101957871
  0
ARC
  8
0
  6
CONTINUOUS
 62
     7
 10
64.951904296875
 20
-432.5
 40
13.00000000000002
 50
45.54107517790922
 51
254.4588341326085
  0
ARC
  8
0
  6
CONTINUOUS
 62
     3
 10
0
 20
-395
 40
75
 50
322.3549069554762
 51
337.6451050352501
  0
CIRCLE
  8
0
  6
CONTINUOUS
 62
     7
 10
0
 20
-395
 40
55
  0
ARC
  8
0
  6
CONTINUOUS
 62
     7
 10
-62.5
 20
-562
 40
5.000000000000019
 50
89.99998201391064
 51
156.4218641449927
  0
ARC
  8
0
  6
CONTINUOUS
 62
     7
 10
62.5
 20
-562
 40
5.000000000000016
 50
23.57815623189039
 51
89.99998201391064
  0
ARC
  8
0
  6
CONTINUOUS
 62
     7
 10
-62.5
 20
-535
 40
4.999999999999996
 50
179.9999776882003
 51
270.000028004002
  0
ARC
  8
0
  6
CONTINUOUS
 62
     7
 10
62.5
 20
-535
 40
5.000000000000019
 50
270.0000179860893
 51
0
  0
ARC
  8
0
  6
CONTINUOUS
 62
     7
 10
25
 20
-535
 40
4.999999999999999
 50
179.9999776882003
 51
270.000028004002
  0
ARC
  8
0
  6
CONTINUOUS
 62
     7
 10
-25
 20
-535
 40
5.000000000000019
 50
270.0000179860893
 51
0
  0
ARC
  8
0
  6
CONTINUOUS
 62
     7
 10
53.1748046875
 20
-485
 40
9.999999999999998
 50
4.999995585678207
 51
89.99998201391064
  0
ARC
  8
0
  6
CONTINUOUS
 62
     7
 10
-53.17486572265625
 20
-485
 40
9.99999999999998
 50
89.99998201391064
 51
174.9999923478053
  0
ARC
  8
0
  6
CONTINUOUS
 62
     7
 10
0
 20
-417.5
 40
137.5
 50
0
 51
179.9999640278213
  0
ARC
  8
0
  6
CONTINUOUS
 62
     3
 10
0
 20
-395
 40
105
 50
332.0411807080648
 51
342.9587804736557
  0
ARC
  8
0
  6
CONTINUOUS
 62
     3
 10
0
 20
-395
 40
105
 50
17.04117683766195
 51
27.95878514098941
  0
ARC
  8
0
  6
CONTINUOUS
 62
     3
 10
0
 20
-395
 40
105
 50
62.04117638235374
 51
72.9587829781339
  0
ARC
  8
0
  6
CONTINUOUS
 62
     3
 10
0
 20
-395
 40
105
 50
107.0411742194982
 51
117.9587876454676
  0
ARC
  8
0
  6
CONTINUOUS
 62
     3
 10
0
 20
-395
 40
105
 50
152.0411720566428
 51
162.9587786524229
  0
ARC
  8
0
  6
CONTINUOUS
 62
     3
 10
0
 20
-395
 40
105
 50
197.0411940268204
 51
207.9587869622222
  0
ARC
  8
0
  6
CONTINUOUS
 62
     3
 10
0
 20
-395
 40
105
 50
242.0411850337757
 51
252.9587847993667
  0
ARC
  8
0
  6
CONTINUOUS
 62
     3
 10
0
 20
-395
 40
105
 50
287.0411828709202
 51
297.9587826365112
  0
ARC
  8
0
  6
CONTINUOUS
 62
     7
 10
30
 20
-302.2301330566406
 40
10
 50
179.9999776881996
 51
252.079879244693
  0
ARC
  8
0
  6
CONTINUOUS
 62
     7
 10
-30
 20
-302.2301330566406
 40
10.00000000000002
 50
287.9201052736958
 51
0
  0
ARC
  8
0
  6
CONTINUOUS
 62
     7
 10
7.7587890625
 20
-271.7000122070312
 40
1.20000004768372
 50
10.00000056286759
 51
79.05805311449633
  0
ARC
  8
0
  6
CONTINUOUS
 62
     7
 10
0
 20
-240
 40
4
 50
0
 51
179.9999640278211
  0
ARC
  8
0
  6
CONTINUOUS
 62
     7
 10
5.20001220703125
 20
-275.1000061035156
 40
1.200000047683716
 50
179.9999776881984
 51
270.000028004002
  0
ARC
  8
0
  6
CONTINUOUS
 62
     7
 10
-5.20001220703125
 20
-275.1000061035156
 40
1.200000047683734
 50
269.999963344576
 51
0
  0
ARC
  8
0
  6
CONTINUOUS
 62
     7
 10
-7.7587890625
 20
-271.7000122070312
 40
1.200000047683729
 50
100.9419109133251
 51
169.9999660262759
  0
ARC
  8
0
  6
CONTINUOUS
 62
     7
 10
0
 20
-395
 40
117.5
 50
60.31883490010829
 51
95.3717413810181
  0
ARC
  8
0
  6
CONTINUOUS
 62
     7
 10
0
 20
-395
 40
117.5
 50
103.5611586864309
 51
108.4388699803038
  0
ARC
  8
0
  6
CONTINUOUS
 62
     7
 10
698.5
 20
-9.361740012536757E-06
 40
3
 50
90.0000229950449
 51
270.0000006832452
  0
ARC
  8
0
  6
CONTINUOUS
 62
     7
 10
567
 20
77.49996948242187
 40
5
 50
0
 51
89.99998201391031
  0
ARC
  8
0
  6
CONTINUOUS
 62
     7
 10
567
 20
-77.5
 40
5.000000000000004
 50
270.0000179860897
 51
0
  0
ARC
  8
0
  6
CONTINUOUS
 62
     7
 10
562
 20
-87.5
 40
5.000000000000004
 50
89.99998201391031
 51
179.9999640278213
  0
ARC
  8
0
  6
CONTINUOUS
 62
     7
 10
562
 20
87.49996948242188
 40
5.000000000000038
 50
179.9999776881996
 51
270.0000280040023
  0
ARC
  8
0
  6
CONTINUOUS
 62
     7
 10
554
 20
0
 40
9.999999999999986
 50
23.57817672245736
 51
156.4218368242355
  0
ARC
  8
0
  6
CONTINUOUS
 62
     7
 10
537.5
 20
0
 40
4
 50
89.99998201391097
 51
270.0000006832446
  0
ARC
  8
0
  6
CONTINUOUS
 62
     7
 10
570.5
 20
0
 40
4
 50
270.0000179860891
 51
89.99998201391097
  0
ARC
  8
0
  6
CONTINUOUS
 62
     7
 10
554
 20
0
 40
10.00000000000001
 50
203.5781631757645
 51
336.4218232775426
  0
CIRCLE
  8
0
  6
CONTINUOUS
 62
     3
 10
554
 20
-25.86935424804688
 40
8.5
  0
ARC
  8
0
  6
CONTINUOUS
 62
     7
 10
420
 20
-82.5
 40
10.00000000000001
 50
166.349516782849
 51
179.9999640278213
  0
ARC
  8
0
  6
CONTINUOUS
 62
     7
 10
420
 20
82.5
 40
10.00000000000002
 50
179.9999776881996
 51
193.6504795746853
  0
ARC
  8
0
  6
CONTINUOUS
 62
     7
 10
472
 20
0
 40
20.00000000000001
 50
120.000030660061
 51
239.9999520370951
  0
ARC
  8
0
  6
CONTINUOUS
 62
     7
 10
457
 20
25.98077392578125
 40
10
 50
299.9999300284562
 51
360
  0
ARC
  8
0
  6
CONTINUOUS
 62
     7
 10
457
 20
-25.98077392578125
 40
10
 50
0
 51
60.00006997154377
  0
ARC
  8
0
  6
CONTINUOUS
 62
     7
 10
630
 20
-90.986572265625
 40
10
 50
0
 51
80.6398361338119
  0
ARC
  8
0
  6
CONTINUOUS
 62
     7
 10
630
 20
90.98663330078125
 40
9.999999999999989
 50
279.3602048473231
 51
0
  0
ARC
  8
0
  6
CONTINUOUS
 62
     7
 10
381
 20
0
 40
9
 50
270.0000179860894
 51
89.99998201391061
  0
CIRCLE
  8
0
  6
CONTINUOUS
 62
     7
 10
435
 20
112.4999389648438
 40
9.5
  0
CIRCLE
  8
0
  6
CONTINUOUS
 62
     7
 10
615
 20
112.4999389648438
 40
9.5
  0
CIRCLE
  8
0
  6
CONTINUOUS
 62
     7
 10
435
 20
-112.5000610351562
 40
9.5
  0
CIRCLE
  8
0
  6
CONTINUOUS
 62
     7
 10
615
 20
-112.5000610351562
 40
9.5
  0
ARC
  8
0
  6
CONTINUOUS
 62
     7
 10
444.5633850097656
 20
97.5
 40
9.999999999999995
 50
270.0000179860893
 51
274.9999555151597
  0
ARC
  8
0
  6
CONTINUOUS
 62
     7
 10
444.5634765625
 20
-97.5
 40
9.999999999999996
 50
85.00004448484029
 51
89.99998201391064
  0
ARC
  8
0
  6
CONTINUOUS
 62
     7
 10
457
 20
98.58807373046875
 40
9.999999999999996
 50
274.9999555151597
 51
0
  0
ARC
  8
0
  6
CONTINUOUS
 62
     7
 10
457
 20
-98.58807373046875
 40
10
 50
0
 51
85.00004448484029
  0
ARC
  8
0
  6
CONTINUOUS
 62
     7
 10
420
 20
127.5
 40
10.00000000000001
 50
90.00000250447815
 51
180.0000050089563
  0
ARC
  8
0
  6
CONTINUOUS
 62
     7
 10
420
 20
-127.5
 40
10
 50
179.999991348578
 51
270.0000006832453
  0
ARC
  8
0
  6
CONTINUOUS
 62
     7
 10
630
 20
127.5
 40
10
 50
0
 51
90.00000250447847
  0
ARC
  8
0
  6
CONTINUOUS
 62
     7
 10
630
 20
-127.5
 40
10.00000000000001
 50
269.9999974955215
 51
0
  0
ARC
  8
0
  6
CONTINUOUS
 62
     7
 10
579
 20
120.5
 40
5
 50
27.59400864308113
 51
90.00000250447782
  0
ARC
  8
0
  6
CONTINUOUS
 62
     7
 10
579
 20
-120.5
 40
5.000000000000004
 50
269.9999974955222
 51
348.3629448195065
  0
POLYLINE
  8
0
  6
CONTINUOUS
 62
     7
 66
     1
 10
0
 20
0
  0
VERTEX
  8
0
  6
CONTINUOUS
 62
     7
 10
545.9290163218972
 20
-276.8370845594924
 42
0.5547808148930864
  0
VERTEX
  8
0
  6
CONTINUOUS
 62
     7
 10
545.6778917240844
 20
-277.8396499005297
 42
0.1035259874288126
  0
VERTEX
  8
0
  6
CONTINUOUS
 62
     7
 10
546.7345578951349
 20
-278.4379468569977
 42
0.03106269783781233
  0
VERTEX
  8
0
  6
CONTINUOUS
 62
     7
 10
547.9097918748939
 20
-278.7785434263341
 42
0.01736674917251858
  0
VERTEX
  8
0
  6
CONTINUOUS
 62
     7
 10
549.1119999626684
 20
-279.008628555365
 42
0.01227980095115832
  0
VERTEX
  8
0
  6
CONTINUOUS
 62
     7
 10
550.3258244961263
 20
-279.1683597184614
 42
0.009889641351538506
  0
VERTEX
  8
0
  6
CONTINUOUS
 62
     7
 10
551.5465436705965
 20
-279.2747259114543
 42
0.008687742238147162
  0
VERTEX
  8
0
  6
CONTINUOUS
 62
     7
 10
552.7705216762896
 20
-279.3359435481157
 42
0.008173216972173311
  0
VERTEX
  8
0
  6
CONTINUOUS
 62
     7
 10
553.9959165459582
 20
-279.3560331047491
 42
0.008170671523644861
  0
VERTEX
  8
0
  6
CONTINUOUS
 62
     7
 10
555.2211802114424
 20
-279.3362152309659
 42
0.008682777824050613
  0
VERTEX
  8
0
  6
CONTINUOUS
 62
     7
 10
556.4452446128254
 20
-279.2752812435907
 42
0.009879385686121555
  0
VERTEX
  8
0
  6
CONTINUOUS
 62
     7
 10
557.6661009345186
 20
-279.1692282734028
 42
0.01227285286891715
  0
VERTEX
  8
0
  6
CONTINUOUS
 62
     7
 10
558.8813218986116
 20
-279.0096820240739
 42
0.01736352973623255
  0
VERTEX
  8
0
  6
CONTINUOUS
 62
     7
 10
560.0858307466358
 20
-278.7795522162035
 42
0.03102307456130278
  0
VERTEX
  8
0
  6
CONTINUOUS
 62
     7
 10
561.2624891497536
 20
-278.4390364018362
 42
0.1034617645669649
  0
VERTEX
  8
0
  6
CONTINUOUS
 62
     7
 10
562.321545605163
 20
-277.8402457120848
 42
0.5548918037692531
  0
VERTEX
  8
0
  6
CONTINUOUS
 62
     7
 10
562.0728904212751
 20
-276.8383728993795
 42
0
  0
SEQEND
  8
0
  0
POLYLINE
  8
0
  6
CONTINUOUS
 62
     7
 66
     1
 10
0
 20
0
  0
VERTEX
  8
0
  6
CONTINUOUS
 62
     7
 10
545.6784973144531
 20
-283.2411956787109
 42
0.248051887485749
  0
VERTEX
  8
0
  6
CONTINUOUS
 62
     7
 10
546.4022363455283
 20
-284.0047580338057
 42
0.04463951872444975
  0
VERTEX
  8
0
  6
CONTINUOUS
 62
     7
 10
547.4331254015448
 20
-284.3909584293473
 42
0.02127746466488605
  0
VERTEX
  8
0
  6
CONTINUOUS
 62
     7
 10
548.5056013500655
 20
-284.6470895545083
 42
0.01386128335787472
  0
VERTEX
  8
0
  6
CONTINUOUS
 62
     7
 10
549.5936474094425
 20
-284.8291714429294
 42
0.01053522299478429
  0
VERTEX
  8
0
  6
CONTINUOUS
 62
     7
 10
550.6893310770758
 20
-284.9586194027068
 42
0.008818401847032418
  0
VERTEX
  8
0
  6
CONTINUOUS
 62
     7
 10
551.7894943363867
 20
-285.0458902133858
 42
0.007913262872608984
  0
VERTEX
  8
0
  6
CONTINUOUS
 62
     7
 10
552.8920691829371
 20
-285.0964782252227
 42
0.007515659412886443
  0
VERTEX
  8
0
  6
CONTINUOUS
 62
     7
 10
553.9957112833426
 20
-285.1131436722902
 42
0.007513356106356422
  0
VERTEX
  8
0
  6
CONTINUOUS
 62
     7
 10
555.0992374687534
 20
-285.0967398845817
 42
0.007906205546236951
  0
VERTEX
  8
0
  6
CONTINUOUS
 62
     7
 10
556.2015320109019
 20
-285.0464452125851
 42
0.008816466634855816
  0
VERTEX
  8
0
  6
CONTINUOUS
 62
     7
 10
557.302644611167
 20
-284.959401039391
 42
0.0105229914474099
  0
VERTEX
  8
0
  6
CONTINUOUS
 62
     7
 10
558.3988156238304
 20
-284.8302285040612
 42
0.01384203568513583
  0
VERTEX
  8
0
  6
CONTINUOUS
 62
     7
 10
559.4878100532985
 20
-284.6483911716498
 42
0.02126313237583623
  0
VERTEX
  8
0
  6
CONTINUOUS
 62
     7
 10
560.5626300119129
 20
-284.3921841688312
 42
0.04456830606065742
  0
VERTEX
  8
0
  6
CONTINUOUS
 62
     7
 10
561.5954129478794
 20
-284.0059405861093
 42
0.2481430104984742
  0
VERTEX
  8
0
  6
CONTINUOUS
 62
     7
 10
562.3215026855469
 20
-283.2411956787109
 42
0
  0
SEQEND
  8
0
  0
TEXT
  8
0
  6
CONTINUOUS
 62
     7
 10
-83.92858362197876
 20
-12.5
 40
25
 41
0.8463386439475694
  1
ＥＲ－＿ＮＡＤ
  0
ENDSEC
  0
EOF
