  0
SECTION
  2
HEADER
  0
ENDSEC
  0
SECTION
  2
TABLES
  0
TABLE
  2
LTYPE
 70
    22
  0
LTYPE
  2
CONTINUOUS
 70
    64
  3
Solid line
 72
    65
 73
     0
 40
0.000000
  0
LTYPE
  2
DASHED
 70
    64
  3
__ __ __ __ __ __ __ __ __ __ __ __ __ __ __
 72
    65
 73
     2
 40
3.500000
 49
2.000000
 49
-1.500000
  0
LTYPE
  2
CENTER
 70
    64
  3
____ _ ____ _ ____ _ ____ _ ____ _ ____ _ ____
 72
    65
 73
     4
 40
17.500000
 49
13.000000
 49
-1.500000
 49
1.500000
 49
-1.500000
  0
LTYPE
  2
PHANTOM
 70
    64
  3
_____ _ _ _____ _ _ _____ _ _ _____ _ _ ____  
 72
    65
 73
     6
 40
15.500000
 49
8.000000
 49
-1.500000
 49
1.500000
 49
-1.500000
 49
1.500000
 49
-1.500000
  0
LTYPE
  2
DOT
 70
    64
  3
. . . . . . . . . . . . . . . . . . . . . . . .
 72
    65
 73
     2
 40
0.25
 49
0.0
 49
-0.25
  0
ENDTAB
  0
TABLE
  2
LAYER
 70
     1
  0
LAYER
  2
0
 70
     0
 62
     7
  6
CONTINUOUS
  0
ENDTAB
  0
TABLE
  2
STYLE
 70
     1
  0
STYLE
  2
STANDARD
 70
     0
 40
0.000000
 41
1.000000
 50
0.000000
 71
     0
 42
0.200000
  3
txt
  4
BIGFONT
  0
ENDTAB
  0
TABLE
  2
VIEW
 70
     0
  0
ENDTAB
  0
ENDSEC
  0
SECTION
  2
BLOCKS
  0
ENDSEC
  0
SECTION
  2
ENTITIES
  0
LINE
  8
0
  6
CONTINUOUS
 62
     7
 10
320
 20
-262.5
 11
320
 21
-357.5
  0
LINE
  8
0
  6
CONTINUOUS
 62
     7
 10
525
 20
-428
 11
525
 21
-450
  0
LINE
  8
0
  6
CONTINUOUS
 62
     7
 10
335
 20
-450
 11
525
 21
-450
  0
LINE
  8
0
  6
CONTINUOUS
 62
     7
 10
409
 20
-217.5
 11
424
 21
-217.5
  0
LINE
  8
0
  6
CONTINUOUS
 62
     7
 10
323
 20
-247.5
 11
323
 21
-257.3038330078125
  0
LINE
  8
0
  6
CONTINUOUS
 62
     7
 10
323
 20
-247.5
 11
355
 21
-247.5
  0
LINE
  8
0
  6
CONTINUOUS
 62
     7
 10
323
 20
-372.5
 11
344.8556213378906
 21
-372.5
  0
LINE
  8
0
  6
CONTINUOUS
 62
     7
 10
424
 20
-217.5
 11
424
 21
-302.0774536132813
  0
LINE
  8
0
  6
CONTINUOUS
 62
     7
 10
409
 20
-217.5
 11
409
 21
-295.3508911132812
  0
LINE
  8
0
  6
CONTINUOUS
 62
     7
 10
335
 20
-428
 11
391
 21
-428
  0
LINE
  8
0
  6
CONTINUOUS
 62
     7
 10
335
 20
-428
 11
335
 21
-450
  0
LINE
  8
0
  6
CONTINUOUS
 62
     7
 10
399
 20
-308
 11
399
 21
-420
  0
LINE
  8
0
  6
CONTINUOUS
 62
     7
 10
478.7686767578125
 20
-420.0420532226562
 11
431.0231018066406
 21
-330.2457275390625
  0
LINE
  8
0
  6
CONTINUOUS
 62
     7
 10
340.7711181640625
 20
-419.1856384277344
 11
346.5815734863281
 21
-352.7719116210937
  0
LINE
  8
0
  6
CONTINUOUS
 62
     3
 10
355
 20
-421.1844177246094
 11
355
 21
-457.1844177246094
  0
LINE
  8
0
  6
CONTINUOUS
 62
     3
 10
505
 20
-421.1844177246094
 11
505
 21
-455.85107421875
  0
LINE
  8
0
  6
CONTINUOUS
 62
     7
 10
250
 20
-284
 11
250
 21
-332.5
  0
LINE
  8
0
  6
CONTINUOUS
 62
     7
 10
250
 20
-287.5
 11
315
 21
-287.5
  0
LINE
  8
0
  6
CONTINUOUS
 62
     7
 10
250
 20
-332.5
 11
315
 21
-332.5
  0
LINE
  8
0
  6
DASHED
 62
     7
 10
347.5
 20
-428
 11
347.5
 21
-450
  0
LINE
  8
0
  6
DASHED
 62
     7
 10
362.5
 20
-428
 11
362.5
 21
-450
  0
LINE
  8
0
  6
DASHED
 62
     7
 10
497.5
 20
-428
 11
497.5
 21
-450
  0
LINE
  8
0
  6
DASHED
 62
     7
 10
512.5
 20
-428
 11
512.5
 21
-450
  0
LINE
  8
0
  6
CONTINUOUS
 62
     7
 10
320.0000305175781
 20
-357.4999694824219
 11
323.0000305175781
 21
-362.6961364746094
  0
LINE
  8
0
  6
CONTINUOUS
 62
     7
 10
320
 20
-262.5
 11
323
 21
-257.3038330078125
  0
LINE
  8
0
  6
CONTINUOUS
 62
     7
 10
355.0000305175781
 20
-247.5000610351563
 11
401.4186706542969
 21
-245.0673522949219
  0
LINE
  8
0
  6
CONTINUOUS
 62
     7
 10
300
 20
-284
 11
300
 21
-287.5
  0
LINE
  8
0
  6
CONTINUOUS
 62
     7
 10
250
 20
-284
 11
300
 21
-284
  0
LINE
  8
0
  6
CONTINUOUS
 62
     7
 10
315
 20
-282.5
 11
315
 21
-337.5
  0
LINE
  8
0
  6
CONTINUOUS
 62
     7
 10
315
 20
-282.5
 11
320
 21
-282.5
  0
LINE
  8
0
  6
CONTINUOUS
 62
     7
 10
315
 20
-337.5
 11
320
 21
-337.5
  0
LINE
  8
0
  6
CONTINUOUS
 62
     7
 10
323
 20
-362.6961364746094
 11
323
 21
-372.5
  0
LINE
  8
0
  6
CONTINUOUS
 62
     3
 10
240.7545776367188
 20
-310
 11
645.494384765625
 21
-310
  0
LINE
  8
0
  6
CONTINUOUS
 62
     7
 10
474
 20
-216.9144134521484
 11
474
 21
-402.5
  0
LINE
  8
0
  6
CONTINUOUS
 62
     7
 10
524
 20
-236.4999847412109
 11
524
 21
-383.5
  0
LINE
  8
0
  6
CONTINUOUS
 62
     7
 10
484
 20
-222.6873321533203
 11
484
 21
-257.8764038085937
  0
LINE
  8
0
  6
CONTINUOUS
 62
     7
 10
514
 20
-237.4999847412109
 11
514
 21
-382.5
  0
LINE
  8
0
  6
CONTINUOUS
 62
     7
 10
514
 20
-382.5
 11
524
 21
-382.5
  0
LINE
  8
0
  6
CONTINUOUS
 62
     7
 10
514
 20
-237.5
 11
524
 21
-237.5
  0
LINE
  8
0
  6
CONTINUOUS
 62
     7
 10
474
 20
-402.5
 11
492
 21
-402.5
  0
LINE
  8
0
  6
CONTINUOUS
 62
     7
 10
484
 20
-313
 11
514
 21
-313
  0
LINE
  8
0
  6
CONTINUOUS
 62
     7
 10
484
 20
-307
 11
514
 21
-307
  0
LINE
  8
0
  6
CONTINUOUS
 62
     7
 10
492
 20
-257.8764038085937
 11
492
 21
-287.0842895507813
  0
LINE
  8
0
  6
CONTINUOUS
 62
     7
 10
484.0000305175781
 20
-232.7672576904297
 11
514.0000610351562
 21
-250.1009979248047
  0
LINE
  8
0
  6
CONTINUOUS
 62
     7
 10
484
 20
-275.1968994140625
 11
484
 21
-344.8031005859375
  0
LINE
  8
0
  6
CONTINUOUS
 62
     7
 10
492
 20
-217.4999847412109
 11
492
 21
-237.3896026611328
  0
LINE
  8
0
  6
CONTINUOUS
 62
     7
 10
484
 20
-402.5
 11
484
 21
-362.1235961914062
  0
LINE
  8
0
  6
CONTINUOUS
 62
     7
 10
492
 20
-402.5
 11
492
 21
-382.6103820800781
  0
LINE
  8
0
  6
CONTINUOUS
 62
     7
 10
483.9999694824219
 20
-387.2327270507813
 11
514
 21
-369.8990173339844
  0
LINE
  8
0
  6
CONTINUOUS
 62
     7
 10
492
 20
-267.2402954101562
 11
514
 21
-267.2402954101562
  0
LINE
  8
0
  6
CONTINUOUS
 62
     7
 10
492
 20
-352.7596435546875
 11
514
 21
-352.7596435546875
  0
LINE
  8
0
  6
CONTINUOUS
 62
     7
 10
474.8667602539063
 20
-211.9740600585937
 11
474
 21
-216.9144134521484
  0
LINE
  8
0
  6
CONTINUOUS
 62
     7
 10
482
 20
-210.0420074462891
 11
487.5560302734375
 21
-211.2358551025391
  0
LINE
  8
0
  6
CONTINUOUS
 62
     7
 10
482
 20
-210.0420074462891
 11
476.44384765625
 21
-211.2358703613281
  0
LINE
  8
0
  6
CONTINUOUS
 62
     7
 10
489.1332397460938
 20
-211.9740753173828
 11
489.9963073730469
 21
-216.8933715820312
  0
LINE
  8
0
  6
CONTINUOUS
 62
     7
 10
474
 20
-217.5
 11
492
 21
-217.5
  0
LINE
  8
0
  6
CONTINUOUS
 62
     7
 10
484
 20
-257.8764038085937
 11
492
 21
-257.8764038085937
  0
LINE
  8
0
  6
CONTINUOUS
 62
     7
 10
484
 20
-275.1968994140625
 11
492
 21
-275.1968994140625
  0
LINE
  8
0
  6
CONTINUOUS
 62
     7
 10
484
 20
-344.8031005859375
 11
492
 21
-344.8031005859375
  0
LINE
  8
0
  6
CONTINUOUS
 62
     7
 10
492
 20
-362.1235961914062
 11
492
 21
-332.9157104492188
  0
LINE
  8
0
  6
CONTINUOUS
 62
     7
 10
484
 20
-362.1235961914062
 11
492
 21
-362.1235961914062
  0
LINE
  8
0
  6
CONTINUOUS
 62
     7
 10
489.9962768554688
 20
-216.8933563232422
 11
489.9962768554688
 21
-217.4999847412109
  0
LINE
  8
0
  6
CONTINUOUS
 62
     7
 10
465.2720947265625
 20
-394.6587219238281
 11
470
 21
-394.6587219238281
  0
LINE
  8
0
  6
CONTINUOUS
 62
     7
 10
428
 20
-215
 11
470
 21
-215
  0
LINE
  8
0
  6
CONTINUOUS
 62
     7
 10
428.0000915527344
 20
-215.0001068115234
 11
424.0001220703125
 21
-219.0001068115234
  0
LINE
  8
0
  6
CONTINUOUS
 62
     7
 10
470.503173828125
 20
-404.4969177246094
 11
474.0000610351563
 21
-401.0000305175781
  0
LINE
  8
0
  6
CONTINUOUS
 62
     7
 10
473.9999694824219
 20
-218.9999847412109
 11
469.9999389648437
 21
-214.9999847412109
  0
LINE
  8
0
  6
CONTINUOUS
 62
     7
 10
467.7193298339844
 20
-399.26123046875
 11
470
 21
-399.26123046875
  0
LINE
  8
0
  6
CONTINUOUS
 62
     7
 10
428
 20
-272.3461303710938
 11
470
 21
-272.3461303710938
  0
LINE
  8
0
  6
CONTINUOUS
 62
     7
 10
428
 20
-283.7876892089844
 11
470
 21
-283.7876892089844
  0
LINE
  8
0
  6
CONTINUOUS
 62
     7
 10
428
 20
-293.5312194824219
 11
470
 21
-293.5312194824219
  0
LINE
  8
0
  6
CONTINUOUS
 62
     7
 10
428
 20
-305.0005187988281
 11
470
 21
-305.0005187988281
  0
LINE
  8
0
  6
CONTINUOUS
 62
     7
 10
428
 20
-315.0001220703125
 11
470
 21
-315.0001220703125
  0
LINE
  8
0
  6
CONTINUOUS
 62
     7
 10
429.0152282714844
 20
-326.4694519042969
 11
470
 21
-326.4694519042969
  0
LINE
  8
0
  6
CONTINUOUS
 62
     7
 10
434.1956787109375
 20
-336.2124633789063
 11
470
 21
-336.2124633789063
  0
LINE
  8
0
  6
CONTINUOUS
 62
     7
 10
440.2791137695312
 20
-347.6537170410156
 11
470
 21
-347.6537170410156
  0
LINE
  8
0
  6
CONTINUOUS
 62
     7
 10
450.4097595214844
 20
-366.7067260742188
 11
470
 21
-366.7067260742188
  0
LINE
  8
0
  6
CONTINUOUS
 62
     7
 10
455.3360900878906
 20
-375.9718017578125
 11
470
 21
-375.9718017578125
  0
LINE
  8
0
  6
CONTINUOUS
 62
     7
 10
458.9631042480469
 20
-382.7931823730469
 11
470
 21
-382.7931823730469
  0
LINE
  8
0
  6
CONTINUOUS
 62
     7
 10
462.6134338378906
 20
-389.6584777832031
 11
470
 21
-389.6584777832031
  0
LINE
  8
0
  6
CONTINUOUS
 62
     7
 10
524
 20
-236.5
 11
546.5
 21
-236.5
  0
LINE
  8
0
  6
CONTINUOUS
 62
     7
 10
546.5
 20
-236.4999847412109
 11
546.5
 21
-383.5
  0
LINE
  8
0
  6
CONTINUOUS
 62
     7
 10
524
 20
-383.5
 11
546.5
 21
-383.5
  0
LINE
  8
0
  6
CONTINUOUS
 62
     7
 10
599.5
 20
-329.9999694824219
 11
599.5
 21
-290
  0
LINE
  8
0
  6
CONTINUOUS
 62
     7
 10
556.5
 20
-382.4999694824219
 11
546.5
 21
-382.4999694824219
  0
LINE
  8
0
  6
CONTINUOUS
 62
     7
 10
561.5
 20
-361.9999694824219
 11
556.5
 21
-361.9999694824219
  0
LINE
  8
0
  6
CONTINUOUS
 62
     7
 10
556.5
 20
-382.5
 11
556.5
 21
-237.4999847412109
  0
LINE
  8
0
  6
CONTINUOUS
 62
     7
 10
592.5
 20
-338.5
 11
592.5
 21
-281.5
  0
LINE
  8
0
  6
CONTINUOUS
 62
     7
 10
599.5
 20
-330.0000305175781
 11
592.5000610351563
 21
-334.0414733886719
  0
LINE
  8
0
  6
CONTINUOUS
 62
     7
 10
592.5
 20
-338.4999694824219
 11
580.3580322265625
 21
-338.4999694824219
  0
LINE
  8
0
  6
CONTINUOUS
 62
     7
 10
599.5
 20
-290
 11
592.5000610351563
 21
-285.9585571289063
  0
LINE
  8
0
  6
CONTINUOUS
 62
     7
 10
561.5
 20
-258
 11
561.5
 21
-362
  0
LINE
  8
0
  6
CONTINUOUS
 62
     7
 10
561.5
 20
-257.9999694824219
 11
556.5
 21
-257.9999694824219
  0
LINE
  8
0
  6
CONTINUOUS
 62
     7
 10
556.5
 20
-237.4999847412109
 11
546.5
 21
-237.4999847412109
  0
LINE
  8
0
  6
CONTINUOUS
 62
     7
 10
633.5
 20
-298.0000305175781
 11
608.5
 21
-298.0000305175781
  0
LINE
  8
0
  6
CONTINUOUS
 62
     7
 10
633.5
 20
-297.9999694824219
 11
633.5
 21
-319.4999694824219
  0
LINE
  8
0
  6
CONTINUOUS
 62
     7
 10
633.5
 20
-319.5000305175781
 11
603.5
 21
-319.5000305175781
  0
LINE
  8
0
  6
CONTINUOUS
 62
     7
 10
633.5
 20
-300.5000305175781
 11
603.5
 21
-300.5000305175781
  0
LINE
  8
0
  6
CONTINUOUS
 62
     7
 10
603.5
 20
-322.5
 11
603.5
 21
-297.5
  0
LINE
  8
0
  6
CONTINUOUS
 62
     7
 10
603.5
 20
-297.4999694824219
 11
599.5
 21
-297.4999694824219
  0
LINE
  8
0
  6
CONTINUOUS
 62
     7
 10
603.5
 20
-322.4999694824219
 11
599.5
 21
-322.4999694824219
  0
LINE
  8
0
  6
CONTINUOUS
 62
     7
 10
608.5
 20
-297.9999694824219
 11
608.5
 21
-300.4999694824219
  0
LINE
  8
0
  6
CONTINUOUS
 62
     7
 10
592.5
 20
-281.4999694824219
 11
580.3580322265625
 21
-281.4999694824219
  0
LINE
  8
0
  6
CONTINUOUS
 62
     7
 10
581
 20
-315.9176025390625
 11
561.5000610351563
 21
-320.9687194824219
  0
LINE
  8
0
  6
CONTINUOUS
 62
     7
 10
580.9999389648438
 20
-329.064697265625
 11
561.5
 21
-342.8646850585937
  0
LINE
  8
0
  6
CONTINUOUS
 62
     7
 10
561.5
 20
-356.7305297851563
 11
581
 21
-337.8794250488281
  0
LINE
  8
0
  6
CONTINUOUS
 62
     7
 10
581
 20
-301.1845397949219
 11
561.5
 21
-296.1334228515625
  0
LINE
  8
0
  6
CONTINUOUS
 62
     7
 10
561.5
 20
-275.0138854980469
 11
581
 21
-288.8138427734375
  0
LINE
  8
0
  6
CONTINUOUS
 62
     7
 10
561.5
 20
-263.2694702148438
 11
580.9999389648438
 21
-282.1205749511719
  0
LINE
  8
0
  6
CONTINUOUS
 62
     7
 10
492.012939453125
 20
-428
 11
525
 21
-428
  0
LINE
  8
0
  6
CONTINUOUS
 62
     3
 10
-136.5771942138672
 20
-310
 11
123.1213226318359
 21
-310
  0
LINE
  8
0
  6
CONTINUOUS
 62
     3
 10
0
 20
-202.5
 11
0
 21
-454.9201049804687
  0
LINE
  8
0
  6
CONTINUOUS
 62
     7
 10
-9.980781555175781
 20
-211.5640563964844
 11
-8.53128719329834
 21
-215.5465087890625
  0
LINE
  8
0
  6
CONTINUOUS
 62
     7
 10
-14.35750770568848
 20
-210.4343109130859
 11
-10.78705406188965
 21
-210.9149627685547
  0
LINE
  8
0
  6
CONTINUOUS
 62
     7
 10
-18.54306983947754
 20
-186.6967163085938
 11
-13.65487575531006
 21
-214.4190521240234
  0
LINE
  8
0
  6
CONTINUOUS
 62
     7
 10
-24.2882080078125
 20
-214.0868072509766
 11
-24.2882080078125
 21
-218.1572875976563
  0
LINE
  8
0
  6
CONTINUOUS
 62
     7
 10
-20.5617847442627
 20
-211.5283355712891
 11
-23.75251770019531
 21
-213.201171875
  0
LINE
  8
0
  6
CONTINUOUS
 62
     7
 10
-24.74735641479492
 20
-187.7906799316406
 11
-19.85916137695313
 21
-215.5130004882812
  0
LINE
  8
0
  6
CONTINUOUS
 62
     7
 10
-11.00009441375732
 20
-215.6389770507812
 11
-11.71275997161865
 21
-218.1253509521484
  0
LINE
  8
0
  6
CONTINUOUS
 62
     7
 10
-22.95574569702148
 20
-217.8154296875
 11
-21.94128227233887
 21
-219.7104797363281
  0
LINE
  8
0
  6
CONTINUOUS
 62
     7
 10
-32.5186882019043
 20
-220.7388153076172
 11
-32.35234832763672
 21
-222.3652191162109
  0
LINE
  8
0
  6
CONTINUOUS
 62
     7
 10
-43.10440826416016
 20
-225.3421173095703
 11
-42.49462509155273
 21
-226.0396118164062
  0
LINE
  8
0
  6
CONTINUOUS
 62
     3
 10
79.10073852539063
 20
-264.3310241699219
 11
59.77056884765625
 21
-275.4913024902344
  0
LINE
  8
0
  6
CONTINUOUS
 62
     7
 10
-110
 20
-450
 11
-55
 21
-450
  0
LINE
  8
0
  6
CONTINUOUS
 62
     7
 10
-110
 20
-327.5
 11
-110
 21
-450
  0
LINE
  8
0
  6
CONTINUOUS
 62
     7
 10
110
 20
-327.5
 11
110
 21
-450
  0
LINE
  8
0
  6
CONTINUOUS
 62
     7
 10
-110
 20
-428
 11
-55
 21
-428
  0
LINE
  8
0
  6
CONTINUOUS
 62
     7
 10
55
 20
-428
 11
55
 21
-450
  0
LINE
  8
0
  6
CONTINUOUS
 62
     7
 10
-55
 20
-428
 11
-55
 21
-450
  0
LINE
  8
0
  6
CONTINUOUS
 62
     7
 10
-52
 20
-447
 11
52
 21
-447
  0
LINE
  8
0
  6
CONTINUOUS
 62
     7
 10
-50
 20
-437
 11
50
 21
-437
  0
LINE
  8
0
  6
CONTINUOUS
 62
     7
 10
55
 20
-428
 11
110
 21
-428
  0
LINE
  8
0
  6
CONTINUOUS
 62
     7
 10
55
 20
-450
 11
110
 21
-450
  0
LINE
  8
0
  6
CONTINUOUS
 62
     7
 10
100
 20
-325
 11
100
 21
-423
  0
LINE
  8
0
  6
CONTINUOUS
 62
     7
 10
-100
 20
-325
 11
-100
 21
-423
  0
LINE
  8
0
  6
CONTINUOUS
 62
     7
 10
65.812255859375
 20
-320
 11
95
 21
-320
  0
LINE
  8
0
  6
CONTINUOUS
 62
     7
 10
65.812255859375
 20
-300
 11
102.5609741210937
 21
-300
  0
LINE
  8
0
  6
CONTINUOUS
 62
     7
 10
-65.812255859375
 20
-320
 11
-95
 21
-320
  0
LINE
  8
0
  6
CONTINUOUS
 62
     7
 10
-65.812255859375
 20
-300
 11
-102.5609741210937
 21
-300
  0
LINE
  8
0
  6
CONTINUOUS
 62
     7
 10
54.99991226196289
 20
-428.0000610351563
 11
42.60007476806641
 21
-369.6633911132812
  0
LINE
  8
0
  6
CONTINUOUS
 62
     7
 10
65.92110443115234
 20
-421.663330078125
 11
50.84787750244141
 21
-350.7493591308594
  0
LINE
  8
0
  6
CONTINUOUS
 62
     7
 10
-55.00004959106445
 20
-427.9999694824219
 11
-42.60021209716797
 21
-369.6632995605469
  0
LINE
  8
0
  6
CONTINUOUS
 62
     7
 10
-65.92120361328125
 20
-421.6632995605469
 11
-50.84796142578125
 21
-350.749267578125
  0
LINE
  8
0
  6
CONTINUOUS
 62
     7
 10
7
 20
-284
 11
7
 21
-293
  0
LINE
  8
0
  6
CONTINUOUS
 62
     7
 10
-7
 20
-284
 11
-7
 21
-293
  0
LINE
  8
0
  6
CONTINUOUS
 62
     7
 10
-7
 20
-293
 11
7
 21
-293
  0
LINE
  8
0
  6
CONTINUOUS
 62
     3
 10
-79.10087585449219
 20
-355.6687316894531
 11
-59.77070617675781
 21
-344.5084533691406
  0
LINE
  8
0
  6
CONTINUOUS
 62
     3
 10
79.10079956054688
 20
-355.6688842773437
 11
59.77062606811523
 21
-344.5086059570312
  0
LINE
  8
0
  6
CONTINUOUS
 62
     3
 10
-79.10079956054688
 20
-264.3311462402344
 11
-59.77063369750977
 21
-275.4914245605469
  0
LINE
  8
0
  6
CONTINUOUS
 62
     3
 10
90
 20
-421.85107421875
 11
90
 21
-459.1844177246094
  0
LINE
  8
0
  6
CONTINUOUS
 62
     3
 10
-90
 20
-421.85107421875
 11
-90
 21
-459.1844177246094
  0
LINE
  8
0
  6
DASHED
 62
     7
 10
-97.5
 20
-428
 11
-97.5
 21
-450
  0
LINE
  8
0
  6
DASHED
 62
     7
 10
-82.5
 20
-428
 11
-82.5
 21
-450
  0
LINE
  8
0
  6
DASHED
 62
     7
 10
82.5
 20
-428
 11
82.5
 21
-450
  0
LINE
  8
0
  6
DASHED
 62
     7
 10
97.5
 20
-428
 11
97.5
 21
-450
  0
LINE
  8
0
  6
CONTINUOUS
 62
     7
 10
-7
 20
-284
 11
7
 21
-284
  0
LINE
  8
0
  6
CONTINUOUS
 62
     7
 10
355.0000305175781
 20
62.49997329711914
 11
401.418701171875
 21
64.93267059326172
  0
LINE
  8
0
  6
CONTINUOUS
 62
     7
 10
250
 20
22.5
 11
250
 21
-22.5
  0
LINE
  8
0
  6
CONTINUOUS
 62
     7
 10
250
 20
22.5
 11
315
 21
22.5
  0
LINE
  8
0
  6
CONTINUOUS
 62
     7
 10
250
 20
-22.5
 11
315
 21
-22.5
  0
LINE
  8
0
  6
CONTINUOUS
 62
     7
 10
320
 20
47.50000381469727
 11
320
 21
-47.49999618530273
  0
LINE
  8
0
  6
CONTINUOUS
 62
     7
 10
323
 20
62.50000381469727
 11
323
 21
52.69614028930664
  0
LINE
  8
0
  6
CONTINUOUS
 62
     7
 10
323
 20
62.5
 11
355
 21
62.5
  0
LINE
  8
0
  6
CONTINUOUS
 62
     7
 10
323
 20
-62.5
 11
355
 21
-62.5
  0
LINE
  8
0
  6
CONTINUOUS
 62
     7
 10
424
 20
100.0000076293945
 11
424
 21
-99.99999237060547
  0
LINE
  8
0
  6
CONTINUOUS
 62
     7
 10
409
 20
110.0000076293945
 11
409
 21
-109.9999923706055
  0
LINE
  8
0
  6
CONTINUOUS
 62
     7
 10
335
 20
102
 11
335
 21
62.50000381469727
  0
LINE
  8
0
  6
CONTINUOUS
 62
     7
 10
343
 20
-110
 11
517
 21
-110
  0
LINE
  8
0
  6
CONTINUOUS
 62
     7
 10
343
 20
110
 11
517
 21
110
  0
LINE
  8
0
  6
CONTINUOUS
 62
     7
 10
525
 20
-75.98589324951172
 11
525
 21
-101.9999923706055
  0
LINE
  8
0
  6
CONTINUOUS
 62
     7
 10
474
 20
14.44730472564697
 11
474
 21
-92.49999237060547
  0
LINE
  8
0
  6
CONTINUOUS
 62
     7
 10
335
 20
-62.49999618530273
 11
335
 21
-102
  0
LINE
  8
0
  6
CONTINUOUS
 62
     7
 10
525
 20
75.98590850830078
 11
525
 21
102.0000076293945
  0
LINE
  8
0
  6
CONTINUOUS
 62
     7
 10
424
 20
-100
 11
480.0000305175781
 21
-100
  0
LINE
  8
0
  6
CONTINUOUS
 62
     7
 10
399
 20
-64.80590057373047
 11
399
 21
-109.9999923706055
  0
LINE
  8
0
  6
CONTINUOUS
 62
     7
 10
399
 20
64.80591583251953
 11
399
 21
110.0000076293945
  0
LINE
  8
0
  6
CONTINUOUS
 62
     7
 10
424
 20
100
 11
480.0000305175781
 21
100
  0
LINE
  8
0
  6
CONTINUOUS
 62
     7
 10
250
 20
7
 11
303
 21
7
  0
LINE
  8
0
  6
CONTINUOUS
 62
     7
 10
250
 20
-7
 11
303
 21
-7
  0
LINE
  8
0
  6
CONTINUOUS
 62
     3
 10
490.9381103515625
 20
-90.00003051757813
 11
519.9609375
 21
-90.00003051757813
  0
LINE
  8
0
  6
CONTINUOUS
 62
     3
 10
505
 20
-77.39409637451172
 11
505
 21
-103.5146408081055
  0
LINE
  8
0
  6
CONTINUOUS
 62
     3
 10
355
 20
-77.39410400390625
 11
355
 21
-105.4494934082031
  0
LINE
  8
0
  6
CONTINUOUS
 62
     3
 10
340.9381103515625
 20
-90.00003051757813
 11
369.9609375
 21
-90.00003051757813
  0
LINE
  8
0
  6
CONTINUOUS
 62
     3
 10
340.9381103515625
 20
90.00006103515625
 11
369.9609375
 21
90.00006103515625
  0
LINE
  8
0
  6
CONTINUOUS
 62
     3
 10
355
 20
77.39410400390625
 11
355
 21
105.4495239257812
  0
LINE
  8
0
  6
CONTINUOUS
 62
     3
 10
490.9381103515625
 20
90.00006103515625
 11
519.9609375
 21
90.00006103515625
  0
LINE
  8
0
  6
CONTINUOUS
 62
     3
 10
505
 20
77.39411163330078
 11
505
 21
103.5146560668945
  0
LINE
  8
0
  6
CONTINUOUS
 62
     7
 10
320
 20
-47.5
 11
323.0000305175781
 21
-52.6961784362793
  0
LINE
  8
0
  6
CONTINUOUS
 62
     7
 10
320
 20
47.5
 11
323.0000305175781
 21
52.6961784362793
  0
LINE
  8
0
  6
CONTINUOUS
 62
     7
 10
355.0000305175781
 20
-62.49998092651367
 11
401.4186706542969
 21
-64.93267822265625
  0
LINE
  8
0
  6
CONTINUOUS
 62
     7
 10
300
 20
7.000001907348633
 11
300
 21
-6.999998092651367
  0
LINE
  8
0
  6
CONTINUOUS
 62
     7
 10
315
 20
27.50000190734863
 11
315
 21
-27.49999809265137
  0
LINE
  8
0
  6
CONTINUOUS
 62
     7
 10
315
 20
27.5
 11
320
 21
27.5
  0
LINE
  8
0
  6
CONTINUOUS
 62
     7
 10
315
 20
-27.5
 11
320
 21
-27.5
  0
LINE
  8
0
  6
CONTINUOUS
 62
     7
 10
323
 20
-52.69616317749023
 11
323
 21
-62.49999618530273
  0
LINE
  8
0
  6
CONTINUOUS
 62
     3
 10
240.0597229003906
 20
0
 11
643.565185546875
 21
0
  0
LINE
  8
0
  6
CONTINUOUS
 62
     7
 10
474
 20
92.49997711181641
 11
474
 21
24.27613067626953
  0
LINE
  8
0
  6
CONTINUOUS
 62
     7
 10
524
 20
73.49997711181641
 11
524
 21
-73.49999237060547
  0
LINE
  8
0
  6
CONTINUOUS
 62
     7
 10
484
 20
92.49997711181641
 11
484
 21
84.63785552978516
  0
LINE
  8
0
  6
CONTINUOUS
 62
     7
 10
514
 20
72.49997711181641
 11
514
 21
-72.49999237060547
  0
LINE
  8
0
  6
CONTINUOUS
 62
     7
 10
514
 20
-72.5
 11
524
 21
-72.5
  0
LINE
  8
0
  6
CONTINUOUS
 62
     7
 10
514
 20
72.49996948242187
 11
524
 21
72.49996948242187
  0
LINE
  8
0
  6
CONTINUOUS
 62
     7
 10
474
 20
-92.5
 11
484
 21
-92.5
  0
LINE
  8
0
  6
CONTINUOUS
 62
     7
 10
474
 20
92.49996948242188
 11
484
 21
92.49996948242188
  0
LINE
  8
0
  6
CONTINUOUS
 62
     7
 10
492
 20
14.77674198150635
 11
492
 21
-16.06246185302734
  0
LINE
  8
0
  6
CONTINUOUS
 62
     7
 10
492
 20
84.63785552978516
 11
492
 21
43.65378570556641
  0
LINE
  8
0
  6
CONTINUOUS
 62
     7
 10
484
 20
84.63784790039063
 11
492
 21
84.63784790039063
  0
LINE
  8
0
  6
CONTINUOUS
 62
     7
 10
484
 20
74.63790893554688
 11
492
 21
74.63790893554688
  0
LINE
  8
0
  6
CONTINUOUS
 62
     7
 10
484
 20
74.63791656494141
 11
484
 21
24.72080230712891
  0
LINE
  8
0
  6
CONTINUOUS
 62
     7
 10
484
 20
46.32244491577148
 11
514
 21
36.3148193359375
  0
LINE
  8
0
  6
CONTINUOUS
 62
     7
 10
484.0000305175781
 20
-46.32243728637695
 11
514
 21
-36.3148078918457
  0
LINE
  8
0
  6
CONTINUOUS
 62
     7
 10
484
 20
-74.63787078857422
 11
484
 21
-24.68450164794922
  0
LINE
  8
0
  6
CONTINUOUS
 62
     7
 10
492
 20
-84.63784027099609
 11
492
 21
-43.65377044677734
  0
LINE
  8
0
  6
CONTINUOUS
 62
     7
 10
484
 20
-74.63787841796875
 11
492
 21
-74.63787841796875
  0
LINE
  8
0
  6
CONTINUOUS
 62
     7
 10
484
 20
-84.63784790039063
 11
492
 21
-84.63784790039063
  0
LINE
  8
0
  6
CONTINUOUS
 62
     7
 10
484
 20
-92.49999237060547
 11
484
 21
-84.63784027099609
  0
LINE
  8
0
  6
CONTINUOUS
 62
     7
 10
492
 20
-52.5
 11
514
 21
-52.5
  0
LINE
  8
0
  6
CONTINUOUS
 62
     7
 10
492
 20
52.5
 11
514
 21
52.5
  0
LINE
  8
0
  6
CONTINUOUS
 62
     7
 10
497.3359375
 20
21.80056762695313
 11
514
 21
21.80056762695313
  0
LINE
  8
0
  6
CONTINUOUS
 62
     7
 10
489.5822448730469
 20
-21.800537109375
 11
514
 21
-21.800537109375
  0
LINE
  8
0
  6
CONTINUOUS
 62
     7
 10
492.0000305175781
 20
-82.07958984375
 11
514.0000610351562
 21
-67.31461334228516
  0
LINE
  8
0
  6
CONTINUOUS
 62
     7
 10
492.0000610351562
 20
82.07958221435547
 11
514
 21
67.31462860107422
  0
LINE
  8
0
  6
CONTINUOUS
 62
     7
 10
427.9999694824219
 20
11.00006103515625
 11
470.0000915527344
 21
11.00006103515625
  0
LINE
  8
0
  6
CONTINUOUS
 62
     7
 10
428
 20
-95
 11
470
 21
-95
  0
LINE
  8
0
  6
CONTINUOUS
 62
     7
 10
428
 20
94.99996948242188
 11
470
 21
94.99996948242188
  0
LINE
  8
0
  6
CONTINUOUS
 62
     7
 10
428.0001525878906
 20
94.99988555908203
 11
424.0001525878906
 21
90.9998779296875
  0
LINE
  8
0
  6
CONTINUOUS
 62
     7
 10
424
 20
-90.99993133544922
 11
428
 21
-94.99993133544922
  0
LINE
  8
0
  6
CONTINUOUS
 62
     7
 10
470.0000610351563
 20
-95.00006866455078
 11
474.0000915527344
 21
-91.00006866455078
  0
LINE
  8
0
  6
CONTINUOUS
 62
     7
 10
473.9999694824219
 20
91.00003051757813
 11
469.9999694824219
 21
95.00003051757812
  0
LINE
  8
0
  6
CONTINUOUS
 62
     7
 10
427.9999694824219
 20
-87.21929931640625
 11
470.0000915527344
 21
-87.21929931640625
  0
LINE
  8
0
  6
CONTINUOUS
 62
     7
 10
427.9999694824219
 20
87.21896362304687
 11
470.0000915527344
 21
87.21896362304687
  0
LINE
  8
0
  6
CONTINUOUS
 62
     7
 10
427.9999694824219
 20
76.21878051757812
 11
470.0000915527344
 21
76.21878051757812
  0
LINE
  8
0
  6
CONTINUOUS
 62
     7
 10
427.9999694824219
 20
68.35665893554687
 11
470.0000915527344
 21
68.35665893554687
  0
LINE
  8
0
  6
CONTINUOUS
 62
     7
 10
427.9999694824219
 20
61.04364013671875
 11
470.0000915527344
 21
61.04364013671875
  0
LINE
  8
0
  6
CONTINUOUS
 62
     7
 10
427.9999694824219
 20
51.76449584960938
 11
470.0000915527344
 21
51.76449584960938
  0
LINE
  8
0
  6
CONTINUOUS
 62
     7
 10
427.9999694824219
 20
43.10443115234375
 11
470.0000915527344
 21
43.10443115234375
  0
LINE
  8
0
  6
CONTINUOUS
 62
     7
 10
427.9999694824219
 20
32.51864624023438
 11
470.0000915527344
 21
32.51864624023438
  0
LINE
  8
0
  6
CONTINUOUS
 62
     7
 10
427.9999694824219
 20
22.95574951171875
 11
469.1585693359375
 21
22.95574951171875
  0
LINE
  8
0
  6
CONTINUOUS
 62
     7
 10
524
 20
73.49996948242188
 11
546.5
 21
73.49996948242188
  0
LINE
  8
0
  6
CONTINUOUS
 62
     7
 10
546.5
 20
73.49997711181641
 11
546.5
 21
-73.49999237060547
  0
LINE
  8
0
  6
CONTINUOUS
 62
     7
 10
524
 20
-73.5
 11
546.5
 21
-73.5
  0
LINE
  8
0
  6
CONTINUOUS
 62
     7
 10
599.5000610351562
 20
-19.9999885559082
 11
599.5000610351562
 21
20.0000114440918
  0
LINE
  8
0
  6
CONTINUOUS
 62
     7
 10
553.5
 20
-72.49997711181641
 11
546.5
 21
-72.49997711181641
  0
LINE
  8
0
  6
CONTINUOUS
 62
     7
 10
561.5
 20
-51.99997711181641
 11
556.5
 21
-51.99997711181641
  0
LINE
  8
0
  6
CONTINUOUS
 62
     7
 10
553.5000610351563
 20
-72.49999237060547
 11
553.5000610351563
 21
-63.92558670043945
  0
LINE
  8
0
  6
CONTINUOUS
 62
     7
 10
556.5000610351562
 20
-63.92558670043945
 11
556.5000610351562
 21
63.92560958862305
  0
LINE
  8
0
  6
CONTINUOUS
 62
     7
 10
592.5000610351563
 20
-28.4999885559082
 11
592.5000610351563
 21
28.5000114440918
  0
LINE
  8
0
  6
CONTINUOUS
 62
     7
 10
599.5
 20
-20.00006484985352
 11
592.5
 21
-24.04150772094727
  0
LINE
  8
0
  6
CONTINUOUS
 62
     7
 10
592.5
 20
-28.49997901916504
 11
580.3580322265625
 21
-28.49997901916504
  0
LINE
  8
0
  6
CONTINUOUS
 62
     7
 10
599.5
 20
19.99991798400879
 11
592.5
 21
24.04136085510254
  0
LINE
  8
0
  6
CONTINUOUS
 62
     7
 10
592.5
 20
28.50002098083496
 11
580.3580322265625
 21
28.50002098083496
  0
LINE
  8
0
  6
CONTINUOUS
 62
     7
 10
561.5000610351563
 20
52.0000114440918
 11
561.5000610351563
 21
-51.9999885559082
  0
LINE
  8
0
  6
CONTINUOUS
 62
     7
 10
561.5
 20
52.00002288818359
 11
556.5
 21
52.00002288818359
  0
LINE
  8
0
  6
CONTINUOUS
 62
     7
 10
553.5
 20
72.50002288818359
 11
546.5
 21
72.50002288818359
  0
LINE
  8
0
  6
CONTINUOUS
 62
     7
 10
556.5
 20
-63.92557525634766
 11
553.5
 21
-63.92557525634766
  0
LINE
  8
0
  6
CONTINUOUS
 62
     7
 10
556.5
 20
63.92562103271484
 11
553.5
 21
63.92562103271484
  0
LINE
  8
0
  6
CONTINUOUS
 62
     7
 10
633.5000610351562
 20
-9.49998664855957
 11
633.5000610351562
 21
9.50001335144043
  0
LINE
  8
0
  6
CONTINUOUS
 62
     7
 10
633.5
 20
9.500021934509277
 11
603.5
 21
9.500021934509277
  0
LINE
  8
0
  6
CONTINUOUS
 62
     7
 10
633.5
 20
-9.499978065490723
 11
603.5
 21
-9.499978065490723
  0
LINE
  8
0
  6
CONTINUOUS
 62
     7
 10
603.5000610351563
 20
-12.49998760223389
 11
603.5000610351563
 21
12.50001239776611
  0
LINE
  8
0
  6
CONTINUOUS
 62
     7
 10
603.5
 20
12.50002193450928
 11
599.5
 21
12.50002193450928
  0
LINE
  8
0
  6
CONTINUOUS
 62
     7
 10
603.5
 20
-12.49997806549072
 11
599.5
 21
-12.49997806549072
  0
LINE
  8
0
  6
CONTINUOUS
 62
     7
 10
633.5
 20
-2.999978303909302
 11
608.5
 21
-2.999978303909302
  0
LINE
  8
0
  6
CONTINUOUS
 62
     7
 10
633.5
 20
3.000021696090698
 11
608.5
 21
3.000021696090698
  0
LINE
  8
0
  6
CONTINUOUS
 62
     7
 10
608.5000610351562
 20
-2.999987602233887
 11
608.5000610351562
 21
3.000012397766113
  0
LINE
  8
0
  6
CONTINUOUS
 62
     7
 10
581
 20
-5.917626857757568
 11
561.5000610351563
 21
-10.96874904632568
  0
LINE
  8
0
  6
CONTINUOUS
 62
     7
 10
581
 20
-19.06470680236816
 11
561.5
 21
-32.86467361450195
  0
LINE
  8
0
  6
CONTINUOUS
 62
     7
 10
561.5
 20
-46.73051071166992
 11
580.9999389648438
 21
-27.87942504882812
  0
LINE
  8
0
  6
CONTINUOUS
 62
     7
 10
581
 20
5.917574405670166
 11
561.5
 21
10.96870994567871
  0
LINE
  8
0
  6
CONTINUOUS
 62
     7
 10
581
 20
19.06470680236816
 11
561.5
 21
32.86468887329102
  0
LINE
  8
0
  6
CONTINUOUS
 62
     7
 10
561.5
 20
46.73052597045898
 11
580.9999389648438
 21
27.87944221496582
  0
LINE
  8
0
  6
CONTINUOUS
 62
     7
 10
553.5000610351563
 20
63.92560958862305
 11
553.5000610351563
 21
72.50000762939453
  0
LINE
  8
0
  6
CONTINUOUS
 62
     7
 10
482
 20
-180.9622955322266
 11
482
 21
-221.251708984375
  0
LINE
  8
0
  6
CONTINUOUS
 62
     7
 10
460.9499816894531
 20
-200.1939239501953
 11
502.3209838867188
 21
-200.1939239501953
  0
LINE
  8
0
  6
CONTINUOUS
 62
     7
 10
-22.87053680419922
 20
-180.2945404052734
 11
-15.61221790313721
 21
-221.4585266113281
  0
ARC
  8
0
  6
CONTINUOUS
 62
     7
 10
391
 20
-420
 40
7.999999999999996
 50
270.0000179860895
 51
0
  0
ARC
  8
0
  6
CONTINUOUS
 62
     7
 10
407
 20
-308
 40
8.000000000000018
 50
103.3424218782613
 51
179.9999640278211
  0
ARC
  8
0
  6
CONTINUOUS
 62
     7
 10
404
 20
-295.3508911132812
 40
5.000000000000002
 50
283.3423007560891
 51
0
  0
ARC
  8
0
  6
CONTINUOUS
 62
     7
 10
484
 20
-302.0774536132813
 40
60
 50
179.9999776881997
 51
207.9999693604517
  0
ARC
  8
0
  6
CONTINUOUS
 62
     7
 10
492.012939453125
 20
-413
 40
15.00000000000001
 50
207.9999866632958
 51
270.0000179860892
  0
ARC
  8
0
  6
CONTINUOUS
 62
     7
 10
313.1767883300781
 20
-407.4148864746094
 40
29.99999999999998
 50
316.6722476226335
 51
336.8987156231294
  0
ARC
  8
0
  6
CONTINUOUS
 62
     7
 10
341.6006469726563
 20
-352.3361206054688
 40
5.000000000000021
 50
355.0000172209265
 51
89.99998201391097
  0
ARC
  8
0
  6
CONTINUOUS
 62
     7
 10
401
 20
-237.0783081054688
 40
8
 50
273.0000009940992
 51
0
  0
ARC
  8
0
  6
CONTINUOUS
 62
     7
 10
495
 20
-287.0842895507813
 40
2.999999999999977
 50
179.9999913485775
 51
246.9539861971382
  0
ARC
  8
0
  6
CONTINUOUS
 62
     7
 10
495
 20
-332.9157104492188
 40
3.000000000000039
 50
119.3085286481107
 51
180.0000050089558
  0
ARC
  8
0
  6
CONTINUOUS
 62
     7
 10
-10.92047119140625
 20
-211.9060516357422
 40
0.9999999999999982
 50
20.00001137101668
 51
82.33288293470696
  0
ARC
  8
0
  6
CONTINUOUS
 62
     7
 10
-21.64520263671875
 20
-187.2437133789062
 40
3.150000095367433
 50
9.999998855319467
 51
189.9999620293669
  0
ARC
  8
0
  6
CONTINUOUS
 62
     7
 10
-12.6700439453125
 20
-214.2454071044922
 40
1.000000000000001
 50
189.9999793322113
 51
280.0000159876348
  0
ARC
  8
0
  6
CONTINUOUS
 62
     7
 10
-20.843994140625
 20
-215.6866912841797
 40
0.9999999999999991
 50
279.9999613461216
 51
9.999998855319541
  0
ARC
  8
0
  6
CONTINUOUS
 62
     7
 10
-23.2882080078125
 20
-214.0868072509766
 40
1.000000000000008
 50
117.6670839263945
 51
179.9999503674436
  0
ARC
  8
0
  6
CONTINUOUS
 62
     7
 10
0
 20
-310
 40
94.99999999999999
 50
56.37779867353802
 51
96.64934875583648
  0
ARC
  8
0
  6
CONTINUOUS
 62
     7
 10
0
 20
-310
 40
95
 50
103.982957018625
 51
110.016937376711
  0
ARC
  8
0
  6
CONTINUOUS
 62
     7
 10
0
 20
-310
 40
95.00000000000001
 50
116.9834366319897
 51
123.6222165807021
  0
ARC
  8
0
  6
CONTINUOUS
 62
     7
 10
-50
 20
-432
 40
5.000000000000003
 50
179.9999776881996
 51
270.000028004002
  0
ARC
  8
0
  6
CONTINUOUS
 62
     7
 10
50
 20
-432
 40
5.000000000000019
 50
270.0000179860893
 51
0
  0
ARC
  8
0
  6
CONTINUOUS
 62
     7
 10
52
 20
-450
 40
3
 50
0
 51
89.9999820139107
  0
ARC
  8
0
  6
CONTINUOUS
 62
     7
 10
-52
 20
-450
 40
2.999999999999977
 50
89.9999820139107
 51
179.9999640278208
  0
ARC
  8
0
  6
CONTINUOUS
 62
     7
 10
0
 20
-327.5
 40
110
 50
0
 51
179.9999640278213
  0
ARC
  8
0
  6
CONTINUOUS
 62
     7
 10
95
 20
-423
 40
5.000000000000019
 50
270.0000179860893
 51
0
  0
ARC
  8
0
  6
CONTINUOUS
 62
     7
 10
-95
 20
-423
 40
4.999999999999996
 50
179.9999776881996
 51
270.0000280040019
  0
ARC
  8
0
  6
CONTINUOUS
 62
     7
 10
95
 20
-325
 40
5
 50
0
 51
89.99998201391064
  0
ARC
  8
0
  6
CONTINUOUS
 62
     7
 10
102.5609741210937
 20
-305
 40
5.000000000000005
 50
12.37361338907743
 51
89.99998201391064
  0
CIRCLE
  8
0
  6
CONTINUOUS
 62
     7
 10
0
 20
-310
 40
62.5
  0
ARC
  8
0
  6
CONTINUOUS
 62
     7
 10
-95
 20
-325
 40
5.000000000000019
 50
89.99998201391064
 51
179.9999640278213
  0
ARC
  8
0
  6
CONTINUOUS
 62
     7
 10
-102.5609741210937
 20
-305
 40
5.000000000000019
 50
89.99998201391064
 51
167.6263523462914
  0
ARC
  8
0
  6
CONTINUOUS
 62
     7
 10
73.74639892578125
 20
-420
 40
7.999999999999995
 50
191.9999816645957
 51
270.0000179860893
  0
ARC
  8
0
  6
CONTINUOUS
 62
     7
 10
-73.74639892578125
 20
-420
 40
7.999999999999989
 50
269.999963344576
 51
347.9999996660695
  0
CIRCLE
  8
0
  6
CONTINUOUS
 62
     7
 10
0
 20
-310
 40
47.5
  0
ARC
  8
0
  6
CONTINUOUS
 62
     7
 10
0
 20
-310
 40
22.50000000000001
 50
108.1262044106681
 51
71.87379012563336
  0
ARC
  8
0
  6
CONTINUOUS
 62
     3
 10
0
 20
-310
 40
80.99999999999999
 50
23.68815472092556
 51
37.02404443386209
  0
ARC
  8
0
  6
CONTINUOUS
 62
     3
 10
0
 20
-310
 40
80.99999999999999
 50
83.6881768811452
 51
97.02405976389257
  0
ARC
  8
0
  6
CONTINUOUS
 62
     3
 10
0
 20
-310
 40
81
 50
203.6881702025368
 51
217.0240599154733
  0
ARC
  8
0
  6
CONTINUOUS
 62
     3
 10
0
 20
-310
 40
81
 50
263.6881650419997
 51
277.0240547549362
  0
ARC
  8
0
  6
CONTINUOUS
 62
     3
 10
0
 20
-310
 40
81.00000000000001
 50
323.6881598814626
 51
337.0240495943992
  0
ARC
  8
0
  6
CONTINUOUS
 62
     3
 10
0
 20
-310
 40
81
 50
143.688164890419
 51
157.0240546033555
  0
ARC
  8
0
  6
CONTINUOUS
 62
     7
 10
65.812255859375
 20
-295
 40
5.000000000000004
 50
192.8395894985089
 51
269.9999974955218
  0
ARC
  8
0
  6
CONTINUOUS
 62
     7
 10
65.812255859375
 20
-325
 40
5.000000000000004
 50
90.00000250447815
 51
167.1604105014911
  0
ARC
  8
0
  6
CONTINUOUS
 62
     7
 10
-65.812255859375
 20
-295
 40
5.000000000000004
 50
269.9999974955218
 51
347.1604114689504
  0
ARC
  8
0
  6
CONTINUOUS
 62
     7
 10
-65.812255859375
 20
-325
 40
5
 50
12.83958853104958
 51
90.00000250447815
  0
ARC
  8
0
  6
CONTINUOUS
 62
     7
 10
-34.7750244140625
 20
-371.3265686035156
 40
8.000000000000018
 50
60.44473577707922
 51
168.0000046750258
  0
ARC
  8
0
  6
CONTINUOUS
 62
     7
 10
34.77490234375
 20
-371.32666015625
 40
8
 50
11.99999606506229
 51
119.5551257979045
  0
ARC
  8
0
  6
CONTINUOUS
 62
     7
 10
58.673095703125
 20
-349.0860595703125
 40
8.000000000000004
 50
146.3297542122997
 51
191.9999916825083
  0
ARC
  8
0
  6
CONTINUOUS
 62
     7
 10
-58.673095703125
 20
-349.0859985351563
 40
8
 50
348.0000039349377
 51
33.67016883438652
  0
ARC
  8
0
  6
CONTINUOUS
 62
     7
 10
517
 20
-75.98589324951172
 40
8
 50
0
 51
18.10366228192875
  0
ARC
  8
0
  6
CONTINUOUS
 62
     7
 10
303
 20
1.815493305912241E-06
 40
7.000000000000001
 50
270.0000179860895
 51
89.99998201391051
  0
CIRCLE
  8
0
  6
CONTINUOUS
 62
     7
 10
505
 20
-90.00002288818359
 40
7.5
  0
CIRCLE
  8
0
  6
CONTINUOUS
 62
     7
 10
355
 20
-90.00003051757813
 40
7.5
  0
CIRCLE
  8
0
  6
CONTINUOUS
 62
     7
 10
355
 20
90.00006103515625
 40
7.5
  0
CIRCLE
  8
0
  6
CONTINUOUS
 62
     7
 10
505
 20
90.00006866455078
 40
7.5
  0
ARC
  8
0
  6
CONTINUOUS
 62
     7
 10
401
 20
72.92169952392578
 40
8
 50
273.0000009940992
 51
0
  0
ARC
  8
0
  6
CONTINUOUS
 62
     7
 10
401
 20
-72.92168426513672
 40
8
 50
0
 51
86.99999900590082
  0
ARC
  8
0
  6
CONTINUOUS
 62
     7
 10
343
 20
102
 40
7.999999999999993
 50
90.00000250447806
 51
180.0000050089563
  0
ARC
  8
0
  6
CONTINUOUS
 62
     7
 10
517
 20
102.0000076293945
 40
8
 50
0
 51
90.00000250447847
  0
ARC
  8
0
  6
CONTINUOUS
 62
     7
 10
343
 20
-102
 40
7.999999999999977
 50
179.999991348578
 51
270.0000006832454
  0
ARC
  8
0
  6
CONTINUOUS
 62
     7
 10
517
 20
-101.9999923706055
 40
7.999999999999993
 50
269.9999974955215
 51
0
  0
ARC
  8
0
  6
CONTINUOUS
 62
     7
 10
480.0000305175781
 20
97.00000762939453
 40
3.000000000000014
 50
27.4401227735333
 51
90.00000250447847
  0
ARC
  8
0
  6
CONTINUOUS
 62
     7
 10
480.0000305175781
 20
-96.99999237060547
 40
3.000000000000003
 50
269.9999974955215
 51
347.806947784274
  0
ARC
  8
0
  6
CONTINUOUS
 62
     7
 10
517
 20
75.98590850830078
 40
8.000000000000041
 50
341.8962830765579
 51
359.9999453584866
  0
ARC
  8
0
  6
CONTINUOUS
 62
     7
 10
608.5
 20
2.918530526585528E-06
 40
3
 50
90.0000229950449
 51
270.0000006832452
  0
POLYLINE
  8
0
  6
CONTINUOUS
 62
     7
 66
     1
 10
0
 20
0
 70
     1
  0
VERTEX
  8
0
  6
CONTINUOUS
 62
     7
 10
491.9999962386382
 20
-200.1939309193736
 42
0.1005697614596759
  0
VERTEX
  8
0
  6
CONTINUOUS
 62
     7
 10
491.2286125346123
 20
-196.4011235982993
 42
0.09931459426855099
  0
VERTEX
  8
0
  6
CONTINUOUS
 62
     7
 10
489.0449243018426
 20
-193.2046379913566
 42
0.09762475566247367
  0
VERTEX
  8
0
  6
CONTINUOUS
 62
     7
 10
485.8027694469532
 20
-191.0857100133986
 42
0.09645742494751229
  0
VERTEX
  8
0
  6
CONTINUOUS
 62
     7
 10
481.9999959012962
 20
-190.3458477658257
 42
0.09643683433006894
  0
VERTEX
  8
0
  6
CONTINUOUS
 62
     7
 10
478.1979848590686
 20
-191.0854015767776
 42
0.09759325526350035
  0
VERTEX
  8
0
  6
CONTINUOUS
 62
     7
 10
474.956532971722
 20
-193.2032063641325
 42
0.09935255147170073
  0
VERTEX
  8
0
  6
CONTINUOUS
 62
     7
 10
472.7715941708024
 20
-196.4006181169193
 42
0.1005839922554483
  0
VERTEX
  8
0
  6
CONTINUOUS
 62
     7
 10
471.9999962386383
 20
-200.1939316044654
 42
0.1005699380586759
  0
VERTEX
  8
0
  6
CONTINUOUS
 62
     7
 10
472.7713808401107
 20
-203.986738637108
 42
0.09931486592909686
  0
VERTEX
  8
0
  6
CONTINUOUS
 62
     7
 10
474.9550729064925
 20
-207.1832214741167
 42
0.09762481604128458
  0
VERTEX
  8
0
  6
CONTINUOUS
 62
     7
 10
478.1972318200851
 20
-209.3021431596569
 42
0.09645692972529668
  0
VERTEX
  8
0
  6
CONTINUOUS
 62
     7
 10
481.9999965759798
 20
-210.0419994992242
 42
0.09643659111140702
  0
VERTEX
  8
0
  6
CONTINUOUS
 62
     7
 10
485.802008163002
 20
-209.3024478156894
 42
0.09759332041095954
  0
VERTEX
  8
0
  6
CONTINUOUS
 62
     7
 10
489.0434619968007
 20
-207.184646039057
 42
0.09935282727085551
  0
VERTEX
  8
0
  6
CONTINUOUS
 62
     7
 10
491.2284013467433
 20
-203.9872348267001
 42
0.1005839080411469
  0
SEQEND
  8
0
  0
POLYLINE
  8
0
  6
CONTINUOUS
 62
     7
 66
     1
 10
0
 20
0
  0
VERTEX
  8
0
  6
CONTINUOUS
 62
     7
 10
489.5611859179004
 20
-214.4119796331067
 42
0.08272220882546032
  0
VERTEX
  8
0
  6
CONTINUOUS
 62
     7
 10
493.8481307789723
 20
-211.2106380356492
 42
0.08385219058911023
  0
VERTEX
  8
0
  6
CONTINUOUS
 62
     7
 10
496.8558376155237
 20
-206.7857044036088
 42
0.08471370054311858
  0
VERTEX
  8
0
  6
CONTINUOUS
 62
     7
 10
498.2338980359884
 20
-201.616347952327
 42
0.08490389661674227
  0
VERTEX
  8
0
  6
CONTINUOUS
 62
     7
 10
497.816628549068
 20
-196.2839996930771
 42
0.08436949451098298
  0
VERTEX
  8
0
  6
CONTINUOUS
 62
     7
 10
495.6548454300797
 20
-191.390757771778
 42
0.08333431343971355
  0
VERTEX
  8
0
  6
CONTINUOUS
 62
     7
 10
492.0050687696335
 20
-187.478489728716
 42
0.08226402540524221
  0
VERTEX
  8
0
  6
CONTINUOUS
 62
     7
 10
487.2827015579281
 20
-184.9614220622989
 42
0.08162583927811691
  0
VERTEX
  8
0
  6
CONTINUOUS
 62
     7
 10
481.9999956871318
 20
-184.093711535357
 42
0.08158654211923765
  0
VERTEX
  8
0
  6
CONTINUOUS
 62
     7
 10
476.7197291067887
 20
-184.9605990503636
 42
0.08224718819670268
  0
VERTEX
  8
0
  6
CONTINUOUS
 62
     7
 10
471.9978165613359
 20
-187.4762763756547
 42
0.08333893218262677
  0
VERTEX
  8
0
  6
CONTINUOUS
 62
     7
 10
468.3469750466818
 20
-191.3880087463824
 42
0.08437836655882082
  0
VERTEX
  8
0
  6
CONTINUOUS
 62
     7
 10
466.1840393801107
 20
-196.2813829057845
 42
0.08490738541809531
  0
VERTEX
  8
0
  6
CONTINUOUS
 62
     7
 10
465.7658850928038
 20
-201.613895179146
 42
0.08470977277495312
  0
VERTEX
  8
0
  6
CONTINUOUS
 62
     7
 10
467.1430346173739
 20
-206.7832295259439
 42
0.08383837544363378
  0
VERTEX
  8
0
  6
CONTINUOUS
 62
     7
 10
470.1493492430271
 20
-211.2080063575145
 42
0.08273751414276763
  0
VERTEX
  8
0
  6
CONTINUOUS
 62
     7
 10
474.4364098055395
 20
-214.4107398603041
 42
0
  0
SEQEND
  8
0
  0
POLYLINE
  8
0
  6
CONTINUOUS
 62
     7
 66
     1
 10
0
 20
0
  0
VERTEX
  8
0
  6
CONTINUOUS
 62
     7
 10
489.1332569613311
 20
-211.974348286319
 42
0.2015076984913978
  0
VERTEX
  8
0
  6
CONTINUOUS
 62
     7
 10
488.4032547953893
 20
-211.4658651975511
 42
0.03155975008883043
  0
VERTEX
  8
0
  6
CONTINUOUS
 62
     7
 10
487.5134267673773
 20
-211.2267809218999
 42
0.01542706588219189
  0
VERTEX
  8
0
  6
CONTINUOUS
 62
     7
 10
486.6057878018942
 20
-211.067416780561
 42
0.01021038556981232
  0
VERTEX
  8
0
  6
CONTINUOUS
 62
     7
 10
485.6902629982731
 20
-210.9536099237788
 42
0.007829369652149977
  0
VERTEX
  8
0
  6
CONTINUOUS
 62
     7
 10
484.7711837865224
 20
-210.8725196171611
 42
0.006588841843297397
  0
VERTEX
  8
0
  6
CONTINUOUS
 62
     7
 10
483.849949712027
 20
-210.8177735867813
 42
0.005931240783233191
  0
VERTEX
  8
0
  6
CONTINUOUS
 62
     7
 10
482.9275469592856
 20
-210.7860051851549
 42
0.005641422518619623
  0
VERTEX
  8
0
  6
CONTINUOUS
 62
     7
 10
482.0046198641214
 20
-210.7755202662687
 42
0.005639346647701662
  0
VERTEX
  8
0
  6
CONTINUOUS
 62
     7
 10
481.081801577359
 20
-210.785793924154
 42
0.005918303440675935
  0
VERTEX
  8
0
  6
CONTINUOUS
 62
     7
 10
480.1606328169396
 20
-210.8172829347589
 42
0.006584504498072807
  0
VERTEX
  8
0
  6
CONTINUOUS
 62
     7
 10
479.2386227716949
 20
-210.871805057793
 42
0.007814641857920203
  0
VERTEX
  8
0
  6
CONTINUOUS
 62
     7
 10
478.3191888728873
 20
-210.9526221348125
 42
0.0101850034751804
  0
VERTEX
  8
0
  6
CONTINUOUS
 62
     7
 10
477.4029262214339
 20
-211.0661429255402
 42
0.01540577831749853
  0
VERTEX
  8
0
  6
CONTINUOUS
 62
     7
 10
476.4926557273525
 20
-211.2254997152389
 42
0.03141754114052801
  0
VERTEX
  8
0
  6
CONTINUOUS
 62
     7
 10
475.6013755863443
 20
-211.4642364070252
 42
0.1997028563454545
  0
VERTEX
  8
0
  6
CONTINUOUS
 62
     7
 10
474.8671456641298
 20
-211.9720682465625
 42
0
  0
SEQEND
  8
0
  0
POLYLINE
  8
0
  6
CONTINUOUS
 62
     7
 66
     1
 10
0
 20
0
  0
VERTEX
  8
0
  6
CONTINUOUS
 62
     7
 10
483.9993683222684
 20
-222.6873618805127
 42
0.00196284675021031
  0
VERTEX
  8
0
  6
CONTINUOUS
 62
     7
 10
484.5166107900155
 20
-222.6705170313342
 42
0.002046129485070141
  0
VERTEX
  8
0
  6
CONTINUOUS
 62
     7
 10
485.0340469477633
 20
-222.6495144424199
 42
0.002154580265485258
  0
VERTEX
  8
0
  6
CONTINUOUS
 62
     7
 10
485.5517028648988
 20
-222.6241486922178
 42
0.002294183480895783
  0
VERTEX
  8
0
  6
CONTINUOUS
 62
     7
 10
486.0696061519358
 20
-222.5941540344895
 42
0.002473608768161556
  0
VERTEX
  8
0
  6
CONTINUOUS
 62
     7
 10
486.5877861692671
 20
-222.5591885504225
 42
0.00269281267132799
  0
VERTEX
  8
0
  6
CONTINUOUS
 62
     7
 10
487.1039250852964
 20
-222.5190067856942
 42
0.002988808170704655
  0
VERTEX
  8
0
  6
CONTINUOUS
 62
     7
 10
487.6195854657732
 20
-222.4729722557382
 42
0.003382633101999881
  0
VERTEX
  8
0
  6
CONTINUOUS
 62
     7
 10
488.1346353269045
 20
-222.4203840190348
 42
0.003921218300316699
  0
VERTEX
  8
0
  6
CONTINUOUS
 62
     7
 10
488.6488905313996
 20
-222.3602976965632
 42
0.004686256924981432
  0
VERTEX
  8
0
  6
CONTINUOUS
 62
     7
 10
489.1620813690396
 20
-222.2913988046743
 42
0.005831687234722381
  0
VERTEX
  8
0
  6
CONTINUOUS
 62
     7
 10
489.6737874463753
 20
-222.2117732845828
 42
0.007680531325358074
  0
VERTEX
  8
0
  6
CONTINUOUS
 62
     7
 10
490.1832959576643
 20
-222.11845065545
 42
0.01102369659715852
  0
VERTEX
  8
0
  6
CONTINUOUS
 62
     7
 10
490.6892401436444
 20
-222.0063653378917
 42
0.01832812394790059
  0
VERTEX
  8
0
  6
CONTINUOUS
 62
     7
 10
491.1884139169118
 20
-221.8654667314488
 42
0.04148853705557456
  0
VERTEX
  8
0
  6
CONTINUOUS
 62
     7
 10
491.6683298701849
 20
-221.6699335199293
 42
0.2504883582728087
  0
VERTEX
  8
0
  6
CONTINUOUS
 62
     7
 10
491.9998932363007
 20
-221.3048128967721
 42
0
  0
SEQEND
  8
0
  0
POLYLINE
  8
0
  6
CONTINUOUS
 62
     7
 66
     1
 10
0
 20
0
  0
VERTEX
  8
0
  6
CONTINUOUS
 62
     7
 10
483.9994024361777
 20
-24.68476087438299
 42
0.01790621729348503
  0
VERTEX
  8
0
  6
CONTINUOUS
 62
     7
 10
484.7792015146771
 20
-24.51576670314942
 42
0.01817274388874047
  0
VERTEX
  8
0
  6
CONTINUOUS
 62
     7
 10
485.5447703831414
 20
-24.29101980219653
 42
0.01851592622374919
  0
VERTEX
  8
0
  6
CONTINUOUS
 62
     7
 10
486.2918229308654
 20
-24.01076814366662
 42
0.01893468903673997
  0
VERTEX
  8
0
  6
CONTINUOUS
 62
     7
 10
487.0158561686605
 20
-23.6754016953851
 42
0.01942677472690392
  0
VERTEX
  8
0
  6
CONTINUOUS
 62
     7
 10
487.7121171629601
 20
-23.28551610791684
 42
0.01998806672689462
  0
VERTEX
  8
0
  6
CONTINUOUS
 62
     7
 10
488.3755819973167
 20
-22.84199178340534
 42
0.02061176244928802
  0
VERTEX
  8
0
  6
CONTINUOUS
 62
     7
 10
489.0009524370169
 20
-22.34608858427397
 42
0.02128743462477681
  0
VERTEX
  8
0
  6
CONTINUOUS
 62
     7
 10
489.5826774922942
 20
-21.79955479277451
 42
0.02200007903280565
  0
VERTEX
  8
0
  6
CONTINUOUS
 62
     7
 10
490.1150082223486
 20
-21.20474623344937
 42
0.022729329861988
  0
VERTEX
  8
0
  6
CONTINUOUS
 62
     7
 10
490.5920942507172
 20
-20.56474761525203
 42
0.0234491183054591
  0
VERTEX
  8
0
  6
CONTINUOUS
 62
     7
 10
491.0081286904008
 20
-19.88348337066599
 42
0.02412812042315177
  0
VERTEX
  8
0
  6
CONTINUOUS
 62
     7
 10
491.3575435721062
 20
-19.16580038792666
 42
0.02473132696369026
  0
VERTEX
  8
0
  6
CONTINUOUS
 62
     7
 10
491.6352498903405
 20
-18.41750163386089
 42
0.02522290304695282
  0
VERTEX
  8
0
  6
CONTINUOUS
 62
     7
 10
491.8369055509001
 20
-17.64530994590968
 42
0.02557015935644524
  0
VERTEX
  8
0
  6
CONTINUOUS
 62
     7
 10
491.9591830144125
 20
-16.85674731756419
 42
0.02573507531857891
  0
VERTEX
  8
0
  6
CONTINUOUS
 62
     7
 10
492.0000002562077
 20
-16.06032755435034
 42
0
  0
SEQEND
  8
0
  0
POLYLINE
  8
0
  6
CONTINUOUS
 62
     7
 66
     1
 10
0
 20
0
 70
     1
  0
VERTEX
  8
0
  6
CONTINUOUS
 62
     7
 10
481.9999993648149
 20
18.54306824979931
 42
0.01162444772987187
  0
VERTEX
  8
0
  6
CONTINUOUS
 62
     7
 10
478.5818884253111
 20
18.46457981067123
 42
0.01447191320538207
  0
VERTEX
  8
0
  6
CONTINUOUS
 62
     7
 10
475.1713780940421
 20
18.21105817133881
 42
0.02556016153305745
  0
VERTEX
  8
0
  6
CONTINUOUS
 62
     7
 10
471.7910425994594
 20
17.69889711500024
 42
0.1952857525117472
  0
VERTEX
  8
0
  6
CONTINUOUS
 62
     7
 10
468.8500116145997
 20
16.25742686934349
 42
0.1938970346386854
  0
VERTEX
  8
0
  6
CONTINUOUS
 62
     7
 10
471.7942837322167
 20
14.81963897462458
 42
0.0255315983179752
  0
VERTEX
  8
0
  6
CONTINUOUS
 62
     7
 10
475.1729272450837
 20
14.30799787755411
 42
0.01446609579013378
  0
VERTEX
  8
0
  6
CONTINUOUS
 62
     7
 10
478.5823427384934
 20
14.05461244768523
 42
0.01162307440157356
  0
VERTEX
  8
0
  6
CONTINUOUS
 62
     7
 10
481.9999995212531
 20
13.97614320097119
 42
0.01162476452189762
  0
VERTEX
  8
0
  6
CONTINUOUS
 62
     7
 10
485.4181103919371
 20
14.05463390633344
 42
0.01447217399078577
  0
VERTEX
  8
0
  6
CONTINUOUS
 62
     7
 10
488.8286202407318
 20
14.30816170713081
 42
0.02556038781702369
  0
VERTEX
  8
0
  6
CONTINUOUS
 62
     7
 10
492.2089542737552
 20
14.8203321680032
 42
0.1952839009470559
  0
VERTEX
  8
0
  6
CONTINUOUS
 62
     7
 10
495.1499872997985
 20
16.26180997194878
 42
0.1938987691653551
  0
VERTEX
  8
0
  6
CONTINUOUS
 62
     7
 10
492.2057154336994
 20
17.69959066786858
 42
0.02553136055714066
  0
VERTEX
  8
0
  6
CONTINUOUS
 62
     7
 10
488.8270704469758
 20
18.21122218138256
 42
0.01446583242551613
  0
VERTEX
  8
0
  6
CONTINUOUS
 62
     7
 10
485.4176544726348
 20
18.4646013502364
 42
0.01162275125250093
  0
SEQEND
  8
0
  0
POLYLINE
  8
0
  6
CONTINUOUS
 62
     7
 66
     1
 10
0
 20
0
  0
VERTEX
  8
0
  6
CONTINUOUS
 62
     7
 10
471.0736991381574
 20
23.73447412552338
 42
0.01843635884471955
  0
VERTEX
  8
0
  6
CONTINUOUS
 62
     7
 10
470.0927266804905
 20
23.49465231837087
 42
0.005077316835809291
  0
VERTEX
  8
0
  6
CONTINUOUS
 62
     7
 10
469.1233130642527
 20
23.21158990462279
 42
0.02696822180713239
  0
VERTEX
  8
0
  6
CONTINUOUS
 62
     7
 10
468.1726062948809
 20
22.87171998245303
 42
0.05660794758860536
  0
VERTEX
  8
0
  6
CONTINUOUS
 62
     7
 10
467.2928075906547
 20
22.38012432182637
 42
0.06337964458010605
  0
VERTEX
  8
0
  6
CONTINUOUS
 62
     7
 10
466.5650110586644
 20
21.68346133276575
 42
0.06341674619296458
  0
VERTEX
  8
0
  6
CONTINUOUS
 62
     7
 10
466.0286673589751
 20
20.82944920399725
 42
0.07212842863607118
  0
VERTEX
  8
0
  6
CONTINUOUS
 62
     7
 10
465.7430840363422
 20
19.86449866836402
 42
0.07237626422824386
  0
VERTEX
  8
0
  6
CONTINUOUS
 62
     7
 10
465.7431956005182
 20
18.85824651205653
 42
0.07211558218273223
  0
VERTEX
  8
0
  6
CONTINUOUS
 62
     7
 10
466.0289012039184
 20
17.89353694410471
 42
0.06331753143713598
  0
VERTEX
  8
0
  6
CONTINUOUS
 62
     7
 10
466.5643470297799
 20
17.04084809352326
 42
0.0633664642267692
  0
VERTEX
  8
0
  6
CONTINUOUS
 62
     7
 10
467.2919582211442
 20
16.34399370152398
 42
0.05663981982240247
  0
VERTEX
  8
0
  6
CONTINUOUS
 62
     7
 10
468.1716553872854
 20
15.85218491268855
 42
0.02700105478934968
  0
VERTEX
  8
0
  6
CONTINUOUS
 62
     7
 10
469.122555281255
 20
15.51213854612979
 42
0.00508272892737718
  0
VERTEX
  8
0
  6
CONTINUOUS
 62
     7
 10
470.0924873852463
 20
15.22890962750896
 42
0.01843876205651648
  0
VERTEX
  8
0
  6
CONTINUOUS
 62
     7
 10
471.0736994377293
 20
14.98902124466401
 42
0
  0
SEQEND
  8
0
  0
POLYLINE
  8
0
  6
CONTINUOUS
 62
     7
 66
     1
 10
0
 20
0
  0
VERTEX
  8
0
  6
CONTINUOUS
 62
     7
 10
474.2619017285147
 20
14.41034725596336
 42
0.04188730367405555
  0
VERTEX
  8
0
  6
CONTINUOUS
 62
     7
 10
474.7020340326428
 20
13.18237312244539
 42
0.04165594837385207
  0
VERTEX
  8
0
  6
CONTINUOUS
 62
     7
 10
475.3402808694518
 20
12.04445014230447
 42
0.04136510392960212
  0
VERTEX
  8
0
  6
CONTINUOUS
 62
     7
 10
476.1577377864339
 20
11.02759683402343
 42
0.04106114708353845
  0
VERTEX
  8
0
  6
CONTINUOUS
 62
     7
 10
477.1310478574684
 20
10.1584611703593
 42
0.0407735773251675
  0
VERTEX
  8
0
  6
CONTINUOUS
 62
     7
 10
478.233120323302
 20
9.459281742982894
 42
0.04052878174776112
  0
VERTEX
  8
0
  6
CONTINUOUS
 62
     7
 10
479.43397939524
 20
8.947533854843361
 42
0.04034729443313755
  0
VERTEX
  8
0
  6
CONTINUOUS
 62
     7
 10
480.7015541602622
 20
8.635722705678294
 42
0.04023511476118338
  0
VERTEX
  8
0
  6
CONTINUOUS
 62
     7
 10
482.0021775207351
 20
8.531258239067029
 42
0.04022823417034793
  0
VERTEX
  8
0
  6
CONTINUOUS
 62
     7
 10
483.3025193699167
 20
8.636383819402123
 42
0.04031551583044569
  0
VERTEX
  8
0
  6
CONTINUOUS
 62
     7
 10
484.5689483151498
 20
8.948511254283888
 42
0.04051141576208907
  0
VERTEX
  8
0
  6
CONTINUOUS
 62
     7
 10
485.7691029444256
 20
9.460451384540981
 42
0.04075983235442612
  0
VERTEX
  8
0
  6
CONTINUOUS
 62
     7
 10
486.8705928076508
 20
10.15970170575319
 42
0.04106008099381651
  0
VERTEX
  8
0
  6
CONTINUOUS
 62
     7
 10
487.8436443808899
 20
11.02905349434645
 42
0.0413777939820115
  0
VERTEX
  8
0
  6
CONTINUOUS
 62
     7
 10
488.6610576603013
 20
12.04643297239449
 42
0.04167556173279365
  0
VERTEX
  8
0
  6
CONTINUOUS
 62
     7
 10
489.2992047819901
 20
13.18509382199667
 42
0.04191649456142972
  0
VERTEX
  8
0
  6
CONTINUOUS
 62
     7
 10
489.7390957687287
 20
14.41409939430673
 42
0
  0
SEQEND
  8
0
  0
POLYLINE
  8
0
  6
CONTINUOUS
 62
     7
 66
     1
 10
0
 20
0
  0
VERTEX
  8
0
  6
CONTINUOUS
 62
     7
 10
492.9314040056475
 20
23.73316503094413
 42
0.01754289049006991
  0
VERTEX
  8
0
  6
CONTINUOUS
 62
     7
 10
491.5899368175109
 20
24.026312525355
 42
0.01105009940148809
  0
VERTEX
  8
0
  6
CONTINUOUS
 62
     7
 10
490.2336492190217
 20
24.24436946513036
 42
0.008116854688469888
  0
VERTEX
  8
0
  6
CONTINUOUS
 62
     7
 10
488.8692752540039
 20
24.41105810435496
 42
0.006531317947626273
  0
VERTEX
  8
0
  6
CONTINUOUS
 62
     7
 10
487.5008429725739
 20
24.53799270759222
 42
0.005600275045158656
  0
VERTEX
  8
0
  6
CONTINUOUS
 62
     7
 10
486.1294646123118
 20
24.63187081069391
 42
0.005037413926373825
  0
VERTEX
  8
0
  6
CONTINUOUS
 62
     7
 10
484.7560745032413
 20
24.69666713219245
 42
0.004711555386587723
  0
VERTEX
  8
0
  6
CONTINUOUS
 62
     7
 10
483.3815875685976
 20
24.73474551455863
 42
0.004561013391558939
  0
VERTEX
  8
0
  6
CONTINUOUS
 62
     7
 10
482.0066215088191
 20
24.74738314601101
 42
0.004559881310759059
  0
VERTEX
  8
0
  6
CONTINUOUS
 62
     7
 10
480.6317815234731
 20
24.73498951732229
 42
0.004705613664475996
  0
VERTEX
  8
0
  6
CONTINUOUS
 62
     7
 10
479.2583464819894
 20
24.69720230627708
 42
0.005034939061896517
  0
VERTEX
  8
0
  6
CONTINUOUS
 62
     7
 10
477.8843988517818
 20
24.63266540520088
 42
0.005594485682181615
  0
VERTEX
  8
0
  6
CONTINUOUS
 62
     7
 10
476.5126612393771
 20
24.53907083636076
 42
0.006523231575273935
  0
VERTEX
  8
0
  6
CONTINUOUS
 62
     7
 10
475.1434904982646
 20
24.4124140790774
 42
0.008102251520365233
  0
VERTEX
  8
0
  6
CONTINUOUS
 62
     7
 10
473.7783430907661
 20
24.24603939522954
 42
0.0110343825835024
  0
VERTEX
  8
0
  6
CONTINUOUS
 62
     7
 10
472.4199061859159
 20
24.02813194098407
 42
0.01751382852607673
  0
VERTEX
  8
0
  6
CONTINUOUS
 62
     7
 10
471.0757863532424
 20
23.73503003808403
 42
0
  0
SEQEND
  8
0
  0
POLYLINE
  8
0
  6
CONTINUOUS
 62
     7
 66
     1
 10
0
 20
0
  0
VERTEX
  8
0
  6
CONTINUOUS
 62
     7
 10
492.9262992358136
 20
23.73447487407524
 42
-0.01843635118411292
  0
VERTEX
  8
0
  6
CONTINUOUS
 62
     7
 10
493.9072709971545
 20
23.49465333238988
 42
-0.005077713457433005
  0
VERTEX
  8
0
  6
CONTINUOUS
 62
     7
 10
494.8766838147395
 20
23.21159083015425
 42
-0.02696900170247615
  0
VERTEX
  8
0
  6
CONTINUOUS
 62
     7
 10
495.8273887893934
 20
22.87171817016311
 42
-0.05660757361487396
  0
VERTEX
  8
0
  6
CONTINUOUS
 62
     7
 10
496.707184370784
 20
22.38011892492426
 42
-0.06337923833061249
  0
VERTEX
  8
0
  6
CONTINUOUS
 62
     7
 10
497.4349868412955
 20
21.68346314348775
 42
-0.06341668615126982
  0
VERTEX
  8
0
  6
CONTINUOUS
 62
     7
 10
497.97133050037
 20
20.82945185214632
 42
-0.072135831560362
  0
VERTEX
  8
0
  6
CONTINUOUS
 62
     7
 10
498.2569051553111
 20
19.86450069923099
 42
-0.07236455277576095
  0
VERTEX
  8
0
  6
CONTINUOUS
 62
     7
 10
498.2567937040605
 20
18.85824691189257
 42
-0.07212300140073637
  0
VERTEX
  8
0
  6
CONTINUOUS
 62
     7
 10
497.9710968423227
 20
17.893536453933
 42
-0.0633174711117284
  0
VERTEX
  8
0
  6
CONTINUOUS
 62
     7
 10
497.4356511668628
 20
17.0408483711276
 42
-0.06336610898975607
  0
VERTEX
  8
0
  6
CONTINUOUS
 62
     7
 10
496.7080339284687
 20
16.34400095092116
 42
-0.05663944402412367
  0
VERTEX
  8
0
  6
CONTINUOUS
 62
     7
 10
495.8283396583448
 20
15.85218840108356
 42
-0.02700180119261205
  0
VERTEX
  8
0
  6
CONTINUOUS
 62
     7
 10
494.8774425597409
 20
15.51213952004063
 42
-0.005083127334607222
  0
VERTEX
  8
0
  6
CONTINUOUS
 62
     7
 10
493.9075112931766
 20
15.2289103658792
 42
-0.01843875788481896
  0
VERTEX
  8
0
  6
CONTINUOUS
 62
     7
 10
492.9262995353855
 20
14.98902199321587
 42
0
  0
SEQEND
  8
0
  0
TEXT
  8
0
  6
CONTINUOUS
 62
     7
 10
-60.42857599258423
 20
-9
 40
18
 41
0.8463385793007391
  1
ＥＲ－＿ＮＡＣ
  0
ENDSEC
  0
EOF
