  0
SECTION
  2
HEADER
  0
ENDSEC
  0
SECTION
  2
TABLES
  0
TABLE
  2
LTYPE
 70
    22
  0
LTYPE
  2
CONTINUOUS
 70
    64
  3
Solid line
 72
    65
 73
     0
 40
0.000000
  0
LTYPE
  2
DASHED
 70
    64
  3
__ __ __ __ __ __ __ __ __ __ __ __ __ __ __
 72
    65
 73
     2
 40
3.500000
 49
2.000000
 49
-1.500000
  0
LTYPE
  2
CENTER
 70
    64
  3
____ _ ____ _ ____ _ ____ _ ____ _ ____ _ ____
 72
    65
 73
     4
 40
17.500000
 49
13.000000
 49
-1.500000
 49
1.500000
 49
-1.500000
  0
LTYPE
  2
PHANTOM
 70
    64
  3
_____ _ _ _____ _ _ _____ _ _ _____ _ _ ____  
 72
    65
 73
     6
 40
15.500000
 49
8.000000
 49
-1.500000
 49
1.500000
 49
-1.500000
 49
1.500000
 49
-1.500000
  0
LTYPE
  2
DOT
 70
    64
  3
. . . . . . . . . . . . . . . . . . . . . . . .
 72
    65
 73
     2
 40
0.25
 49
0.0
 49
-0.25
  0
ENDTAB
  0
TABLE
  2
LAYER
 70
     1
  0
LAYER
  2
0
 70
     0
 62
     7
  6
CONTINUOUS
  0
ENDTAB
  0
TABLE
  2
STYLE
 70
     1
  0
STYLE
  2
STANDARD
 70
     0
 40
0.000000
 41
1.000000
 50
0.000000
 71
     0
 42
0.200000
  3
txt
  0
ENDTAB
  0
TABLE
  2
VIEW
 70
     0
  0
ENDTAB
  0
ENDSEC
  0
SECTION
  2
BLOCKS
  0
ENDSEC
  0
SECTION
  2
ENTITIES
  0
LINE
  8
0
  6
CONTINUOUS
 62
     3
 10
290.2819519042969
 20
-290
 11
641.6693115234375
 21
-290
  0
LINE
  8
0
  6
CONTINUOUS
 62
     7
 10
370
 20
-389
 11
370
 21
-405
  0
LINE
  8
0
  6
CONTINUOUS
 62
     7
 10
355
 20
-252.5
 11
355
 21
-327.5
  0
LINE
  8
0
  6
CONTINUOUS
 62
     7
 10
370
 20
-389
 11
411
 21
-389
  0
LINE
  8
0
  6
CONTINUOUS
 62
     7
 10
370
 20
-405
 11
520
 21
-405
  0
LINE
  8
0
  6
CONTINUOUS
 62
     7
 10
357
 20
-340
 11
377.5679931640625
 21
-340
  0
LINE
  8
0
  6
CONTINUOUS
 62
     7
 10
357
 20
-240
 11
385
 21
-240
  0
LINE
  8
0
  6
CONTINUOUS
 62
     7
 10
357
 20
-240
 11
357
 21
-251.3452606201172
  0
LINE
  8
0
  6
CONTINUOUS
 62
     7
 10
355
 20
-252.4999694824219
 11
357
 21
-251.3452758789063
  0
LINE
  8
0
  6
CONTINUOUS
 62
     7
 10
355
 20
-327.5
 11
357
 21
-328.6546936035156
  0
LINE
  8
0
  6
CONTINUOUS
 62
     7
 10
438
 20
-217.5000152587891
 11
438
 21
-283.1427001953125
  0
LINE
  8
0
  6
CONTINUOUS
 62
     7
 10
426
 20
-217.5000152587891
 11
426
 21
-275.3508911132812
  0
LINE
  8
0
  6
CONTINUOUS
 62
     7
 10
426
 20
-217.5000152587891
 11
438
 21
-217.5000152587891
  0
LINE
  8
0
  6
CONTINUOUS
 62
     7
 10
375
 20
-389
 11
378.0782165527344
 21
-330.2641906738281
  0
LINE
  8
0
  6
CONTINUOUS
 62
     7
 10
416
 20
-288
 11
416
 21
-384
  0
LINE
  8
0
  6
CONTINUOUS
 62
     7
 10
300
 20
-269.5
 11
300
 21
-307.5
  0
LINE
  8
0
  6
CONTINUOUS
 62
     7
 10
300
 20
-272.5
 11
350
 21
-272.5
  0
LINE
  8
0
  6
CONTINUOUS
 62
     7
 10
300
 20
-307.5
 11
350
 21
-307.5
  0
LINE
  8
0
  6
CONTINUOUS
 62
     7
 10
350
 20
-312.5
 11
355
 21
-312.5
  0
LINE
  8
0
  6
CONTINUOUS
 62
     7
 10
350
 20
-267.5
 11
355
 21
-267.5
  0
LINE
  8
0
  6
CONTINUOUS
 62
     7
 10
300
 20
-269.5
 11
340
 21
-269.5
  0
LINE
  8
0
  6
CONTINUOUS
 62
     7
 10
340
 20
-269.5
 11
340
 21
-272.5
  0
LINE
  8
0
  6
CONTINUOUS
 62
     7
 10
350
 20
-267.5
 11
350
 21
-312.5
  0
LINE
  8
0
  6
CONTINUOUS
 62
     7
 10
520
 20
-389
 11
520
 21
-405
  0
LINE
  8
0
  6
CONTINUOUS
 62
     3
 10
505
 20
-379.7850341796875
 11
505
 21
-414.6123657226563
  0
LINE
  8
0
  6
CONTINUOUS
 62
     3
 10
385
 20
-379.7850341796875
 11
385
 21
-414.6123657226563
  0
LINE
  8
0
  6
DASHED
 62
     7
 10
391
 20
-389
 11
391
 21
-405
  0
LINE
  8
0
  6
DASHED
 62
     7
 10
379
 20
-389
 11
379
 21
-405
  0
LINE
  8
0
  6
DASHED
 62
     7
 10
511
 20
-389
 11
511
 21
-405
  0
LINE
  8
0
  6
DASHED
 62
     7
 10
499
 20
-389
 11
499
 21
-405
  0
LINE
  8
0
  6
CONTINUOUS
 62
     7
 10
443.060302734375
 20
-305.0612487792969
 11
481.2607421875
 21
-383.3836975097656
  0
LINE
  8
0
  6
CONTINUOUS
 62
     7
 10
384.9999694824219
 20
-240.0000152587891
 11
421.2616577148437
 21
-238.0996246337891
  0
LINE
  8
0
  6
CONTINUOUS
 62
     7
 10
357
 20
-328.6546936035156
 11
357
 21
-340
  0
LINE
  8
0
  6
CONTINUOUS
 62
     7
 10
490.2486877441406
 20
-389
 11
520
 21
-389
  0
LINE
  8
0
  6
CONTINUOUS
 62
     7
 10
472.29443359375
 20
-365
 11
474.5
 21
-365
  0
LINE
  8
0
  6
CONTINUOUS
 62
     7
 10
441.5
 20
-215
 11
474.5
 21
-215
  0
LINE
  8
0
  6
CONTINUOUS
 62
     7
 10
441.5
 20
-215
 11
438
 21
-219.1609039306641
  0
LINE
  8
0
  6
CONTINUOUS
 62
     7
 10
474.5
 20
-215.0000152587891
 11
478.0000305175781
 21
-219.1609039306641
  0
LINE
  8
0
  6
CONTINUOUS
 62
     7
 10
478
 20
-216.6108551025391
 11
478
 21
-362.5
  0
LINE
  8
0
  6
CONTINUOUS
 62
     7
 10
474.5
 20
-365
 11
478
 21
-360.839111328125
  0
LINE
  8
0
  6
CONTINUOUS
 62
     7
 10
441.5
 20
-260.5653076171875
 11
474.5
 21
-260.5653076171875
  0
LINE
  8
0
  6
CONTINUOUS
 62
     7
 10
441.5
 20
-269.2552795410156
 11
474.5
 21
-269.2552795410156
  0
LINE
  8
0
  6
CONTINUOUS
 62
     7
 10
441.5
 20
-277.0502319335938
 11
474.5
 21
-277.0502319335938
  0
LINE
  8
0
  6
CONTINUOUS
 62
     7
 10
441.5
 20
-286.0000610351563
 11
474.5
 21
-286.0000610351563
  0
LINE
  8
0
  6
CONTINUOUS
 62
     7
 10
441.5
 20
-294.0000915527344
 11
474.5
 21
-294.0000915527344
  0
LINE
  8
0
  6
CONTINUOUS
 62
     7
 10
442.0305480957031
 20
-302.9499206542969
 11
474.5
 21
-302.9499206542969
  0
LINE
  8
0
  6
CONTINUOUS
 62
     7
 10
445.8323974609375
 20
-310.744873046875
 11
474.5
 21
-310.744873046875
  0
LINE
  8
0
  6
CONTINUOUS
 62
     7
 10
450.0707397460938
 20
-319.4347839355469
 11
474.5
 21
-319.4347839355469
  0
LINE
  8
0
  6
CONTINUOUS
 62
     7
 10
457.6737670898438
 20
-335.0232543945313
 11
474.5
 21
-335.0232543945313
  0
LINE
  8
0
  6
CONTINUOUS
 62
     7
 10
461.0987243652344
 20
-342.0454406738281
 11
474.5
 21
-342.0454406738281
  0
LINE
  8
0
  6
CONTINUOUS
 62
     7
 10
463.7597961425781
 20
-347.5014343261719
 11
474.5
 21
-347.5014343261719
  0
LINE
  8
0
  6
CONTINUOUS
 62
     7
 10
466.3730773925781
 20
-352.8594360351562
 11
474.5
 21
-352.8594360351562
  0
LINE
  8
0
  6
CONTINUOUS
 62
     7
 10
468.3240051269531
 20
-356.8594360351563
 11
474.5
 21
-356.8594360351563
  0
LINE
  8
0
  6
CONTINUOUS
 62
     7
 10
470.0758666992187
 20
-360.4512939453125
 11
474.5
 21
-360.4512939453125
  0
LINE
  8
0
  6
CONTINUOUS
 62
     7
 10
523
 20
-216.5
 11
523
 21
-363.5
  0
LINE
  8
0
  6
CONTINUOUS
 62
     7
 10
493
 20
-217.5
 11
493
 21
-232.5
  0
LINE
  8
0
  6
CONTINUOUS
 62
     7
 10
513
 20
-217.5
 11
513
 21
-362.5
  0
LINE
  8
0
  6
CONTINUOUS
 62
     7
 10
513
 20
-217.5
 11
523
 21
-217.5
  0
LINE
  8
0
  6
CONTINUOUS
 62
     7
 10
513
 20
-362.5
 11
523
 21
-362.5
  0
LINE
  8
0
  6
CONTINUOUS
 62
     7
 10
493
 20
-237.5
 11
508
 21
-237.5
  0
LINE
  8
0
  6
CONTINUOUS
 62
     7
 10
493
 20
-342.5
 11
508
 21
-342.5
  0
LINE
  8
0
  6
CONTINUOUS
 62
     7
 10
488
 20
-220.4266357421875
 11
488
 21
-362.5
  0
LINE
  8
0
  6
CONTINUOUS
 62
     7
 10
493
 20
-347.5
 11
493
 21
-362.5
  0
LINE
  8
0
  6
CONTINUOUS
 62
     7
 10
488
 20
-220.4266357421875
 11
493
 21
-220.4266357421875
  0
LINE
  8
0
  6
CONTINUOUS
 62
     7
 10
478
 20
-217.5
 11
494
 21
-217.5
  0
LINE
  8
0
  6
CONTINUOUS
 62
     7
 10
493.1332092285156
 20
-211.6701965332031
 11
494
 21
-216.6106719970703
  0
LINE
  8
0
  6
CONTINUOUS
 62
     7
 10
485.9999694824219
 20
-209.7381439208984
 11
480.44384765625
 21
-210.9320220947266
  0
LINE
  8
0
  6
CONTINUOUS
 62
     7
 10
486
 20
-209.7381896972656
 11
491.5560607910156
 21
-210.9320373535156
  0
LINE
  8
0
  6
CONTINUOUS
 62
     7
 10
494
 20
-216.6106872558594
 11
494
 21
-217.5
  0
LINE
  8
0
  6
CONTINUOUS
 62
     7
 10
545.5
 20
-216.5
 11
545.5
 21
-363.5
  0
LINE
  8
0
  6
CONTINUOUS
 62
     7
 10
598.5
 20
-270
 11
598.5
 21
-310
  0
LINE
  8
0
  6
CONTINUOUS
 62
     7
 10
555.5
 20
-217.5
 11
545.5
 21
-217.5
  0
LINE
  8
0
  6
CONTINUOUS
 62
     7
 10
560.5
 20
-238
 11
555.5
 21
-238
  0
LINE
  8
0
  6
CONTINUOUS
 62
     7
 10
555.5
 20
-217.5
 11
555.5
 21
-362.5
  0
LINE
  8
0
  6
CONTINUOUS
 62
     7
 10
591.5
 20
-261.5
 11
591.5
 21
-318.5
  0
LINE
  8
0
  6
CONTINUOUS
 62
     7
 10
598.5
 20
-269.9999389648437
 11
591.5000610351562
 21
-265.95849609375
  0
LINE
  8
0
  6
CONTINUOUS
 62
     7
 10
591.5
 20
-261.5
 11
579.3580322265625
 21
-261.5
  0
LINE
  8
0
  6
CONTINUOUS
 62
     7
 10
598.5000610351563
 20
-310.0000305175781
 11
591.5000610351562
 21
-314.0414733886719
  0
LINE
  8
0
  6
CONTINUOUS
 62
     7
 10
560.5
 20
-342
 11
560.5
 21
-238
  0
LINE
  8
0
  6
CONTINUOUS
 62
     7
 10
560.5
 20
-342
 11
555.5
 21
-342
  0
LINE
  8
0
  6
CONTINUOUS
 62
     7
 10
632.5
 20
-278
 11
607.5
 21
-278
  0
LINE
  8
0
  6
CONTINUOUS
 62
     7
 10
632.5
 20
-278
 11
632.5
 21
-299.5
  0
LINE
  8
0
  6
CONTINUOUS
 62
     7
 10
632.5
 20
-299.5
 11
602.5
 21
-299.5
  0
LINE
  8
0
  6
CONTINUOUS
 62
     7
 10
632.5
 20
-280.5
 11
602.5
 21
-280.5
  0
LINE
  8
0
  6
CONTINUOUS
 62
     7
 10
602.5
 20
-277.5
 11
602.5
 21
-302.5
  0
LINE
  8
0
  6
CONTINUOUS
 62
     7
 10
602.5
 20
-302.5
 11
598.5
 21
-302.5
  0
LINE
  8
0
  6
CONTINUOUS
 62
     7
 10
602.5
 20
-277.5
 11
598.5
 21
-277.5
  0
LINE
  8
0
  6
CONTINUOUS
 62
     7
 10
607.5
 20
-278
 11
607.5
 21
-280.5
  0
LINE
  8
0
  6
CONTINUOUS
 62
     7
 10
591.5
 20
-318.5
 11
579.3580322265625
 21
-318.5
  0
LINE
  8
0
  6
CONTINUOUS
 62
     7
 10
579.9999389648438
 20
-284.0823974609375
 11
560.5
 21
-279.03125
  0
LINE
  8
0
  6
CONTINUOUS
 62
     7
 10
580
 20
-270.935302734375
 11
560.5
 21
-257.1352844238281
  0
LINE
  8
0
  6
CONTINUOUS
 62
     7
 10
560.5
 20
-243.2694854736328
 11
580
 21
-262.1205749511719
  0
LINE
  8
0
  6
CONTINUOUS
 62
     7
 10
580
 20
-298.8154296875
 11
560.5
 21
-303.8665466308594
  0
LINE
  8
0
  6
CONTINUOUS
 62
     7
 10
560.5
 20
-324.9861145019531
 11
580
 21
-311.1861572265625
  0
LINE
  8
0
  6
CONTINUOUS
 62
     7
 10
560.5
 20
-336.7305603027344
 11
579.9999389648438
 21
-317.8794555664063
  0
LINE
  8
0
  6
CONTINUOUS
 62
     7
 10
523
 20
-216.5
 11
545.5
 21
-216.5
  0
LINE
  8
0
  6
CONTINUOUS
 62
     7
 10
523
 20
-363.5
 11
545.5
 21
-363.5
  0
LINE
  8
0
  6
CONTINUOUS
 62
     7
 10
555.5
 20
-362.5
 11
545.5
 21
-362.5
  0
LINE
  8
0
  6
CONTINUOUS
 62
     7
 10
478.8668212890625
 20
-211.6702423095703
 11
478.0000305175781
 21
-216.6106872558594
  0
LINE
  8
0
  6
CONTINUOUS
 62
     7
 10
488
 20
-359.5733642578125
 11
493
 21
-359.5733642578125
  0
LINE
  8
0
  6
CONTINUOUS
 62
     7
 10
478
 20
-362.5
 11
493
 21
-362.5
  0
LINE
  8
0
  6
CONTINUOUS
 62
     3
 10
-86.22760009765625
 20
-290
 11
112.1449584960938
 21
-290
  0
LINE
  8
0
  6
CONTINUOUS
 62
     3
 10
73.78525543212891
 20
-254.6160430908203
 11
57.64469528198242
 21
-263.9347839355469
  0
LINE
  8
0
  6
CONTINUOUS
 62
     7
 10
-75
 20
-305
 11
-75
 21
-405
  0
LINE
  8
0
  6
CONTINUOUS
 62
     7
 10
100
 20
-305
 11
100
 21
-405
  0
LINE
  8
0
  6
CONTINUOUS
 62
     7
 10
-75
 20
-405
 11
-30
 21
-405
  0
LINE
  8
0
  6
CONTINUOUS
 62
     7
 10
-75
 20
-389
 11
-30
 21
-389
  0
LINE
  8
0
  6
CONTINUOUS
 62
     7
 10
-30
 20
-389
 11
-30
 21
-405
  0
LINE
  8
0
  6
CONTINUOUS
 62
     7
 10
55
 20
-389
 11
55
 21
-405
  0
LINE
  8
0
  6
CONTINUOUS
 62
     7
 10
-27
 20
-402
 11
52
 21
-402
  0
LINE
  8
0
  6
CONTINUOUS
 62
     7
 10
-25
 20
-394
 11
50
 21
-394
  0
LINE
  8
0
  6
CONTINUOUS
 62
     7
 10
55
 20
-389
 11
100
 21
-389
  0
LINE
  8
0
  6
CONTINUOUS
 62
     7
 10
55
 20
-405
 11
100
 21
-405
  0
LINE
  8
0
  6
CONTINUOUS
 62
     7
 10
-67
 20
-305
 11
-67
 21
-384
  0
LINE
  8
0
  6
CONTINUOUS
 62
     7
 10
92
 20
-305
 11
92
 21
-384
  0
LINE
  8
0
  6
CONTINUOUS
 62
     7
 10
-29.99986457824707
 20
-389
 11
-17.2907657623291
 21
-341.5690002441406
  0
LINE
  8
0
  6
CONTINUOUS
 62
     7
 10
-38.76393890380859
 20
-383.070556640625
 11
-24.32963752746582
 21
-329.2010192871094
  0
LINE
  8
0
  6
CONTINUOUS
 62
     7
 10
63.76399612426758
 20
-383.0705261230469
 11
49.32969665527344
 21
-329.2010192871094
  0
LINE
  8
0
  6
CONTINUOUS
 62
     7
 10
55.00004959106445
 20
-389.0000305175781
 11
42.29095077514648
 21
-341.5690002441406
  0
LINE
  8
0
  6
CONTINUOUS
 62
     7
 10
-67.5390625
 20
-280
 11
-40.4150390625
 21
-280
  0
LINE
  8
0
  6
CONTINUOUS
 62
     7
 10
-62
 20
-300
 11
-40.4150390625
 21
-300
  0
LINE
  8
0
  6
CONTINUOUS
 62
     7
 10
87
 20
-300
 11
65.4150390625
 21
-300
  0
LINE
  8
0
  6
CONTINUOUS
 62
     7
 10
92.5390625
 20
-280
 11
65.4150390625
 21
-280
  0
LINE
  8
0
  6
CONTINUOUS
 62
     3
 10
12.5
 20
-202.5
 11
12.5
 21
-411.7731628417969
  0
LINE
  8
0
  6
CONTINUOUS
 62
     3
 10
-48.78562927246094
 20
-254.6167449951172
 11
-32.64506912231445
 21
-263.9354858398438
  0
LINE
  8
0
  6
CONTINUOUS
 62
     3
 10
-48.78576278686523
 20
-325.3830261230469
 11
-32.64520263671875
 21
-316.0642700195312
  0
LINE
  8
0
  6
CONTINUOUS
 62
     3
 10
73.78558349609375
 20
-325.3834533691406
 11
57.6450309753418
 21
-316.064697265625
  0
LINE
  8
0
  6
CONTINUOUS
 62
     3
 10
85
 20
-380.30615234375
 11
85
 21
-412.2312622070312
  0
LINE
  8
0
  6
CONTINUOUS
 62
     3
 10
-60
 20
-380.30615234375
 11
-60
 21
-412.2312622070312
  0
LINE
  8
0
  6
CONTINUOUS
 62
     7
 10
7.5
 20
-269.5
 11
7.5
 21
-277.5
  0
LINE
  8
0
  6
CONTINUOUS
 62
     7
 10
17.5
 20
-269.5
 11
17.5
 21
-277.5
  0
LINE
  8
0
  6
CONTINUOUS
 62
     7
 10
7.5
 20
-277.5
 11
17.5
 21
-277.5
  0
LINE
  8
0
  6
CONTINUOUS
 62
     7
 10
7.5
 20
-269.5
 11
17.5
 21
-269.5
  0
LINE
  8
0
  6
DASHED
 62
     7
 10
-54
 20
-389
 11
-54
 21
-405
  0
LINE
  8
0
  6
DASHED
 62
     7
 10
-66
 20
-389
 11
-66
 21
-405
  0
LINE
  8
0
  6
DASHED
 62
     7
 10
79
 20
-389
 11
79
 21
-405
  0
LINE
  8
0
  6
DASHED
 62
     7
 10
91
 20
-389
 11
91
 21
-405
  0
LINE
  8
0
  6
CONTINUOUS
 62
     7
 10
-28.41073036193848
 20
-227.1405487060547
 11
-28.26251602172852
 21
-227.5747680664063
  0
LINE
  8
0
  6
CONTINUOUS
 62
     7
 10
-21.4825496673584
 20
-223.1405487060547
 11
-20.69534492492676
 21
-224.0412445068359
  0
LINE
  8
0
  6
CONTINUOUS
 62
     7
 10
-13.22198104858398
 20
-219.5490112304688
 11
-13.04156398773193
 21
-221.3108215332031
  0
LINE
  8
0
  6
CONTINUOUS
 62
     7
 10
-5.571464538574219
 20
-217.2098388671875
 11
-4.521630764007568
 21
-219.1716003417969
  0
LINE
  8
0
  6
CONTINUOUS
 62
     7
 10
3.499881982803345
 20
-215.5421142578125
 11
3.022153615951538
 21
-218.0148315429688
  0
LINE
  8
0
  6
CONTINUOUS
 62
     7
 10
5.992205142974854
 20
-211.2601776123047
 11
7.441699028015137
 21
-215.2426300048828
  0
LINE
  8
0
  6
CONTINUOUS
 62
     7
 10
1.615449070930481
 20
-210.1304931640625
 11
5.185902118682861
 21
-210.6111450195313
  0
LINE
  8
0
  6
CONTINUOUS
 62
     7
 10
-2.570095777511597
 20
-186.3928375244141
 11
2.318098783493042
 21
-214.1151733398437
  0
LINE
  8
0
  6
CONTINUOUS
 62
     7
 10
-8.315216064453125
 20
-213.7829742431641
 11
-8.315216064453125
 21
-218.02099609375
  0
LINE
  8
0
  6
CONTINUOUS
 62
     7
 10
-4.588805198669434
 20
-211.2244873046875
 11
-7.779538631439209
 21
-212.8973236083984
  0
LINE
  8
0
  6
CONTINUOUS
 62
     7
 10
-8.774378776550293
 20
-187.4868469238281
 11
-3.886184692382813
 21
-215.2091674804688
  0
LINE
  8
0
  6
CONTINUOUS
 62
     7
 10
384.9999694824219
 20
49.99997711181641
 11
421.2616882324219
 21
51.90037155151367
  0
LINE
  8
0
  6
CONTINUOUS
 62
     7
 10
355
 20
37.5
 11
355
 21
-37.5
  0
LINE
  8
0
  6
CONTINUOUS
 62
     7
 10
385
 20
-50
 11
357
 21
-50
  0
LINE
  8
0
  6
CONTINUOUS
 62
     7
 10
385
 20
50
 11
357
 21
50
  0
LINE
  8
0
  6
CONTINUOUS
 62
     7
 10
357
 20
50
 11
357
 21
37.5
  0
LINE
  8
0
  6
CONTINUOUS
 62
     7
 10
357
 20
-37.5
 11
355
 21
-37.5
  0
LINE
  8
0
  6
CONTINUOUS
 62
     7
 10
357
 20
37.5
 11
355
 21
37.5
  0
LINE
  8
0
  6
CONTINUOUS
 62
     7
 10
438
 20
79.50003051757813
 11
438
 21
-79.5
  0
LINE
  8
0
  6
CONTINUOUS
 62
     7
 10
426
 20
87.50003051757812
 11
426
 21
-87.5
  0
LINE
  8
0
  6
CONTINUOUS
 62
     7
 10
515
 20
87.50003051757812
 11
375
 21
87.50003051757812
  0
LINE
  8
0
  6
CONTINUOUS
 62
     7
 10
515
 20
-87.5
 11
375
 21
-87.5
  0
LINE
  8
0
  6
CONTINUOUS
 62
     7
 10
370
 20
82.50003051757812
 11
370
 21
50
  0
LINE
  8
0
  6
CONTINUOUS
 62
     7
 10
520
 20
-72.5
 11
520
 21
-82.5
  0
LINE
  8
0
  6
CONTINUOUS
 62
     7
 10
370
 20
-50
 11
370
 21
-82.5
  0
LINE
  8
0
  6
CONTINUOUS
 62
     7
 10
416
 20
-51.6246337890625
 11
416
 21
-87.5
  0
LINE
  8
0
  6
CONTINUOUS
 62
     7
 10
481
 20
-79.5
 11
438
 21
-79.5
  0
LINE
  8
0
  6
CONTINUOUS
 62
     7
 10
416
 20
51.6246337890625
 11
416
 21
87.50003051757812
  0
LINE
  8
0
  6
CONTINUOUS
 62
     7
 10
481
 20
79.50003051757813
 11
438
 21
79.50003051757813
  0
LINE
  8
0
  6
CONTINUOUS
 62
     7
 10
520
 20
72.5
 11
520
 21
82.50003051757812
  0
LINE
  8
0
  6
CONTINUOUS
 62
     3
 10
394.5550537109375
 20
-72.5
 11
375.9156494140625
 21
-72.5
  0
LINE
  8
0
  6
CONTINUOUS
 62
     3
 10
385
 20
-63.43426513671875
 11
385
 21
-81.3128662109375
  0
LINE
  8
0
  6
CONTINUOUS
 62
     3
 10
394.5550537109375
 20
72.5
 11
375.9156494140625
 21
72.5
  0
LINE
  8
0
  6
CONTINUOUS
 62
     3
 10
385
 20
63.43426513671875
 11
385
 21
81.31289672851562
  0
LINE
  8
0
  6
CONTINUOUS
 62
     3
 10
495.4449462890625
 20
-72.5
 11
513
 21
-72.5
  0
LINE
  8
0
  6
CONTINUOUS
 62
     3
 10
505
 20
-63.43426513671875
 11
505
 21
-81.3128662109375
  0
LINE
  8
0
  6
CONTINUOUS
 62
     3
 10
495.4449462890625
 20
72.5
 11
513
 21
72.5
  0
LINE
  8
0
  6
CONTINUOUS
 62
     3
 10
505
 20
63.43426513671875
 11
505
 21
81.31289672851562
  0
LINE
  8
0
  6
CONTINUOUS
 62
     7
 10
300
 20
17.5
 11
300
 21
-17.5
  0
LINE
  8
0
  6
CONTINUOUS
 62
     7
 10
300
 20
-17.5
 11
350
 21
-17.5
  0
LINE
  8
0
  6
CONTINUOUS
 62
     7
 10
300
 20
17.5
 11
350
 21
17.5
  0
LINE
  8
0
  6
CONTINUOUS
 62
     7
 10
350
 20
-22.5
 11
355
 21
-22.5
  0
LINE
  8
0
  6
CONTINUOUS
 62
     7
 10
350
 20
22.5
 11
355
 21
22.5
  0
LINE
  8
0
  6
CONTINUOUS
 62
     7
 10
350
 20
22.5
 11
350
 21
-22.5
  0
LINE
  8
0
  6
CONTINUOUS
 62
     7
 10
340
 20
5
 11
340
 21
-5
  0
LINE
  8
0
  6
CONTINUOUS
 62
     7
 10
343
 20
-5
 11
300
 21
-5
  0
LINE
  8
0
  6
CONTINUOUS
 62
     7
 10
343
 20
5
 11
300
 21
5
  0
LINE
  8
0
  6
CONTINUOUS
 62
     7
 10
385
 20
-49.99999237060547
 11
421.2616882324219
 21
-51.90038681030273
  0
LINE
  8
0
  6
CONTINUOUS
 62
     7
 10
357
 20
-37.5
 11
357
 21
-50
  0
LINE
  8
0
  6
CONTINUOUS
 62
     7
 10
441.5
 20
-72.07395935058594
 11
474.5
 21
-72.07395935058594
  0
LINE
  8
0
  6
CONTINUOUS
 62
     7
 10
478
 20
72.5
 11
478
 21
20.80316925048828
  0
LINE
  8
0
  6
CONTINUOUS
 62
     7
 10
441.5
 20
75
 11
474.5
 21
75
  0
LINE
  8
0
  6
CONTINUOUS
 62
     7
 10
441.4999694824219
 20
74.99997711181641
 11
437.9999694824219
 21
70.83909606933594
  0
LINE
  8
0
  6
CONTINUOUS
 62
     7
 10
474.5
 20
75.00000762939453
 11
478.0000305175781
 21
70.839111328125
  0
LINE
  8
0
  6
CONTINUOUS
 62
     7
 10
474.5
 20
-75.00002288818359
 11
478
 21
-70.83912658691406
  0
LINE
  8
0
  6
CONTINUOUS
 62
     7
 10
441.5
 20
-75
 11
474.5
 21
-75
  0
LINE
  8
0
  6
CONTINUOUS
 62
     7
 10
441.5
 20
-75.00000762939453
 11
438.0000305175781
 21
-70.83913421630859
  0
LINE
  8
0
  6
CONTINUOUS
 62
     7
 10
441.5
 20
72.07391357421875
 11
474.5
 21
72.07391357421875
  0
LINE
  8
0
  6
CONTINUOUS
 62
     7
 10
441.5
 20
68.98251342773437
 11
474.5
 21
68.98251342773437
  0
LINE
  8
0
  6
CONTINUOUS
 62
     7
 10
441.5
 20
59.98248291015625
 11
474.5
 21
59.98248291015625
  0
LINE
  8
0
  6
CONTINUOUS
 62
     7
 10
441.5
 20
54.0025634765625
 11
474.5
 21
54.0025634765625
  0
LINE
  8
0
  6
CONTINUOUS
 62
     7
 10
441.5
 20
40.91079711914063
 11
474.5
 21
40.91079711914063
  0
LINE
  8
0
  6
CONTINUOUS
 62
     7
 10
441.5
 20
48.15170288085938
 11
474.5
 21
48.15170288085938
  0
LINE
  8
0
  6
CONTINUOUS
 62
     7
 10
441.5
 20
33.98257446289063
 11
474.5
 21
33.98257446289063
  0
LINE
  8
0
  6
CONTINUOUS
 62
     7
 10
441.5
 20
25.72195434570313
 11
474.5
 21
25.72195434570313
  0
LINE
  8
0
  6
CONTINUOUS
 62
     7
 10
441.5
 20
18.07150268554688
 11
470.4561767578125
 21
18.07150268554688
  0
LINE
  8
0
  6
CONTINUOUS
 62
     7
 10
441.5
 20
9.00006103515625
 11
474.5
 21
9.00006103515625
  0
LINE
  8
0
  6
CONTINUOUS
 62
     7
 10
441.5
 20
-68.98260498046875
 11
474.5
 21
-68.98260498046875
  0
LINE
  8
0
  6
CONTINUOUS
 62
     3
 10
285.7571105957031
 20
0
 11
644.355712890625
 21
0
  0
LINE
  8
0
  6
CONTINUOUS
 62
     7
 10
552.5
 20
-72.5
 11
545.5
 21
-72.5
  0
LINE
  8
0
  6
CONTINUOUS
 62
     7
 10
598.5
 20
20
 11
598.5
 21
-20
  0
LINE
  8
0
  6
CONTINUOUS
 62
     7
 10
591.5
 20
28.5
 11
591.5
 21
-28.5
  0
LINE
  8
0
  6
CONTINUOUS
 62
     7
 10
598.5
 20
20.00012969970703
 11
591.5
 21
24.04157257080078
  0
LINE
  8
0
  6
CONTINUOUS
 62
     7
 10
591.5
 20
28.5
 11
579.3580322265625
 21
28.5
  0
LINE
  8
0
  6
CONTINUOUS
 62
     7
 10
598.5
 20
-19.99994468688965
 11
591.5
 21
-24.0413875579834
  0
LINE
  8
0
  6
CONTINUOUS
 62
     7
 10
591.5
 20
-28.5
 11
579.3580322265625
 21
-28.5
  0
LINE
  8
0
  6
CONTINUOUS
 62
     7
 10
632.5
 20
9.5
 11
632.5
 21
-9.5
  0
LINE
  8
0
  6
CONTINUOUS
 62
     7
 10
632.5
 20
-9.5
 11
602.5
 21
-9.5
  0
LINE
  8
0
  6
CONTINUOUS
 62
     7
 10
632.5
 20
9.5
 11
602.5
 21
9.5
  0
LINE
  8
0
  6
CONTINUOUS
 62
     7
 10
602.5
 20
12.5
 11
602.5
 21
-12.5
  0
LINE
  8
0
  6
CONTINUOUS
 62
     7
 10
602.5
 20
-12.5
 11
598.5
 21
-12.5
  0
LINE
  8
0
  6
CONTINUOUS
 62
     7
 10
602.5
 20
12.5
 11
598.5
 21
12.5
  0
LINE
  8
0
  6
CONTINUOUS
 62
     7
 10
632.5
 20
3
 11
607.5
 21
3
  0
LINE
  8
0
  6
CONTINUOUS
 62
     7
 10
632.5
 20
-3
 11
607.5
 21
-3
  0
LINE
  8
0
  6
CONTINUOUS
 62
     7
 10
607.5
 20
3
 11
607.5
 21
-3
  0
LINE
  8
0
  6
CONTINUOUS
 62
     7
 10
580
 20
5.917622089385986
 11
560.5
 21
10.96875476837158
  0
LINE
  8
0
  6
CONTINUOUS
 62
     7
 10
580
 20
19.0646800994873
 11
560.5
 21
32.86466979980469
  0
LINE
  8
0
  6
CONTINUOUS
 62
     7
 10
560.4999389648438
 20
46.73052978515625
 11
579.9999389648438
 21
27.87942695617676
  0
LINE
  8
0
  6
CONTINUOUS
 62
     7
 10
580
 20
-5.917577266693115
 11
560.5
 21
-10.96871757507324
  0
LINE
  8
0
  6
CONTINUOUS
 62
     7
 10
580
 20
-19.06473541259766
 11
560.5
 21
-32.86472702026367
  0
LINE
  8
0
  6
CONTINUOUS
 62
     7
 10
560.4999389648438
 20
-46.73052978515625
 11
579.9999389648438
 21
-27.87944984436035
  0
LINE
  8
0
  6
CONTINUOUS
 62
     7
 10
552.5
 20
72.5
 11
545.5
 21
72.5
  0
LINE
  8
0
  6
CONTINUOUS
 62
     7
 10
552.5
 20
72.5
 11
552.5
 21
63.92559814453125
  0
LINE
  8
0
  6
CONTINUOUS
 62
     7
 10
555.5
 20
63.92559814453125
 11
552.5
 21
63.92559814453125
  0
LINE
  8
0
  6
CONTINUOUS
 62
     7
 10
560.5
 20
52
 11
555.5
 21
52
  0
LINE
  8
0
  6
CONTINUOUS
 62
     7
 10
555.5
 20
63.92559814453125
 11
555.5
 21
-63.92559814453125
  0
LINE
  8
0
  6
CONTINUOUS
 62
     7
 10
560.5
 20
-52
 11
560.5
 21
52
  0
LINE
  8
0
  6
CONTINUOUS
 62
     7
 10
560.5
 20
-52
 11
555.5
 21
-52
  0
LINE
  8
0
  6
CONTINUOUS
 62
     7
 10
555.5
 20
-63.92559814453125
 11
552.5
 21
-63.92559814453125
  0
LINE
  8
0
  6
CONTINUOUS
 62
     7
 10
552.5
 20
-63.92559814453125
 11
552.5
 21
-72.5
  0
LINE
  8
0
  6
CONTINUOUS
 62
     7
 10
523
 20
-73.5
 11
545.5
 21
-73.5
  0
LINE
  8
0
  6
CONTINUOUS
 62
     7
 10
545.5
 20
73.5
 11
545.5
 21
-73.5
  0
LINE
  8
0
  6
CONTINUOUS
 62
     7
 10
523
 20
73.5
 11
523
 21
-73.5
  0
LINE
  8
0
  6
CONTINUOUS
 62
     7
 10
513
 20
-72.5
 11
523
 21
-72.5
  0
LINE
  8
0
  6
CONTINUOUS
 62
     7
 10
513
 20
72.5
 11
523
 21
72.5
  0
LINE
  8
0
  6
CONTINUOUS
 62
     7
 10
523
 20
73.5
 11
545.5
 21
73.5
  0
LINE
  8
0
  6
CONTINUOUS
 62
     7
 10
513
 20
72.5
 11
513
 21
-72.5
  0
LINE
  8
0
  6
CONTINUOUS
 62
     7
 10
488
 20
72.5
 11
488
 21
21.24783325195312
  0
LINE
  8
0
  6
CONTINUOUS
 62
     7
 10
493
 20
52.5
 11
508
 21
52.5
  0
LINE
  8
0
  6
CONTINUOUS
 62
     7
 10
488
 20
-20.39105224609375
 11
488
 21
-72.5
  0
LINE
  8
0
  6
CONTINUOUS
 62
     7
 10
478
 20
-72.5
 11
488
 21
-72.5
  0
LINE
  8
0
  6
CONTINUOUS
 62
     7
 10
488
 20
-20.39105224609375
 11
493
 21
-20.39105224609375
  0
LINE
  8
0
  6
CONTINUOUS
 62
     7
 10
493
 20
9.123565673828125
 11
493
 21
-20.39105224609375
  0
LINE
  8
0
  6
CONTINUOUS
 62
     7
 10
493
 20
-52.5
 11
508
 21
-52.5
  0
LINE
  8
0
  6
CONTINUOUS
 62
     7
 10
478
 20
72.5
 11
488
 21
72.5
  0
LINE
  8
0
  6
CONTINUOUS
 62
     7
 10
478
 20
10.97432231903076
 11
478
 21
-72.5
  0
LINE
  8
0
  6
CONTINUOUS
 62
     7
 10
-6.786750316619873
 20
-180.6191253662109
 11
0.6207575798034668
 21
-222.6291961669922
  0
LINE
  8
0
  6
CONTINUOUS
 62
     7
 10
465.5057678222656
 20
-199.8900909423828
 11
506.2256164550781
 21
-199.8900909423828
  0
LINE
  8
0
  6
CONTINUOUS
 62
     7
 10
486
 20
-180.1417541503906
 11
486
 21
-221.1068878173828
  0
ARC
  8
0
  6
CONTINUOUS
 62
     7
 10
411
 20
-384
 40
5.000000000000019
 50
270.0000179860891
 51
0
  0
ARC
  8
0
  6
CONTINUOUS
 62
     7
 10
424
 20
-288
 40
8.000000000000018
 50
103.3424218782613
 51
179.9999640278211
  0
ARC
  8
0
  6
CONTINUOUS
 62
     7
 10
421
 20
-275.3508911132812
 40
5.000000000000002
 50
283.3423007560891
 51
0
  0
ARC
  8
0
  6
CONTINUOUS
 62
     7
 10
373.0850524902344
 20
-330.0025024414062
 40
4.99999999999998
 50
357.0000876417595
 51
89.99998201391097
  0
ARC
  8
0
  6
CONTINUOUS
 62
     7
 10
488
 20
-283.1427001953125
 40
49.99999999999998
 50
179.9999776881997
 51
206.0000080092019
  0
ARC
  8
0
  6
CONTINUOUS
 62
     7
 10
490.2486877441406
 20
-379
 40
10
 50
206.0000116516676
 51
270.0000179860893
  0
ARC
  8
0
  6
CONTINUOUS
 62
     7
 10
421
 20
-233.1064758300781
 40
5.000000000000009
 50
273.0000009940987
 51
0
  0
ARC
  8
0
  6
CONTINUOUS
 62
     7
 10
493
 20
-347.5
 40
4.999999999999981
 50
89.99992737239761
 51
179.9999640278213
  0
ARC
  8
0
  6
CONTINUOUS
 62
     7
 10
508
 20
-347.5
 40
5
 50
0
 51
90.00000250447847
  0
ARC
  8
0
  6
CONTINUOUS
 62
     7
 10
498
 20
-347.5
 40
4.999999999999981
 50
89.99992737239761
 51
179.9999640278213
  0
ARC
  8
0
  6
CONTINUOUS
 62
     7
 10
508
 20
-232.5
 40
5.000000000000004
 50
269.9999974955215
 51
0
  0
ARC
  8
0
  6
CONTINUOUS
 62
     7
 10
498
 20
-232.5
 40
4.999999999999981
 50
179.9999776881996
 51
270.0000280040023
  0
ARC
  8
0
  6
CONTINUOUS
 62
     7
 10
493
 20
-232.5
 40
4.999999999999981
 50
179.9999776881996
 51
270.0000280040023
  0
ARC
  8
0
  6
CONTINUOUS
 62
     7
 10
12.5
 20
-305
 40
87.5
 50
0
 51
179.9999640278213
  0
ARC
  8
0
  6
CONTINUOUS
 62
     7
 10
-25
 20
-389
 40
4.999999999999999
 50
179.9999776881996
 51
270.000028004002
  0
ARC
  8
0
  6
CONTINUOUS
 62
     7
 10
50
 20
-389
 40
5.000000000000019
 50
270.0000179860893
 51
0
  0
ARC
  8
0
  6
CONTINUOUS
 62
     7
 10
-27
 20
-405
 40
2.999999999999977
 50
89.99998201391062
 51
179.9999640278208
  0
ARC
  8
0
  6
CONTINUOUS
 62
     7
 10
52
 20
-405
 40
3
 50
0
 51
89.9999820139107
  0
ARC
  8
0
  6
CONTINUOUS
 62
     7
 10
-62
 20
-384
 40
4.999999999999996
 50
179.9999776881996
 51
270.000028004002
  0
ARC
  8
0
  6
CONTINUOUS
 62
     7
 10
87
 20
-384
 40
5.000000000000019
 50
270.0000179860893
 51
0
  0
CIRCLE
  8
0
  6
CONTINUOUS
 62
     7
 10
12.5
 20
-290
 40
50
  0
ARC
  8
0
  6
CONTINUOUS
 62
     7
 10
-46.4913330078125
 20
-381
 40
7.999999999999996
 50
270.0000179860893
 51
345.0000422712693
  0
ARC
  8
0
  6
CONTINUOUS
 62
     7
 10
-9.5634765625
 20
-343.6395568847656
 40
7.999999999999992
 50
67.64140557719809
 51
165.0000626481512
  0
ARC
  8
0
  6
CONTINUOUS
 62
     7
 10
-32.05706787109375
 20
-327.1304321289063
 40
8.000000000000007
 50
344.9999893373031
 51
39.80524965256696
  0
ARC
  8
0
  6
CONTINUOUS
 62
     7
 10
71.4913330078125
 20
-381
 40
8.000000000000007
 50
194.9999373518488
 51
269.999963344576
  0
ARC
  8
0
  6
CONTINUOUS
 62
     7
 10
57.05706787109375
 20
-327.1304321289063
 40
8.000000000000011
 50
140.1947143752541
 51
194.9999746905182
  0
ARC
  8
0
  6
CONTINUOUS
 62
     7
 10
34.5634765625
 20
-343.6395568847656
 40
8.000000000000004
 50
14.99990137967021
 51
112.3585584506233
  0
ARC
  8
0
  6
CONTINUOUS
 62
     7
 10
-67.5390625
 20
-285
 40
5.000000000000019
 50
89.99998201391064
 51
165.9703866423999
  0
ARC
  8
0
  6
CONTINUOUS
 62
     7
 10
-62
 20
-305
 40
5.000000000000019
 50
89.99998201391064
 51
179.9999640278213
  0
ARC
  8
0
  6
CONTINUOUS
 62
     7
 10
-40.4150390625
 20
-275
 40
5.000000000000019
 50
270.0000179860893
 51
344.1735159571643
  0
ARC
  8
0
  6
CONTINUOUS
 62
     7
 10
-40.4150390625
 20
-305
 40
5
 50
15.82648404283571
 51
89.99998201391064
  0
ARC
  8
0
  6
CONTINUOUS
 62
     7
 10
87
 20
-305
 40
5
 50
0
 51
89.99998201391064
  0
ARC
  8
0
  6
CONTINUOUS
 62
     7
 10
65.4150390625
 20
-305
 40
5.000000000000019
 50
89.99998201391064
 51
164.1734868151747
  0
ARC
  8
0
  6
CONTINUOUS
 62
     7
 10
65.4150390625
 20
-275
 40
5.000000000000007
 50
195.8264585433123
 51
269.9999565143868
  0
ARC
  8
0
  6
CONTINUOUS
 62
     7
 10
92.5390625
 20
-285
 40
5.000000000000007
 50
14.02957738542145
 51
89.99998201391064
  0
ARC
  8
0
  6
CONTINUOUS
 62
     3
 10
12.5
 20
-290
 40
64
 50
21.30455530437453
 51
38.19749825402698
  0
ARC
  8
0
  6
CONTINUOUS
 62
     3
 10
12.5
 20
-290
 40
64
 50
81.30455697402664
 51
98.1975204142466
  0
ARC
  8
0
  6
CONTINUOUS
 62
     3
 10
12.5
 20
-290
 40
64
 50
141.3045518134896
 51
158.1975084235204
  0
ARC
  8
0
  6
CONTINUOUS
 62
     3
 10
12.5
 20
-290
 40
64
 50
201.3045707859857
 51
218.1975137356381
  0
ARC
  8
0
  6
CONTINUOUS
 62
     3
 10
12.5
 20
-290
 40
64
 50
261.3045656254486
 51
278.1975085751011
  0
ARC
  8
0
  6
CONTINUOUS
 62
     3
 10
12.5
 20
-290
 40
64
 50
321.3045604649116
 51
338.197503414564
  0
ARC
  8
0
  6
CONTINUOUS
 62
     7
 10
12.5
 20
-290
 40
17.49999999999998
 50
106.6015695841379
 51
73.39842495216357
  0
CIRCLE
  8
0
  6
CONTINUOUS
 62
     7
 10
12.5
 20
-290
 40
37.5
  0
ARC
  8
0
  6
CONTINUOUS
 62
     7
 10
12.5
 20
-290
 40
74.99999999999999
 50
116.9428106668065
 51
123.057277974072
  0
ARC
  8
0
  6
CONTINUOUS
 62
     7
 10
12.5
 20
-290
 40
75.00000000000001
 50
103.9428023364945
 51
110.05726964376
  0
ARC
  8
0
  6
CONTINUOUS
 62
     7
 10
12.5
 20
-290
 40
75
 50
53.39618545930109
 51
96.89213466007376
  0
ARC
  8
0
  6
CONTINUOUS
 62
     7
 10
-5.6722412109375
 20
-186.9398651123047
 40
3.150000095367433
 50
9.999998855319467
 51
189.9999620293669
  0
ARC
  8
0
  6
CONTINUOUS
 62
     7
 10
-7.315216064453125
 20
-213.7829742431641
 40
1.000000000000008
 50
117.6670839263944
 51
179.9999503674436
  0
ARC
  8
0
  6
CONTINUOUS
 62
     7
 10
5.052520751953125
 20
-211.6022033691406
 40
0.999999999999999
 50
20.00001137101667
 51
82.33288293470702
  0
ARC
  8
0
  6
CONTINUOUS
 62
     7
 10
3.302886962890625
 20
-213.9415588378906
 40
1.000000000000001
 50
189.9999793322113
 51
280.0000159876348
  0
ARC
  8
0
  6
CONTINUOUS
 62
     7
 10
-4.871002197265625
 20
-215.3828430175781
 40
0.9999999999999992
 50
279.9999613461216
 51
9.999998855319555
  0
ARC
  8
0
  6
CONTINUOUS
 62
     7
 10
481
 20
-76.5
 40
3.000000000000003
 50
269.9999974955215
 51
343.6299507199943
  0
ARC
  8
0
  6
CONTINUOUS
 62
     7
 10
515
 20
-82.5
 40
5.000000000000004
 50
270.0000179860897
 51
0
  0
ARC
  8
0
  6
CONTINUOUS
 62
     7
 10
515
 20
82.50003051757812
 40
5
 50
0
 51
89.99998201391031
  0
ARC
  8
0
  6
CONTINUOUS
 62
     7
 10
375
 20
82.50003051757812
 40
5.000000000000004
 50
89.99998201391097
 51
179.9999640278213
  0
ARC
  8
0
  6
CONTINUOUS
 62
     7
 10
375
 20
-82.5
 40
4.999999999999981
 50
179.9999776881996
 51
270.0000280040023
  0
CIRCLE
  8
0
  6
CONTINUOUS
 62
     7
 10
385
 20
-72.5
 40
6
  0
CIRCLE
  8
0
  6
CONTINUOUS
 62
     7
 10
385
 20
72.5
 40
6
  0
CIRCLE
  8
0
  6
CONTINUOUS
 62
     7
 10
505
 20
-72.5
 40
6
  0
CIRCLE
  8
0
  6
CONTINUOUS
 62
     7
 10
505
 20
72.5
 40
6
  0
ARC
  8
0
  6
CONTINUOUS
 62
     7
 10
343
 20
0
 40
5
 50
270.0000179860891
 51
89.99998201391097
  0
ARC
  8
0
  6
CONTINUOUS
 62
     7
 10
421
 20
56.8935546875
 40
5.000000000000002
 50
273.0000009940987
 51
0
  0
ARC
  8
0
  6
CONTINUOUS
 62
     7
 10
421
 20
-56.89352416992188
 40
5
 50
0
 51
86.99999900590066
  0
ARC
  8
0
  6
CONTINUOUS
 62
     7
 10
481
 20
76.50003051757812
 40
3.000000000000025
 50
20.02283274058108
 51
90.00000250447847
  0
ARC
  8
0
  6
CONTINUOUS
 62
     7
 10
607.5
 20
0
 40
3
 50
89.99998201390989
 51
269.9999460417318
  0
ARC
  8
0
  6
CONTINUOUS
 62
     7
 10
493
 20
57.5
 40
4.999999999999981
 50
179.9999776881996
 51
270.0000280040023
  0
ARC
  8
0
  6
CONTINUOUS
 62
     7
 10
508
 20
57.5
 40
4.999999999999997
 50
269.9999974955215
 51
0
  0
ARC
  8
0
  6
CONTINUOUS
 62
     7
 10
508
 20
-57.5
 40
5
 50
0
 51
90.00000250447847
  0
ARC
  8
0
  6
CONTINUOUS
 62
     7
 10
493
 20
-57.5
 40
4.999999999999997
 50
89.99998201391097
 51
179.9999640278213
  0
POLYLINE
  8
0
  6
CONTINUOUS
 62
     7
 66
     1
 10
0
 20
0
 70
     1
  0
VERTEX
  8
0
  6
CONTINUOUS
 62
     7
 10
496
 20
-199.8900909423828
 42
0.1005697614596667
  0
VERTEX
  8
0
  6
CONTINUOUS
 62
     7
 10
495.2286164258951
 20
-196.0972835948851
 42
0.09931459426854636
  0
VERTEX
  8
0
  6
CONTINUOUS
 62
     7
 10
493.0449283026197
 20
-192.900797913141
 42
0.09762475566248846
  0
VERTEX
  8
0
  6
CONTINUOUS
 62
     7
 10
489.8027735203133
 20
-190.7818698241244
 42
0.09645742494750394
  0
VERTEX
  8
0
  6
CONTINUOUS
 62
     7
 10
486
 20
-190.0420074462891
 42
0.09643683433007488
  0
VERTEX
  8
0
  6
CONTINUOUS
 62
     7
 10
482.1979889324393
 20
-190.7815611270046
 42
0.09759325526352944
  0
VERTEX
  8
0
  6
CONTINUOUS
 62
     7
 10
478.9565369725482
 20
-192.8993658033249
 42
0.09935255147165219
  0
VERTEX
  8
0
  6
CONTINUOUS
 62
     7
 10
476.7715980621025
 20
-196.0967774812675
 42
0.1005839922554195
  0
VERTEX
  8
0
  6
CONTINUOUS
 62
     7
 10
476
 20
-199.8900909423828
 42
0.10056993805868
  0
VERTEX
  8
0
  6
CONTINUOUS
 62
     7
 10
476.7713844715514
 20
-203.6828980014489
 42
0.09931486592913105
  0
VERTEX
  8
0
  6
CONTINUOUS
 62
     7
 10
478.955076428439
 20
-206.8793809132591
 42
0.09762481604128558
  0
VERTEX
  8
0
  6
CONTINUOUS
 62
     7
 10
482.1972352694487
 20
-208.9983027098581
 42
0.09645692972527561
  0
VERTEX
  8
0
  6
CONTINUOUS
 62
     7
 10
486
 20
-209.7381591796875
 42
0.09643659111141016
  0
VERTEX
  8
0
  6
CONTINUOUS
 62
     7
 10
489.8020116123553
 20
-208.9986076263891
 42
0.09759332041094901
  0
VERTEX
  8
0
  6
CONTINUOUS
 62
     7
 10
493.0434655186983
 20
-206.8808059607914
 42
0.09935282727087995
  0
VERTEX
  8
0
  6
CONTINUOUS
 62
     7
 10
495.2284049781671
 20
-203.6833948232787
 42
0.1005839080411629
  0
SEQEND
  8
0
  0
POLYLINE
  8
0
  6
CONTINUOUS
 62
     7
 66
     1
 10
0
 20
0
  0
VERTEX
  8
0
  6
CONTINUOUS
 62
     7
 10
493.133260319332
 20
-211.6705082286607
 42
0.2015082714047511
  0
VERTEX
  8
0
  6
CONTINUOUS
 62
     7
 10
492.4032570372444
 20
-211.1620278178304
 42
0.03155962249729306
  0
VERTEX
  8
0
  6
CONTINUOUS
 62
     7
 10
491.513428586751
 20
-210.9229466748142
 42
0.01542694082223568
  0
VERTEX
  8
0
  6
CONTINUOUS
 62
     7
 10
490.6057895615067
 20
-210.7635852299206
 42
0.01021026469517437
  0
VERTEX
  8
0
  6
CONTINUOUS
 62
     7
 10
489.6902648884376
 20
-210.6497806231095
 42
0.007829247746756335
  0
VERTEX
  8
0
  6
CONTINUOUS
 62
     7
 10
488.7711859274284
 20
-210.5686921155886
 42
0.006588713842191973
  0
VERTEX
  8
0
  6
CONTINUOUS
 62
     7
 10
487.8499521814702
 20
-210.5139474174719
 42
0.005931101374143813
  0
VERTEX
  8
0
  6
CONTINUOUS
 62
     7
 10
486.9275498075578
 20
-210.4821798476608
 42
0.005641265167967899
  0
VERTEX
  8
0
  6
CONTINUOUS
 62
     7
 10
486.0046231181427
 20
-210.4716952056555
 42
0.005639189148694743
  0
VERTEX
  8
0
  6
CONTINUOUS
 62
     7
 10
485.0818052347442
 20
-210.481968535918
 42
0.005918164220033197
  0
VERTEX
  8
0
  6
CONTINUOUS
 62
     7
 10
484.1606368483845
 20
-210.5134566653092
 42
0.006584376604926416
  0
VERTEX
  8
0
  6
CONTINUOUS
 62
     7
 10
483.2386271257536
 20
-210.5679774050531
 42
0.007814520412701685
  0
VERTEX
  8
0
  6
CONTINUOUS
 62
     7
 10
482.3191934726263
 20
-210.6487926334559
 42
0.01018488360754208
  0
VERTEX
  8
0
  6
CONTINUOUS
 62
     7
 10
481.4029309451887
 20
-210.7623111264577
 42
0.01540565567861852
  0
VERTEX
  8
0
  6
CONTINUOUS
 62
     7
 10
480.4926603793591
 20
-210.9216651729646
 42
0.03141742369793835
  0
VERTEX
  8
0
  6
CONTINUOUS
 62
     7
 10
479.6013798084895
 20
-211.1603987084411
 42
0.1997036642487
  0
VERTEX
  8
0
  6
CONTINUOUS
 62
     7
 10
478.8671489644616
 20
-211.6682280128126
 42
0
  0
SEQEND
  8
0
  0
POLYLINE
  8
0
  6
CONTINUOUS
 62
     7
 66
     1
 10
0
 20
0
  0
VERTEX
  8
0
  6
CONTINUOUS
 62
     7
 10
493.5611857662015
 20
-214.1081479795612
 42
0.08272224610719939
  0
VERTEX
  8
0
  6
CONTINUOUS
 62
     7
 10
497.8481256351076
 20
-210.9067977993126
 42
0.08385196407262807
  0
VERTEX
  8
0
  6
CONTINUOUS
 62
     7
 10
500.8558268195329
 20
-206.4818587292409
 42
0.08471339104961656
  0
VERTEX
  8
0
  6
CONTINUOUS
 62
     7
 10
502.2338859651703
 20
-201.312500517541
 42
0.08490374353110275
  0
VERTEX
  8
0
  6
CONTINUOUS
 62
     7
 10
501.816619700727
 20
-195.9801507077654
 42
0.08436947758507711
  0
VERTEX
  8
0
  6
CONTINUOUS
 62
     7
 10
499.6548408370375
 20
-191.0869055890044
 42
0.08333442676211092
  0
VERTEX
  8
0
  6
CONTINUOUS
 62
     7
 10
496.0050664009047
 20
-187.1746339261114
 42
0.08226418733020949
  0
VERTEX
  8
0
  6
CONTINUOUS
 62
     7
 10
491.2826987083848
 20
-184.6575648400349
 42
0.08162580224457225
  0
VERTEX
  8
0
  6
CONTINUOUS
 62
     7
 10
486
 20
-183.7898559570313
 42
0.08158656035584351
  0
VERTEX
  8
0
  6
CONTINUOUS
 62
     7
 10
480.719732259612
 20
-184.656743672892
 42
0.08224720682325769
  0
VERTEX
  8
0
  6
CONTINUOUS
 62
     7
 10
475.9978188659691
 20
-187.172421905176
 42
0.08333895139426112
  0
VERTEX
  8
0
  6
CONTINUOUS
 62
     7
 10
472.3469771366065
 20
-191.0841556842338
 42
0.08437838601906444
  0
VERTEX
  8
0
  6
CONTINUOUS
 62
     7
 10
470.1840421068166
 20
-195.9775314094218
 42
0.08490739937959403
  0
VERTEX
  8
0
  6
CONTINUOUS
 62
     7
 10
469.7658893208628
 20
-201.3100449677546
 42
0.08470956744726998
  0
VERTEX
  8
0
  6
CONTINUOUS
 62
     7
 10
471.1430389621768
 20
-206.479380661759
 42
0.08383810926026689
  0
VERTEX
  8
0
  6
CONTINUOUS
 62
     7
 10
474.1493496963619
 20
-210.9041617364767
 42
0.08273741865116652
  0
VERTEX
  8
0
  6
CONTINUOUS
 62
     7
 10
478.4364054732181
 20
-214.1069037545193
 42
0
  0
SEQEND
  8
0
  0
POLYLINE
  8
0
  6
CONTINUOUS
 62
     7
 66
     1
 10
0
 20
0
  0
VERTEX
  8
0
  6
CONTINUOUS
 62
     7
 10
478.2619022221351
 20
10.93737814818253
 42
0.04188730367415531
  0
VERTEX
  8
0
  6
CONTINUOUS
 62
     7
 10
478.7020344841995
 20
9.709403999588023
 42
0.0416559483739188
  0
VERTEX
  8
0
  6
CONTINUOUS
 62
     7
 10
479.3402812820294
 20
8.571480997584219
 42
0.0413651039295721
  0
VERTEX
  8
0
  6
CONTINUOUS
 62
     7
 10
480.1577381641795
 20
7.554627661301525
 42
0.04106114708351421
  0
VERTEX
  8
0
  6
CONTINUOUS
 62
     7
 10
481.1310482054422
 20
6.685491964297051
 42
0.0407735773251893
  0
VERTEX
  8
0
  6
CONTINUOUS
 62
     7
 10
482.2331206473257
 20
5.986312499169606
 42
0.04052878174778893
  0
VERTEX
  8
0
  6
CONTINUOUS
 62
     7
 10
483.4339797017339
 20
5.474564569895137
 42
0.04034729443311775
  0
VERTEX
  8
0
  6
CONTINUOUS
 62
     7
 10
484.7015544560752
 20
5.162753377309821
 42
0.0402351147611876
  0
VERTEX
  8
0
  6
CONTINUOUS
 62
     7
 10
486.0021778129697
 20
5.058288866146238
 42
0.0402282341703426
  0
VERTEX
  8
0
  6
CONTINUOUS
 62
     7
 10
487.3025196657524
 20
5.163414401938661
 42
0.04031551583042946
  0
VERTEX
  8
0
  6
CONTINUOUS
 62
     7
 10
488.5689486216773
 20
5.475541793439424
 42
0.04051141576204392
  0
VERTEX
  8
0
  6
CONTINUOUS
 62
     7
 10
489.7691032684894
 20
5.987481882585714
 42
0.04075983235441923
  0
VERTEX
  8
0
  6
CONTINUOUS
 62
     7
 10
490.8705931556671
 20
6.686732166066837
 42
0.04106008099383986
  0
VERTEX
  8
0
  6
CONTINUOUS
 62
     7
 10
491.8436447586855
 20
7.556083921328609
 42
0.04137779398192187
  0
VERTEX
  8
0
  6
CONTINUOUS
 62
     7
 10
492.6610580729467
 20
8.573463371376498
 42
0.04167556173290486
  0
VERTEX
  8
0
  6
CONTINUOUS
 62
     7
 10
493.2992052336398
 20
9.712124199119204
 42
0.04191649456144062
  0
VERTEX
  8
0
  6
CONTINUOUS
 62
     7
 10
493.7390962624776
 20
10.94112975636098
 42
0
  0
SEQEND
  8
0
  0
POLYLINE
  8
0
  6
CONTINUOUS
 62
     7
 66
     1
 10
0
 20
0
 70
     1
  0
VERTEX
  8
0
  6
CONTINUOUS
 62
     7
 10
486
 20
15.07009887695313
 42
0.01162476452189756
  0
VERTEX
  8
0
  6
CONTINUOUS
 62
     7
 10
482.5818891266273
 20
14.99160828867686
 42
0.01447217399078521
  0
VERTEX
  8
0
  6
CONTINUOUS
 62
     7
 10
479.1713792691482
 20
14.73808060470511
 42
0.02556038781701941
  0
VERTEX
  8
0
  6
CONTINUOUS
 62
     7
 10
475.7910452185806
 20
14.22591025962467
 42
0.1952839009470676
  0
VERTEX
  8
0
  6
CONTINUOUS
 62
     7
 10
472.85001214316
 20
12.78443255642296
 42
0.193898769165338
  0
VERTEX
  8
0
  6
CONTINUOUS
 62
     7
 10
475.7942839600086
 20
11.34665175964834
 42
0.02553136055714043
  0
VERTEX
  8
0
  6
CONTINUOUS
 62
     7
 10
479.1729289292065
 20
10.83502013040027
 42
0.0144658324255128
  0
VERTEX
  8
0
  6
CONTINUOUS
 62
     7
 10
482.582344894868
 20
10.58164084475829
 42
0.01162275125249993
  0
VERTEX
  8
0
  6
CONTINUOUS
 62
     7
 10
486
 20
10.503173828125
 42
0.01162444772987065
  0
VERTEX
  8
0
  6
CONTINUOUS
 62
     7
 10
489.4181109421925
 20
10.58166215016709
 42
0.01447191320538579
  0
VERTEX
  8
0
  6
CONTINUOUS
 62
     7
 10
492.8286212821456
 20
10.83518367267387
 42
0.02556016153306045
  0
VERTEX
  8
0
  6
CONTINUOUS
 62
     7
 10
496.2089567942722
 20
11.34734461322043
 42
0.1952857525117313
  0
VERTEX
  8
0
  6
CONTINUOUS
 62
     7
 10
499.149987828509
 20
12.78881475813332
 42
0.1938970346387079
  0
VERTEX
  8
0
  6
CONTINUOUS
 62
     7
 10
496.2057157601428
 20
14.22660275370711
 42
0.02553159831798626
  0
VERTEX
  8
0
  6
CONTINUOUS
 62
     7
 10
492.8270722648019
 20
14.73824396651164
 42
0.014466095790134
  0
VERTEX
  8
0
  6
CONTINUOUS
 62
     7
 10
489.4176567800719
 20
14.99162951316865
 42
0.01162307440157528
  0
SEQEND
  8
0
  0
POLYLINE
  8
0
  6
CONTINUOUS
 62
     7
 66
     1
 10
0
 20
0
  0
VERTEX
  8
0
  6
CONTINUOUS
 62
     7
 10
496.9263000488281
 20
20.26150512695312
 42
-0.01843525202588635
  0
VERTEX
  8
0
  6
CONTINUOUS
 62
     7
 10
497.9072733381458
 20
20.02168617099631
 42
-0.00507882525242565
  0
VERTEX
  8
0
  6
CONTINUOUS
 62
     7
 10
498.8766875904496
 20
19.73862479335442
 42
-0.02696868374645424
  0
VERTEX
  8
0
  6
CONTINUOUS
 62
     7
 10
499.8273937958932
 20
19.3987530764499
 42
-0.05660729878813966
  0
VERTEX
  8
0
  6
CONTINUOUS
 62
     7
 10
500.7071915845821
 20
18.90715549538541
 42
-0.06337965065018744
  0
VERTEX
  8
0
  6
CONTINUOUS
 62
     7
 10
501.4349882104043
 20
18.21049247414176
 42
-0.06341675255995589
  0
VERTEX
  8
0
  6
CONTINUOUS
 62
     7
 10
501.9713319731756
 20
17.35648027882926
 42
-0.072128435190576
  0
VERTEX
  8
0
  6
CONTINUOUS
 62
     7
 10
502.256915311934
 20
16.39152965431817
 42
-0.07237625315357536
  0
VERTEX
  8
0
  6
CONTINUOUS
 62
     7
 10
502.2568037469753
 20
15.38527765115636
 42
-0.07211558853129964
  0
VERTEX
  8
0
  6
CONTINUOUS
 62
     7
 10
501.9710981264092
 20
14.4205679948472
 42
-0.06331753536177004
  0
VERTEX
  8
0
  6
CONTINUOUS
 62
     7
 10
501.4356522430909
 20
13.56787907354877
 42
-0.06336647317125475
  0
VERTEX
  8
0
  6
CONTINUOUS
 62
     7
 10
500.7080409638203
 20
12.87102464534024
 42
-0.056639161816531
  0
VERTEX
  8
0
  6
CONTINUOUS
 62
     7
 10
499.8283447011474
 20
12.37921391879989
 42
-0.02700149179082581
  0
VERTEX
  8
0
  6
CONTINUOUS
 62
     7
 10
498.8774463354443
 20
12.03916600952237
 42
-0.005084234218348567
  0
VERTEX
  8
0
  6
CONTINUOUS
 62
     7
 10
497.907514119507
 20
11.75593817855074
 42
-0.01843767337789463
  0
VERTEX
  8
0
  6
CONTINUOUS
 62
     7
 10
496.9263000488281
 20
11.51605224609375
 42
0
  0
SEQEND
  8
0
  0
POLYLINE
  8
0
  6
CONTINUOUS
 62
     7
 66
     1
 10
0
 20
0
  0
VERTEX
  8
0
  6
CONTINUOUS
 62
     7
 10
496.9314048289556
 20
20.26018562728212
 42
0.01754280247148059
  0
VERTEX
  8
0
  6
CONTINUOUS
 62
     7
 10
495.5899370004203
 20
20.55332861378042
 42
0.01105000106663299
  0
VERTEX
  8
0
  6
CONTINUOUS
 62
     7
 10
494.2336490925239
 20
20.77138152718539
 42
0.008116753947639558
  0
VERTEX
  8
0
  6
CONTINUOUS
 62
     7
 10
492.869275033338
 20
20.93806667291368
 42
0.00653121455291342
  0
VERTEX
  8
0
  6
CONTINUOUS
 62
     7
 10
491.5008428141854
 20
21.06499833982714
 42
0.005600166967224911
  0
VERTEX
  8
0
  6
CONTINUOUS
 62
     7
 10
490.129464668468
 20
21.15887408478449
 42
0.005037299046474346
  0
VERTEX
  8
0
  6
CONTINUOUS
 62
     7
 10
488.7560748062272
 20
21.2236686663077
 42
0.004711430493024612
  0
VERTEX
  8
0
  6
CONTINUOUS
 62
     7
 10
487.3815881704423
 20
21.26174597165706
 42
0.004560874606672297
  0
VERTEX
  8
0
  6
CONTINUOUS
 62
     7
 10
486.0066224349903
 20
21.27438325536233
 42
0.004559742370438895
  0
VERTEX
  8
0
  6
CONTINUOUS
 62
     7
 10
484.6317827739625
 20
21.26199006405943
 42
0.004705488727859031
  0
VERTEX
  8
0
  6
CONTINUOUS
 62
     7
 10
483.2583480273248
 20
21.22420401926932
 42
0.005034824033439912
  0
VERTEX
  8
0
  6
CONTINUOUS
 62
     7
 10
481.8844006311995
 20
21.15966894912224
 42
0.005594377643006591
  0
VERTEX
  8
0
  6
CONTINUOUS
 62
     7
 10
480.5126631807536
 20
21.06607682664444
 42
0.006523128034336469
  0
VERTEX
  8
0
  6
CONTINUOUS
 62
     7
 10
479.143492488479
 20
20.93942309762384
 42
0.008102150586964835
  0
VERTEX
  8
0
  6
CONTINUOUS
 62
     7
 10
477.7783449725727
 20
20.77305200027109
 42
0.01103428390013743
  0
VERTEX
  8
0
  6
CONTINUOUS
 62
     7
 10
476.4199077333646
 20
20.55514866948618
 42
0.01751373987313575
  0
VERTEX
  8
0
  6
CONTINUOUS
 62
     7
 10
475.075787224559
 20
20.26205137394806
 42
0
  0
SEQEND
  8
0
  0
POLYLINE
  8
0
  6
CONTINUOUS
 62
     7
 66
     1
 10
0
 20
0
  0
VERTEX
  8
0
  6
CONTINUOUS
 62
     7
 10
475.0736999511719
 20
20.26150512695312
 42
0.01843525202588635
  0
VERTEX
  8
0
  6
CONTINUOUS
 62
     7
 10
474.0927266618542
 20
20.02168617099631
 42
0.00507882525242565
  0
VERTEX
  8
0
  6
CONTINUOUS
 62
     7
 10
473.1233124095504
 20
19.73862479335442
 42
0.02696868374645429
  0
VERTEX
  8
0
  6
CONTINUOUS
 62
     7
 10
472.1726062041068
 20
19.3987530764499
 42
0.05660729878813966
  0
VERTEX
  8
0
  6
CONTINUOUS
 62
     7
 10
471.2928084154179
 20
18.90715549538541
 42
0.06337965065018741
  0
VERTEX
  8
0
  6
CONTINUOUS
 62
     7
 10
470.5650117895957
 20
18.21049247414176
 42
0.06341675255995594
  0
VERTEX
  8
0
  6
CONTINUOUS
 62
     7
 10
470.0286680268244
 20
17.35648027882926
 42
0.07212843519057609
  0
VERTEX
  8
0
  6
CONTINUOUS
 62
     7
 10
469.743084688066
 20
16.39152965431817
 42
0.07237625315357402
  0
VERTEX
  8
0
  6
CONTINUOUS
 62
     7
 10
469.7431962530247
 20
15.38527765115636
 42
0.07211558853129975
  0
VERTEX
  8
0
  6
CONTINUOUS
 62
     7
 10
470.0289018735908
 20
14.4205679948472
 42
0.06331753536177004
  0
VERTEX
  8
0
  6
CONTINUOUS
 62
     7
 10
470.5643477569091
 20
13.56787907354877
 42
0.06336647317125475
  0
VERTEX
  8
0
  6
CONTINUOUS
 62
     7
 10
471.2919590361797
 20
12.87102464534024
 42
0.056639161816531
  0
VERTEX
  8
0
  6
CONTINUOUS
 62
     7
 10
472.1716552988526
 20
12.37921391879989
 42
0.02700149179082581
  0
VERTEX
  8
0
  6
CONTINUOUS
 62
     7
 10
473.1225536645557
 20
12.03916600952237
 42
0.005084234218348345
  0
VERTEX
  8
0
  6
CONTINUOUS
 62
     7
 10
474.092485880493
 20
11.75593817855074
 42
0.01843767337789486
  0
VERTEX
  8
0
  6
CONTINUOUS
 62
     7
 10
475.0736999511719
 20
11.51605224609375
 42
0
  0
SEQEND
  8
0
  0
TEXT
  8
0
  6
CONTINUOUS
 62
     7
 10
-51.4285728931427
 20
-9
 40
18
 41
1.008403413435992
  1
ER-NAB
  0
ENDSEC
  0
EOF
