  0
SECTION
  2
HEADER
  0
ENDSEC
  0
SECTION
  2
TABLES
  0
TABLE
  2
LTYPE
 70
    22
  0
LTYPE
  2
CONTINUOUS
 70
    64
  3
Solid line
 72
    65
 73
     0
 40
0.000000
  0
LTYPE
  2
DASHED
 70
    64
  3
__ __ __ __ __ __ __ __ __ __ __ __ __ __ __
 72
    65
 73
     2
 40
3.500000
 49
2.000000
 49
-1.500000
  0
LTYPE
  2
CENTER
 70
    64
  3
____ _ ____ _ ____ _ ____ _ ____ _ ____ _ ____
 72
    65
 73
     4
 40
17.500000
 49
13.000000
 49
-1.500000
 49
1.500000
 49
-1.500000
  0
LTYPE
  2
PHANTOM
 70
    64
  3
_____ _ _ _____ _ _ _____ _ _ _____ _ _ ____  
 72
    65
 73
     6
 40
15.500000
 49
8.000000
 49
-1.500000
 49
1.500000
 49
-1.500000
 49
1.500000
 49
-1.500000
  0
LTYPE
  2
DOT
 70
    64
  3
. . . . . . . . . . . . . . . . . . . . . . . .
 72
    65
 73
     2
 40
0.25
 49
0.0
 49
-0.25
  0
ENDTAB
  0
TABLE
  2
LAYER
 70
     1
  0
LAYER
  2
0
 70
     0
 62
     7
  6
CONTINUOUS
  0
ENDTAB
  0
TABLE
  2
STYLE
 70
     1
  0
STYLE
  2
STANDARD
 70
     0
 40
0.000000
 41
1.000000
 50
0.000000
 71
     0
 42
0.200000
  3
txt
  0
ENDTAB
  0
TABLE
  2
VIEW
 70
     0
  0
ENDTAB
  0
ENDSEC
  0
SECTION
  2
BLOCKS
  0
ENDSEC
  0
SECTION
  2
ENTITIES
  0
LINE
  8
0
  6
CONTINUOUS
 62
     7
 10
-6.507794857025146
 20
-221.2601776123047
 11
-5.058300971984863
 21
-225.2426300048828
  0
LINE
  8
0
  6
CONTINUOUS
 62
     7
 10
-10.88452243804932
 20
-220.1305084228516
 11
-7.314069747924805
 21
-220.6111755371094
  0
LINE
  8
0
  6
CONTINUOUS
 62
     7
 10
-15.07006359100342
 20
-196.3928527832031
 11
-10.18186855316162
 21
-224.1151885986328
  0
LINE
  8
0
  6
CONTINUOUS
 62
     7
 10
-20.81521606445312
 20
-223.7829742431641
 11
-20.81521606445312
 21
-228.02099609375
  0
LINE
  8
0
  6
CONTINUOUS
 62
     7
 10
-17.08880424499512
 20
-221.2244873046875
 11
-20.27953910827637
 21
-222.8973236083984
  0
LINE
  8
0
  6
CONTINUOUS
 62
     7
 10
-21.27434921264648
 20
-197.4868316650391
 11
-16.38615608215332
 21
-225.2091674804687
  0
LINE
  8
0
  6
CONTINUOUS
 62
     7
 10
-5.058268547058105
 20
-225.2425994873047
 11
-4.634085655212402
 21
-227.6482543945313
  0
LINE
  8
0
  6
CONTINUOUS
 62
     7
 10
-20.81521606445312
 20
-228.0210418701172
 11
-20.39104652404785
 21
-230.4266204833984
  0
LINE
  8
0
  6
CONTINUOUS
 62
     3
 10
-96.08383941650391
 20
-300
 11
96.08260345458984
 21
-300
  0
LINE
  8
0
  6
CONTINUOUS
 62
     3
 10
0
 20
-211.5
 11
0
 21
-405
  0
LINE
  8
0
  6
CONTINUOUS
 62
     7
 10
-87.5
 20
-390
 11
-47.5
 21
-390
  0
LINE
  8
0
  6
CONTINUOUS
 62
     7
 10
-87.5
 20
-374
 11
-87.5
 21
-390
  0
LINE
  8
0
  6
CONTINUOUS
 62
     7
 10
87.5
 20
-374
 11
87.5
 21
-390
  0
LINE
  8
0
  6
CONTINUOUS
 62
     7
 10
-87.5
 20
-374
 11
-47.5
 21
-374
  0
LINE
  8
0
  6
CONTINUOUS
 62
     7
 10
-44.5
 20
-387
 11
44.5
 21
-387
  0
LINE
  8
0
  6
CONTINUOUS
 62
     7
 10
-47.5
 20
-374
 11
-47.5
 21
-390
  0
LINE
  8
0
  6
CONTINUOUS
 62
     7
 10
47.5
 20
-374
 11
47.5
 21
-390
  0
LINE
  8
0
  6
CONTINUOUS
 62
     7
 10
47.5
 20
-374
 11
87.5
 21
-374
  0
LINE
  8
0
  6
CONTINUOUS
 62
     7
 10
47.5
 20
-390
 11
87.5
 21
-390
  0
LINE
  8
0
  6
CONTINUOUS
 62
     7
 10
41.56008529663086
 20
-263.9604797363281
 11
52.54126739501953
 21
-260.0009765625
  0
LINE
  8
0
  6
CONTINUOUS
 62
     7
 10
51.98717498779297
 20
-282.0225524902344
 11
60.90682220458984
 21
-274.4923095703125
  0
LINE
  8
0
  6
CONTINUOUS
 62
     7
 10
-10.42958736419678
 20
-245.9883422851563
 11
-8.368015289306641
 21
-234.49853515625
  0
LINE
  8
0
  6
CONTINUOUS
 62
     7
 10
10.42675876617432
 20
-245.9887084960937
 11
8.365205764770508
 21
-234.4990081787109
  0
LINE
  8
0
  6
CONTINUOUS
 62
     3
 10
50.2479248046875
 20
-270.9881286621094
 11
62.63628005981445
 21
-263.8357238769531
  0
LINE
  8
0
  6
CONTINUOUS
 62
     7
 10
-51.98984909057617
 20
-282.0260314941406
 11
-60.90946960449219
 21
-274.4958190917969
  0
LINE
  8
0
  6
CONTINUOUS
 62
     7
 10
-41.56135940551758
 20
-263.9633178710938
 11
-52.54254150390625
 21
-260.0037841796875
  0
LINE
  8
0
  6
CONTINUOUS
 62
     3
 10
-47.12594604492187
 20
-272.7916564941406
 11
-61.03079605102539
 21
-264.763671875
  0
LINE
  8
0
  6
CONTINUOUS
 62
     7
 10
-41.56193161010742
 20
-336.0347595214844
 11
-52.54311370849609
 21
-339.9942626953125
  0
LINE
  8
0
  6
CONTINUOUS
 62
     7
 10
-51.99099731445312
 20
-317.9727783203125
 11
-60.91064453125
 21
-325.5030212402344
  0
LINE
  8
0
  6
CONTINUOUS
 62
     3
 10
-47.64397811889648
 20
-327.5078125
 11
-62.04159927368164
 21
-335.8202819824219
  0
LINE
  8
0
  6
CONTINUOUS
 62
     7
 10
10.42457580566406
 20
-354.0106506347656
 11
8.363014221191406
 21
-365.5003967285156
  0
LINE
  8
0
  6
CONTINUOUS
 62
     7
 10
-10.43123149871826
 20
-354.0119323730469
 11
-8.369674682617188
 21
-365.5016784667969
  0
LINE
  8
0
  6
CONTINUOUS
 62
     7
 10
51.98831939697266
 20
-317.9757690429687
 11
60.90793991088867
 21
-325.5060119628906
  0
LINE
  8
0
  6
CONTINUOUS
 62
     7
 10
41.5611457824707
 20
-336.0367431640625
 11
52.54232406616211
 21
-339.9962463378906
  0
LINE
  8
0
  6
CONTINUOUS
 62
     3
 10
48.33074951171875
 20
-327.903564453125
 11
62.05522155761719
 21
-335.827392578125
  0
LINE
  8
0
  6
CONTINUOUS
 62
     7
 10
76.85211181640625
 20
-295
 11
80.58837890625
 21
-295
  0
LINE
  8
0
  6
CONTINUOUS
 62
     7
 10
-3
 20
-286.5
 11
-3
 21
-292.5
  0
LINE
  8
0
  6
CONTINUOUS
 62
     7
 10
3
 20
-286.5
 11
3
 21
-292.5
  0
LINE
  8
0
  6
CONTINUOUS
 62
     7
 10
-3
 20
-292.5
 11
3
 21
-292.5
  0
LINE
  8
0
  6
CONTINUOUS
 62
     7
 10
80.58786010742187
 20
-295
 11
87.49947357177734
 21
-374.0000305175781
  0
LINE
  8
0
  6
CONTINUOUS
 62
     7
 10
-80.58910369873047
 20
-294.9999084472656
 11
-87.50070953369141
 21
-373.9998779296875
  0
LINE
  8
0
  6
CONTINUOUS
 62
     7
 10
-76.57305908203125
 20
-295
 11
-80.58837890625
 21
-295
  0
LINE
  8
0
  6
CONTINUOUS
 62
     3
 10
-72.5
 20
-369.52587890625
 11
-72.5
 21
-393.3502807617188
  0
LINE
  8
0
  6
CONTINUOUS
 62
     3
 10
72.5
 20
-369.1353149414062
 11
72.5
 21
-393.3502807617188
  0
LINE
  8
0
  6
CONTINUOUS
 62
     7
 10
-3
 20
-286.5
 11
3
 21
-286.5
  0
LINE
  8
0
  6
DASHED
 62
     7
 10
-78.5
 20
-374
 11
-78.5
 21
-390
  0
LINE
  8
0
  6
DASHED
 62
     7
 10
-66.5
 20
-374
 11
-66.5
 21
-390
  0
LINE
  8
0
  6
DASHED
 62
     7
 10
78.5
 20
-374
 11
78.5
 21
-390
  0
LINE
  8
0
  6
DASHED
 62
     7
 10
66.5
 20
-374
 11
66.5
 21
-390
  0
LINE
  8
0
  6
CONTINUOUS
 62
     7
 10
-37.6698112487793
 20
-338.8358764648438
 11
-49.39344024658203
 21
-373.3568115234375
  0
LINE
  8
0
  6
CONTINUOUS
 62
     7
 10
37.67015075683594
 20
-338.8362121582031
 11
49.39368438720703
 21
-373.3568725585937
  0
LINE
  8
0
  6
CONTINUOUS
 62
     7
 10
36.32621765136719
 20
-290.2664184570313
 11
47.33036804199219
 21
-287.31787109375
  0
LINE
  8
0
  6
CONTINUOUS
 62
     7
 10
26.59263610839844
 20
-273.4073791503906
 11
34.64823150634766
 21
-265.3517761230469
  0
LINE
  8
0
  6
CONTINUOUS
 62
     7
 10
9.733601570129395
 20
-263.6737670898437
 11
12.68215370178223
 21
-252.6696319580078
  0
LINE
  8
0
  6
CONTINUOUS
 62
     7
 10
-9.733590126037598
 20
-263.6737976074219
 11
-12.68214321136475
 21
-252.6696319580078
  0
LINE
  8
0
  6
CONTINUOUS
 62
     7
 10
-26.59263610839844
 20
-273.4073791503906
 11
-34.64823150634766
 21
-265.3517761230469
  0
LINE
  8
0
  6
CONTINUOUS
 62
     7
 10
-36.32621383666992
 20
-290.2664184570313
 11
-47.3303337097168
 21
-287.31787109375
  0
LINE
  8
0
  6
CONTINUOUS
 62
     7
 10
-36.32621383666992
 20
-309.7335815429688
 11
-47.33036422729492
 21
-312.68212890625
  0
LINE
  8
0
  6
CONTINUOUS
 62
     7
 10
-25.45584487915039
 20
-325.4558410644531
 11
-35.7515754699707
 21
-335.7515869140625
  0
LINE
  8
0
  6
CONTINUOUS
 62
     7
 10
-9.733562469482422
 20
-336.3262329101563
 11
-12.68211364746094
 21
-347.3303527832031
  0
LINE
  8
0
  6
CONTINUOUS
 62
     7
 10
9.73357105255127
 20
-336.3262329101563
 11
12.68212413787842
 21
-347.3303527832031
  0
LINE
  8
0
  6
CONTINUOUS
 62
     7
 10
26.59263610839844
 20
-326.5926208496094
 11
35.75192260742187
 21
-335.7519226074219
  0
LINE
  8
0
  6
CONTINUOUS
 62
     7
 10
36.32624816894531
 20
-309.7335815429688
 11
47.33039474487305
 21
-312.68212890625
  0
LINE
  8
0
  6
CONTINUOUS
 62
     7
 10
-9.8349609375
 20
-257.5
 11
9.8349609375
 21
-257.5
  0
LINE
  8
0
  6
CONTINUOUS
 62
     7
 10
-41
 20
-290.5670776367188
 11
-41
 21
-309.43310546875
  0
LINE
  8
0
  6
CONTINUOUS
 62
     7
 10
-9.83526611328125
 20
-342.5
 11
9.83441162109375
 21
-342.5
  0
LINE
  8
0
  6
CONTINUOUS
 62
     7
 10
41
 20
-290.5669555664062
 11
41
 21
-309.4340209960938
  0
LINE
  8
0
  6
CONTINUOUS
 62
     3
 10
187.2955322265625
 20
-300
 11
488.5415344238281
 21
-300
  0
LINE
  8
0
  6
CONTINUOUS
 62
     7
 10
369.5
 20
-226.5
 11
369.5
 21
-373.5
  0
LINE
  8
0
  6
CONTINUOUS
 62
     7
 10
339.5
 20
-227.5
 11
339.5
 21
-242.5
  0
LINE
  8
0
  6
CONTINUOUS
 62
     7
 10
359.5
 20
-227.5
 11
359.5
 21
-372.5
  0
LINE
  8
0
  6
CONTINUOUS
 62
     7
 10
359.5
 20
-227.5
 11
369.5
 21
-227.5
  0
LINE
  8
0
  6
CONTINUOUS
 62
     7
 10
359.5
 20
-372.5
 11
369.5
 21
-372.5
  0
LINE
  8
0
  6
CONTINUOUS
 62
     7
 10
339.5
 20
-247.5
 11
354.5
 21
-247.5
  0
LINE
  8
0
  6
CONTINUOUS
 62
     7
 10
339.5
 20
-352.5
 11
354.5
 21
-352.5
  0
LINE
  8
0
  6
CONTINUOUS
 62
     7
 10
334.5
 20
-230.4266357421875
 11
334.5
 21
-359.8395080566406
  0
LINE
  8
0
  6
CONTINUOUS
 62
     7
 10
339.5
 20
-357.5
 11
339.5
 21
-370.9423217773438
  0
LINE
  8
0
  6
CONTINUOUS
 62
     7
 10
334.5
 20
-230.4266357421875
 11
339.5
 21
-230.4266357421875
  0
LINE
  8
0
  6
CONTINUOUS
 62
     7
 10
324.5
 20
-227.5
 11
340.5
 21
-227.5
  0
LINE
  8
0
  6
CONTINUOUS
 62
     7
 10
325.3667907714844
 20
-221.6702270507812
 11
324.5
 21
-226.6106719970703
  0
LINE
  8
0
  6
CONTINUOUS
 62
     7
 10
339.6332092285156
 20
-221.6702270507812
 11
340.5
 21
-226.6107025146484
  0
LINE
  8
0
  6
CONTINUOUS
 62
     7
 10
332.5
 20
-219.7381744384766
 11
326.9438781738281
 21
-220.9320373535156
  0
LINE
  8
0
  6
CONTINUOUS
 62
     7
 10
332.5
 20
-219.7381744384766
 11
338.0560302734375
 21
-220.9320220947266
  0
LINE
  8
0
  6
CONTINUOUS
 62
     7
 10
340.5
 20
-226.6106872558594
 11
340.5
 21
-227.5
  0
LINE
  8
0
  6
DASHED
 62
     7
 10
361
 20
-374
 11
361
 21
-390
  0
LINE
  8
0
  6
CONTINUOUS
 62
     7
 10
324.5
 20
-226.5
 11
324.5
 21
-322.5189208984375
  0
LINE
  8
0
  6
CONTINUOUS
 62
     7
 10
370
 20
-374
 11
370
 21
-390
  0
LINE
  8
0
  6
CONTINUOUS
 62
     7
 10
302
 20
-226.5
 11
324.5
 21
-226.5
  0
LINE
  8
0
  6
CONTINUOUS
 62
     7
 10
302
 20
-226.5
 11
302
 21
-295
  0
LINE
  8
0
  6
CONTINUOUS
 62
     7
 10
250
 20
-374
 11
250
 21
-390
  0
LINE
  8
0
  6
CONTINUOUS
 62
     7
 10
250
 20
-390
 11
370
 21
-390
  0
LINE
  8
0
  6
CONTINUOUS
 62
     7
 10
250
 20
-374
 11
276.8746948242187
 21
-374
  0
LINE
  8
0
  6
CONTINUOUS
 62
     7
 10
253
 20
-329.0033874511719
 11
253
 21
-374
  0
LINE
  8
0
  6
CONTINUOUS
 62
     7
 10
241
 20
-336
 11
253
 21
-336
  0
LINE
  8
0
  6
CONTINUOUS
 62
     7
 10
241
 20
-264
 11
257.4312438964844
 21
-264
  0
LINE
  8
0
  6
CONTINUOUS
 62
     7
 10
234
 20
-274.5
 11
234
 21
-325.5
  0
LINE
  8
0
  6
CONTINUOUS
 62
     7
 10
233.9999542236328
 20
-274.4998779296875
 11
240.9999542236328
 21
-270.4584045410156
  0
LINE
  8
0
  6
CONTINUOUS
 62
     7
 10
234
 20
-325.5000610351562
 11
241.0000152587891
 21
-329.54150390625
  0
LINE
  8
0
  6
CONTINUOUS
 62
     7
 10
292
 20
-227.5
 11
292
 21
-284.1139526367188
  0
LINE
  8
0
  6
CONTINUOUS
 62
     7
 10
292
 20
-227.5
 11
302
 21
-227.5
  0
LINE
  8
0
  6
CONTINUOUS
 62
     7
 10
277
 20
-248
 11
292
 21
-248
  0
LINE
  8
0
  6
CONTINUOUS
 62
     7
 10
277
 20
-248
 11
277
 21
-335.3291931152344
  0
LINE
  8
0
  6
CONTINUOUS
 62
     7
 10
254.4833526611328
 20
-275.626953125
 11
277.0000305175781
 21
-266.4286804199219
  0
LINE
  8
0
  6
CONTINUOUS
 62
     7
 10
277.0001220703125
 20
-285.875244140625
 11
254.4834747314453
 21
-289.2420349121094
  0
LINE
  8
0
  6
CONTINUOUS
 62
     7
 10
277.0000305175781
 20
-314.1251220703125
 11
254.4833679199219
 21
-310.75830078125
  0
LINE
  8
0
  6
CONTINUOUS
 62
     7
 10
252
 20
-257.5
 11
269.0793151855469
 21
-257.5
  0
LINE
  8
0
  6
CONTINUOUS
 62
     7
 10
252
 20
-257.5
 11
252
 21
-264
  0
LINE
  8
0
  6
CONTINUOUS
 62
     7
 10
253
 20
-324.0033874511719
 11
264.4833374023437
 21
-324.0033874511719
  0
LINE
  8
0
  6
CONTINUOUS
 62
     7
 10
277
 20
-335.3291931152344
 11
287.8888854980469
 21
-335.3291931152344
  0
LINE
  8
0
  6
CONTINUOUS
 62
     7
 10
264.4833984375
 20
-324.0032958984375
 11
277.0000610351563
 21
-335.3291015625
  0
LINE
  8
0
  6
CONTINUOUS
 62
     7
 10
295
 20
-295
 11
302
 21
-295
  0
LINE
  8
0
  6
CONTINUOUS
 62
     7
 10
281.7987976074219
 20
-369.8682556152344
 11
295.0000915527344
 21
-295
  0
LINE
  8
0
  6
CONTINUOUS
 62
     7
 10
317
 20
-310
 11
321.1455383300781
 21
-310
  0
LINE
  8
0
  6
CONTINUOUS
 62
     7
 10
292
 20
-284.1139526367188
 11
295
 21
-284.1139526367188
  0
LINE
  8
0
  6
CONTINUOUS
 62
     7
 10
321.1455383300781
 20
-310
 11
335.9111022949219
 21
-365.1058349609375
  0
LINE
  8
0
  6
CONTINUOUS
 62
     3
 10
265
 20
-369.9278564453125
 11
265
 21
-393.29345703125
  0
LINE
  8
0
  6
CONTINUOUS
 62
     7
 10
254.4834747314453
 20
-265.6452331542969
 11
277.0001220703125
 21
-253.0802001953125
  0
LINE
  8
0
  6
CONTINUOUS
 62
     7
 10
241
 20
-264
 11
241
 21
-336
  0
LINE
  8
0
  6
CONTINUOUS
 62
     7
 10
273.7417297363281
 20
-290.567138671875
 11
261.0675048828125
 21
-292.0546569824219
  0
LINE
  8
0
  6
CONTINUOUS
 62
     7
 10
261.1930847167969
 20
-307.959228515625
 11
273.7416687011719
 21
-309.43408203125
  0
LINE
  8
0
  6
CONTINUOUS
 62
     7
 10
200
 20
-286.5
 11
200
 21
-311
  0
LINE
  8
0
  6
CONTINUOUS
 62
     7
 10
200
 20
-289
 11
230
 21
-289
  0
LINE
  8
0
  6
CONTINUOUS
 62
     7
 10
200
 20
-311
 11
230
 21
-311
  0
LINE
  8
0
  6
CONTINUOUS
 62
     7
 10
230
 20
-285
 11
230
 21
-315
  0
LINE
  8
0
  6
CONTINUOUS
 62
     7
 10
230
 20
-315
 11
234
 21
-315
  0
LINE
  8
0
  6
CONTINUOUS
 62
     7
 10
230
 20
-285
 11
234
 21
-285
  0
LINE
  8
0
  6
CONTINUOUS
 62
     7
 10
200
 20
-286.5
 11
225
 21
-286.5
  0
LINE
  8
0
  6
CONTINUOUS
 62
     7
 10
225
 20
-286.5
 11
225
 21
-289
  0
LINE
  8
0
  6
DASHED
 62
     7
 10
271
 20
-374
 11
271
 21
-390
  0
LINE
  8
0
  6
DASHED
 62
     7
 10
259
 20
-374
 11
259
 21
-390
  0
LINE
  8
0
  6
CONTINUOUS
 62
     7
 10
295
 20
-284.1139526367188
 11
295
 21
-295
  0
LINE
  8
0
  6
DASHED
 62
     7
 10
349
 20
-374
 11
349
 21
-390
  0
LINE
  8
0
  6
CONTINUOUS
 62
     7
 10
347.502197265625
 20
-374
 11
370
 21
-374
  0
LINE
  8
0
  6
CONTINUOUS
 62
     3
 10
355
 20
-369.9278564453125
 11
355
 21
-393.29345703125
  0
LINE
  8
0
  6
CONTINUOUS
 62
     7
 10
392
 20
-226.5
 11
392
 21
-373.5
  0
LINE
  8
0
  6
CONTINUOUS
 62
     7
 10
445
 20
-280
 11
445
 21
-320
  0
LINE
  8
0
  6
CONTINUOUS
 62
     7
 10
402
 20
-227.5
 11
392
 21
-227.5
  0
LINE
  8
0
  6
CONTINUOUS
 62
     7
 10
407
 20
-248
 11
402
 21
-248
  0
LINE
  8
0
  6
CONTINUOUS
 62
     7
 10
402
 20
-227.5
 11
402
 21
-372.5
  0
LINE
  8
0
  6
CONTINUOUS
 62
     7
 10
438
 20
-271.5
 11
438
 21
-328.5
  0
LINE
  8
0
  6
CONTINUOUS
 62
     7
 10
444.9999694824219
 20
-279.9999694824219
 11
438
 21
-275.9585266113281
  0
LINE
  8
0
  6
CONTINUOUS
 62
     7
 10
438
 20
-271.5
 11
425.8580322265625
 21
-271.5
  0
LINE
  8
0
  6
CONTINUOUS
 62
     7
 10
445.0000610351563
 20
-320.0000305175781
 11
438.0000915527344
 21
-324.0414733886719
  0
LINE
  8
0
  6
CONTINUOUS
 62
     7
 10
407
 20
-352
 11
407
 21
-248
  0
LINE
  8
0
  6
CONTINUOUS
 62
     7
 10
407
 20
-352
 11
402
 21
-352
  0
LINE
  8
0
  6
CONTINUOUS
 62
     7
 10
479
 20
-288
 11
454
 21
-288
  0
LINE
  8
0
  6
CONTINUOUS
 62
     7
 10
479
 20
-288
 11
479
 21
-309.5
  0
LINE
  8
0
  6
CONTINUOUS
 62
     7
 10
479
 20
-309.5
 11
449
 21
-309.5
  0
LINE
  8
0
  6
CONTINUOUS
 62
     7
 10
479
 20
-290.5
 11
449
 21
-290.5
  0
LINE
  8
0
  6
CONTINUOUS
 62
     7
 10
449
 20
-287.5
 11
449
 21
-312.5
  0
LINE
  8
0
  6
CONTINUOUS
 62
     7
 10
449
 20
-312.5
 11
445
 21
-312.5
  0
LINE
  8
0
  6
CONTINUOUS
 62
     7
 10
449
 20
-287.5
 11
445
 21
-287.5
  0
LINE
  8
0
  6
CONTINUOUS
 62
     7
 10
454
 20
-288
 11
454
 21
-290.5
  0
LINE
  8
0
  6
CONTINUOUS
 62
     7
 10
438
 20
-328.5
 11
425.8580322265625
 21
-328.5
  0
LINE
  8
0
  6
CONTINUOUS
 62
     7
 10
426.4999694824219
 20
-294.0823974609375
 11
407
 21
-289.03125
  0
LINE
  8
0
  6
CONTINUOUS
 62
     7
 10
426.4999389648438
 20
-280.9352722167969
 11
407
 21
-267.1353149414062
  0
LINE
  8
0
  6
CONTINUOUS
 62
     7
 10
407
 20
-253.2694549560547
 11
426.4999694824219
 21
-272.1205444335938
  0
LINE
  8
0
  6
CONTINUOUS
 62
     7
 10
426.4999694824219
 20
-308.8154296875
 11
407
 21
-313.8665466308594
  0
LINE
  8
0
  6
CONTINUOUS
 62
     7
 10
407
 20
-334.9861450195312
 11
426.4999694824219
 21
-321.1861877441406
  0
LINE
  8
0
  6
CONTINUOUS
 62
     7
 10
407
 20
-346.7305603027344
 11
426.4999694824219
 21
-327.8794860839844
  0
LINE
  8
0
  6
CONTINUOUS
 62
     7
 10
369.5
 20
-226.5
 11
392
 21
-226.5
  0
LINE
  8
0
  6
CONTINUOUS
 62
     7
 10
369.5
 20
-373.5
 11
392
 21
-373.5
  0
LINE
  8
0
  6
CONTINUOUS
 62
     7
 10
402
 20
-372.5
 11
392
 21
-372.5
  0
LINE
  8
0
  6
CONTINUOUS
 62
     7
 10
324.5
 20
73.5
 11
324.5
 21
20.80316162109375
  0
LINE
  8
0
  6
CONTINUOUS
 62
     7
 10
324.5
 20
-72.5
 11
334.5
 21
-72.5
  0
LINE
  8
0
  6
CONTINUOUS
 62
     7
 10
324.5
 20
72.5
 11
334.5
 21
72.5
  0
LINE
  8
0
  6
CONTINUOUS
 62
     7
 10
369.5
 20
73.5
 11
369.5
 21
-73.5
  0
LINE
  8
0
  6
CONTINUOUS
 62
     7
 10
359.5
 20
72.5
 11
359.5
 21
-72.5
  0
LINE
  8
0
  6
CONTINUOUS
 62
     7
 10
359.5
 20
72.5
 11
369.5
 21
72.5
  0
LINE
  8
0
  6
CONTINUOUS
 62
     7
 10
359.5
 20
-72.5
 11
369.5
 21
-72.5
  0
LINE
  8
0
  6
CONTINUOUS
 62
     7
 10
339.5
 20
52.5
 11
354.5
 21
52.5
  0
LINE
  8
0
  6
CONTINUOUS
 62
     7
 10
339.5
 20
-52.5
 11
354.5
 21
-52.5
  0
LINE
  8
0
  6
CONTINUOUS
 62
     7
 10
334.5
 20
72.5
 11
334.5
 21
21.24783325195312
  0
LINE
  8
0
  6
CONTINUOUS
 62
     7
 10
339.5
 20
9.123565673828125
 11
339.5
 21
-20.39105224609375
  0
LINE
  8
0
  6
CONTINUOUS
 62
     7
 10
334.5
 20
-20.39105224609375
 11
339.5
 21
-20.39105224609375
  0
LINE
  8
0
  6
CONTINUOUS
 62
     7
 10
334.5
 20
-20.39105224609375
 11
334.5
 21
-72.5
  0
LINE
  8
0
  6
CONTINUOUS
 62
     3
 10
176.5607147216797
 20
0
 11
490.8556823730469
 21
0
  0
LINE
  8
0
  6
CONTINUOUS
 62
     7
 10
324.5
 20
10.97433471679687
 11
324.5
 21
-73.5
  0
LINE
  8
0
  6
CONTINUOUS
 62
     7
 10
302
 20
73.5
 11
324.5
 21
73.5
  0
LINE
  8
0
  6
CONTINUOUS
 62
     7
 10
302
 20
-73.5
 11
324.5
 21
-73.5
  0
LINE
  8
0
  6
CONTINUOUS
 62
     7
 10
302
 20
79.088134765625
 11
302
 21
-79.088134765625
  0
LINE
  8
0
  6
CONTINUOUS
 62
     7
 10
234
 20
25.5
 11
234
 21
-25.5
  0
LINE
  8
0
  6
CONTINUOUS
 62
     7
 10
255
 20
-87.5
 11
365
 21
-87.5
  0
LINE
  8
0
  6
CONTINUOUS
 62
     7
 10
250
 20
-52.5
 11
250
 21
-82.5
  0
LINE
  8
0
  6
CONTINUOUS
 62
     7
 10
230
 20
15
 11
230
 21
-15
  0
LINE
  8
0
  6
CONTINUOUS
 62
     7
 10
200
 20
11
 11
200
 21
-11
  0
LINE
  8
0
  6
CONTINUOUS
 62
     7
 10
200
 20
11
 11
230
 21
11
  0
LINE
  8
0
  6
CONTINUOUS
 62
     7
 10
200
 20
-11
 11
230
 21
-11
  0
LINE
  8
0
  6
CONTINUOUS
 62
     7
 10
230
 20
-15
 11
234
 21
-15
  0
LINE
  8
0
  6
CONTINUOUS
 62
     7
 10
230
 20
15
 11
234
 21
15
  0
LINE
  8
0
  6
CONTINUOUS
 62
     7
 10
241
 20
36
 11
241
 21
-36
  0
LINE
  8
0
  6
CONTINUOUS
 62
     7
 10
241
 20
36
 11
257.4314575195313
 21
36
  0
LINE
  8
0
  6
CONTINUOUS
 62
     7
 10
241
 20
-36
 11
257.4313354492188
 21
-36
  0
LINE
  8
0
  6
CONTINUOUS
 62
     7
 10
277
 20
52
 11
292
 21
52
  0
LINE
  8
0
  6
CONTINUOUS
 62
     7
 10
277
 20
-52
 11
292
 21
-52
  0
LINE
  8
0
  6
CONTINUOUS
 62
     7
 10
292
 20
63.92559814453125
 11
292
 21
-63.92559814453125
  0
LINE
  8
0
  6
CONTINUOUS
 62
     7
 10
277
 20
52
 11
277
 21
-52
  0
LINE
  8
0
  6
CONTINUOUS
 62
     7
 10
233.9999389648438
 20
25.5003490447998
 11
240.9999237060547
 21
29.54179191589355
  0
LINE
  8
0
  6
CONTINUOUS
 62
     7
 10
234.0000457763672
 20
-25.49997520446777
 11
241.0000305175781
 21
-29.54141616821289
  0
LINE
  8
0
  6
CONTINUOUS
 62
     7
 10
254.4833984375
 20
-10.75769424438477
 11
277.0000305175781
 21
-14.12448310852051
  0
LINE
  8
0
  6
CONTINUOUS
 62
     7
 10
254.4832763671875
 20
-24.37335777282715
 11
276.9999389648438
 21
-33.57160186767578
  0
LINE
  8
0
  6
CONTINUOUS
 62
     7
 10
254.4833984375
 20
-34.35472869873047
 11
277.0000305175781
 21
-46.91978073120117
  0
LINE
  8
0
  6
CONTINUOUS
 62
     7
 10
254.4832916259766
 20
10.75817394256592
 11
276.9999389648438
 21
14.12496280670166
  0
LINE
  8
0
  6
CONTINUOUS
 62
     7
 10
254.4835662841797
 20
24.37272071838379
 11
277.000244140625
 21
33.57097244262695
  0
LINE
  8
0
  6
CONTINUOUS
 62
     7
 10
254.4830474853516
 20
34.35538482666016
 11
276.9997253417969
 21
46.92046356201172
  0
LINE
  8
0
  6
CONTINUOUS
 62
     7
 10
250
 20
52.5
 11
250
 21
82.5
  0
LINE
  8
0
  6
CONTINUOUS
 62
     7
 10
255
 20
87.5
 11
365
 21
87.5
  0
LINE
  8
0
  6
CONTINUOUS
 62
     7
 10
253
 20
-36
 11
253
 21
-51.72433471679687
  0
LINE
  8
0
  6
CONTINUOUS
 62
     7
 10
253
 20
-51.72433471679687
 11
277
 21
-51.72433471679687
  0
LINE
  8
0
  6
CONTINUOUS
 62
     7
 10
253
 20
36
 11
253
 21
51.724365234375
  0
LINE
  8
0
  6
CONTINUOUS
 62
     7
 10
253
 20
51.724365234375
 11
277
 21
51.724365234375
  0
LINE
  8
0
  6
CONTINUOUS
 62
     7
 10
200
 20
-3
 11
225
 21
-3
  0
LINE
  8
0
  6
CONTINUOUS
 62
     7
 10
200
 20
3
 11
225
 21
3
  0
LINE
  8
0
  6
CONTINUOUS
 62
     7
 10
225
 20
3
 11
225
 21
-3
  0
LINE
  8
0
  6
CONTINUOUS
 62
     3
 10
257.0876159667969
 20
-72.5
 11
272.9788208007813
 21
-72.5
  0
LINE
  8
0
  6
CONTINUOUS
 62
     3
 10
265
 20
-64.04592895507813
 11
265
 21
-81.23434448242187
  0
LINE
  8
0
  6
CONTINUOUS
 62
     3
 10
257.0876159667969
 20
72.5
 11
272.9788208007813
 21
72.5
  0
LINE
  8
0
  6
CONTINUOUS
 62
     3
 10
265
 20
64.04592895507813
 11
265
 21
81.23434448242187
  0
LINE
  8
0
  6
CONTINUOUS
 62
     7
 10
256.1482849121094
 20
-8.10914421081543
 11
276.9999694824219
 21
-10.15435123443604
  0
LINE
  8
0
  6
CONTINUOUS
 62
     7
 10
256.1488342285156
 20
8.109480857849121
 11
277
 21
10.1557788848877
  0
LINE
  8
0
  6
CONTINUOUS
 62
     7
 10
292
 20
63.92559814453125
 11
295
 21
63.92559814453125
  0
LINE
  8
0
  6
CONTINUOUS
 62
     7
 10
292
 20
-63.92559814453125
 11
295
 21
-63.92559814453125
  0
LINE
  8
0
  6
CONTINUOUS
 62
     7
 10
295
 20
-63.92559814453125
 11
295
 21
-79.088134765625
  0
LINE
  8
0
  6
CONTINUOUS
 62
     7
 10
280.4034729003906
 20
-86.15633392333984
 11
294.6483154296875
 21
-79.08814239501953
  0
LINE
  8
0
  6
CONTINUOUS
 62
     7
 10
294.6483154296875
 20
-79.088134765625
 11
321.4365234375
 21
-79.088134765625
  0
LINE
  8
0
  6
CONTINUOUS
 62
     7
 10
280.4034423828125
 20
86.15632629394531
 11
294.6483154296875
 21
79.08812713623047
  0
LINE
  8
0
  6
CONTINUOUS
 62
     7
 10
295
 20
63.92559814453125
 11
295
 21
79.088134765625
  0
LINE
  8
0
  6
CONTINUOUS
 62
     7
 10
294.6483154296875
 20
79.088134765625
 11
321.4365234375
 21
79.088134765625
  0
LINE
  8
0
  6
CONTINUOUS
 62
     7
 10
321.4365539550781
 20
79.08815002441406
 11
338.8550720214844
 21
86.10874176025391
  0
LINE
  8
0
  6
CONTINUOUS
 62
     7
 10
370
 20
73.5
 11
370
 21
82.5
  0
LINE
  8
0
  6
CONTINUOUS
 62
     3
 10
347.0876159667969
 20
72.5
 11
359.5
 21
72.5
  0
LINE
  8
0
  6
CONTINUOUS
 62
     3
 10
355
 20
64.04592895507813
 11
355
 21
81.23434448242187
  0
LINE
  8
0
  6
CONTINUOUS
 62
     7
 10
343.3351135253906
 20
52.50000381469727
 11
359.5
 21
58.56184005737305
  0
LINE
  8
0
  6
CONTINUOUS
 62
     7
 10
343.3324584960937
 20
-52.50000381469727
 11
359.5
 21
-58.56283569335938
  0
LINE
  8
0
  6
CONTINUOUS
 62
     7
 10
321.4365539550781
 20
-79.08814239501953
 11
338.8550720214844
 21
-86.10873413085937
  0
LINE
  8
0
  6
CONTINUOUS
 62
     7
 10
370
 20
-73.5
 11
370
 21
-82.5
  0
LINE
  8
0
  6
CONTINUOUS
 62
     3
 10
347.0876159667969
 20
-72.5
 11
359.5
 21
-72.5
  0
LINE
  8
0
  6
CONTINUOUS
 62
     3
 10
355
 20
-64.04592895507813
 11
355
 21
-81.23434448242187
  0
LINE
  8
0
  6
CONTINUOUS
 62
     7
 10
399
 20
-72.5
 11
392
 21
-72.5
  0
LINE
  8
0
  6
CONTINUOUS
 62
     7
 10
445
 20
20
 11
445
 21
-20
  0
LINE
  8
0
  6
CONTINUOUS
 62
     7
 10
438
 20
28.5
 11
438
 21
-28.5
  0
LINE
  8
0
  6
CONTINUOUS
 62
     7
 10
445
 20
20.00010299682617
 11
438
 21
24.04154586791992
  0
LINE
  8
0
  6
CONTINUOUS
 62
     7
 10
438
 20
28.5
 11
425.8580322265625
 21
28.5
  0
LINE
  8
0
  6
CONTINUOUS
 62
     7
 10
445
 20
-19.99994659423828
 11
438
 21
-24.04138946533203
  0
LINE
  8
0
  6
CONTINUOUS
 62
     7
 10
438
 20
-28.5
 11
425.8580322265625
 21
-28.5
  0
LINE
  8
0
  6
CONTINUOUS
 62
     7
 10
479
 20
9.5
 11
479
 21
-9.5
  0
LINE
  8
0
  6
CONTINUOUS
 62
     7
 10
479
 20
-9.5
 11
449
 21
-9.5
  0
LINE
  8
0
  6
CONTINUOUS
 62
     7
 10
479
 20
9.5
 11
449
 21
9.5
  0
LINE
  8
0
  6
CONTINUOUS
 62
     7
 10
449
 20
12.5
 11
449
 21
-12.5
  0
LINE
  8
0
  6
CONTINUOUS
 62
     7
 10
449
 20
-12.5
 11
445
 21
-12.5
  0
LINE
  8
0
  6
CONTINUOUS
 62
     7
 10
449
 20
12.5
 11
445
 21
12.5
  0
LINE
  8
0
  6
CONTINUOUS
 62
     7
 10
479
 20
3
 11
454
 21
3
  0
LINE
  8
0
  6
CONTINUOUS
 62
     7
 10
479
 20
-3
 11
454
 21
-3
  0
LINE
  8
0
  6
CONTINUOUS
 62
     7
 10
454
 20
3
 11
454
 21
-3
  0
LINE
  8
0
  6
CONTINUOUS
 62
     7
 10
426.4999694824219
 20
5.91761589050293
 11
407
 21
10.96874904632568
  0
LINE
  8
0
  6
CONTINUOUS
 62
     7
 10
426.5
 20
19.06468772888184
 11
407.0000305175781
 21
32.86467742919922
  0
LINE
  8
0
  6
CONTINUOUS
 62
     7
 10
407
 20
46.73052215576172
 11
426.4999694824219
 21
27.87941932678223
  0
LINE
  8
0
  6
CONTINUOUS
 62
     7
 10
426.5000305175781
 20
-5.917571067810059
 11
407.0000305175781
 21
-10.96871185302734
  0
LINE
  8
0
  6
CONTINUOUS
 62
     7
 10
426.5
 20
-19.06472206115723
 11
407.0000305175781
 21
-32.86471176147461
  0
LINE
  8
0
  6
CONTINUOUS
 62
     7
 10
407
 20
-46.73052215576172
 11
426.4999389648438
 21
-27.87945175170898
  0
LINE
  8
0
  6
CONTINUOUS
 62
     7
 10
399
 20
72.5
 11
392
 21
72.5
  0
LINE
  8
0
  6
CONTINUOUS
 62
     7
 10
399
 20
72.5
 11
399
 21
63.92559814453125
  0
LINE
  8
0
  6
CONTINUOUS
 62
     7
 10
402
 20
63.92559814453125
 11
399
 21
63.92559814453125
  0
LINE
  8
0
  6
CONTINUOUS
 62
     7
 10
407
 20
52
 11
402
 21
52
  0
LINE
  8
0
  6
CONTINUOUS
 62
     7
 10
402
 20
63.92559814453125
 11
402
 21
-63.92559814453125
  0
LINE
  8
0
  6
CONTINUOUS
 62
     7
 10
407
 20
-52
 11
407
 21
52
  0
LINE
  8
0
  6
CONTINUOUS
 62
     7
 10
407
 20
-52
 11
402
 21
-52
  0
LINE
  8
0
  6
CONTINUOUS
 62
     7
 10
402
 20
-63.92559814453125
 11
399
 21
-63.92559814453125
  0
LINE
  8
0
  6
CONTINUOUS
 62
     7
 10
399
 20
-63.92559814453125
 11
399
 21
-72.5
  0
LINE
  8
0
  6
CONTINUOUS
 62
     7
 10
369.5
 20
-73.5
 11
392
 21
-73.5
  0
LINE
  8
0
  6
CONTINUOUS
 62
     7
 10
392
 20
73.5
 11
392
 21
-73.5
  0
LINE
  8
0
  6
CONTINUOUS
 62
     7
 10
369.5
 20
73.5
 11
392
 21
73.5
  0
LINE
  8
0
  6
CONTINUOUS
 62
     7
 10
-19.76806640625
 20
-187.8892669677734
 11
-11.80462169647217
 21
-233.0522155761719
  0
LINE
  8
0
  6
CONTINUOUS
 62
     7
 10
332.5
 20
-187.3441467285156
 11
332.5
 21
-231.0405883789063
  0
LINE
  8
0
  6
CONTINUOUS
 62
     7
 10
311.6372680664062
 20
-209.8900909423828
 11
353.7590637207031
 21
-209.8900909423828
  0
ARC
  8
0
  6
CONTINUOUS
 62
     7
 10
-18.1722412109375
 20
-196.9398651123047
 40
3.150000095367433
 50
9.999998855319467
 51
189.9999620293669
  0
ARC
  8
0
  6
CONTINUOUS
 62
     7
 10
-19.81521606445313
 20
-223.7829742431641
 40
1.000000000000008
 50
117.6670839263945
 51
179.9999503674436
  0
ARC
  8
0
  6
CONTINUOUS
 62
     7
 10
-7.447479248046875
 20
-221.6022033691406
 40
0.999999999999999
 50
20.00001137101667
 51
82.33288293470702
  0
ARC
  8
0
  6
CONTINUOUS
 62
     7
 10
-9.197113037109375
 20
-223.9415588378906
 40
1.000000000000001
 50
189.9999793322113
 51
280.0000159876348
  0
ARC
  8
0
  6
CONTINUOUS
 62
     7
 10
-17.37100219726563
 20
-225.3828430175781
 40
0.9999999999999991
 50
279.9999613461216
 51
9.999998855319541
  0
ARC
  8
0
  6
CONTINUOUS
 62
     7
 10
0
 20
-300
 40
72.49999999999999
 50
309.0815373791073
 51
230.9187237619429
  0
ARC
  8
0
  6
CONTINUOUS
 62
     7
 10
0
 20
-300
 40
52.00000000000001
 50
317.2032196985211
 51
222.7971234047991
  0
CIRCLE
  8
0
  6
CONTINUOUS
 62
     7
 10
0
 20
-300
 40
36
  0
CIRCLE
  8
0
  6
CONTINUOUS
 62
     7
 10
0
 20
-300
 40
25.5
  0
ARC
  8
0
  6
CONTINUOUS
 62
     3
 10
0
 20
-300
 40
63.99999999999999
 50
262.7235169349513
 51
276.6528817848702
  0
ARC
  8
0
  6
CONTINUOUS
 62
     7
 10
55.42559814453125
 20
-268
 40
8.500000000000023
 50
310.1721717404911
 51
109.8278162687825
  0
ARC
  8
0
  6
CONTINUOUS
 62
     7
 10
0
 20
-236
 40
8.5
 50
10.17218707052167
 51
169.8278315988131
  0
ARC
  8
0
  6
CONTINUOUS
 62
     7
 10
-55.42559814453125
 20
-268
 40
8.499999999999986
 50
70.17218190998457
 51
229.827833268465
  0
ARC
  8
0
  6
CONTINUOUS
 62
     7
 10
-55.42559814453125
 20
-331.9999389648438
 40
8.500000000000012
 50
130.1721767494475
 51
289.8278212777388
  0
ARC
  8
0
  6
CONTINUOUS
 62
     7
 10
0
 20
-363.9999389648438
 40
8.5
 50
190.1721820615654
 51
349.8278265898566
  0
ARC
  8
0
  6
CONTINUOUS
 62
     7
 10
55.42559814453125
 20
-331.9999389648438
 40
8.499999999999995
 50
250.1721769010283
 51
49.82782142931953
  0
ARC
  8
0
  6
CONTINUOUS
 62
     7
 10
0
 20
-300
 40
52.00000000000001
 50
227.2056726470495
 51
312.794759476101
  0
ARC
  8
0
  6
CONTINUOUS
 62
     7
 10
0
 20
-300
 40
72.49999999999999
 50
234.25568462531
 51
305.7446382148138
  0
ARC
  8
0
  6
CONTINUOUS
 62
     7
 10
76.85211181640625
 20
-290
 40
5
 50
187.4137965048774
 51
270.0000179860893
  0
ARC
  8
0
  6
CONTINUOUS
 62
     7
 10
0
 20
-300
 40
11.00000000000002
 50
105.8266368114757
 51
74.17337821539326
  0
ARC
  8
0
  6
CONTINUOUS
 62
     7
 10
-44.5
 20
-390
 40
2.999999999999977
 50
89.9999820139107
 51
179.9999640278208
  0
ARC
  8
0
  6
CONTINUOUS
 62
     7
 10
44.5
 20
-390
 40
3
 50
0
 51
89.9999820139107
  0
ARC
  8
0
  6
CONTINUOUS
 62
     7
 10
-76.85211181640625
 20
-290
 40
4.999999999999993
 50
273.2070854995447
 51
352.5861848257881
  0
ARC
  8
0
  6
CONTINUOUS
 62
     3
 10
0
 20
-300
 40
63.99999999999999
 50
323.7564412825952
 51
336.2875280980819
  0
ARC
  8
0
  6
CONTINUOUS
 62
     3
 10
0
 20
-300
 40
64
 50
23.80862559750627
 51
36.97342590192316
  0
ARC
  8
0
  6
CONTINUOUS
 62
     3
 10
0
 20
-300
 40
63.99999999999999
 50
83.35940572544663
 51
95.80329322334701
  0
ARC
  8
0
  6
CONTINUOUS
 62
     3
 10
0
 20
-300
 40
63.99999999999999
 50
143.0914249230133
 51
156.5041952452475
  0
ARC
  8
0
  6
CONTINUOUS
 62
     3
 10
0
 20
-300
 40
64.00000000000001
 50
202.9723527171411
 51
216.6502300018201
  0
ARC
  8
0
  6
CONTINUOUS
 62
     7
 10
-30.0947265625
 20
-341.408447265625
 40
7.999999999999984
 50
135.0000003416228
 51
161.2420379252968
  0
ARC
  8
0
  6
CONTINUOUS
 62
     7
 10
30.09506225585938
 20
-341.4087829589844
 40
8
 50
18.75796025347026
 51
45.00000125223909
  0
ARC
  8
0
  6
CONTINUOUS
 62
     7
 10
344.5
 20
-242.5
 40
4.999999999999981
 50
179.9999776881996
 51
270.0000280040023
  0
ARC
  8
0
  6
CONTINUOUS
 62
     7
 10
339.5
 20
-242.5
 40
4.999999999999981
 50
179.9999776881996
 51
270.0000280040023
  0
ARC
  8
0
  6
CONTINUOUS
 62
     7
 10
339.5
 20
-357.5
 40
4.999999999999981
 50
89.99992737239761
 51
179.9999640278213
  0
ARC
  8
0
  6
CONTINUOUS
 62
     7
 10
344.5
 20
-357.5
 40
4.999999999999981
 50
89.99992737239761
 51
179.9999640278213
  0
ARC
  8
0
  6
CONTINUOUS
 62
     7
 10
354.5
 20
-242.5
 40
5.000000000000004
 50
269.9999974955215
 51
0
  0
ARC
  8
0
  6
CONTINUOUS
 62
     7
 10
354.5
 20
-357.5
 40
5
 50
0
 51
90.00000250447847
  0
ARC
  8
0
  6
CONTINUOUS
 62
     7
 10
262
 20
-300
 40
8.000000000000011
 50
96.69394306092748
 51
264.2191471358
  0
ARC
  8
0
  6
CONTINUOUS
 62
     7
 10
248
 20
-329.0033874511719
 40
5
 50
0
 51
89.99998201391064
  0
ARC
  8
0
  6
CONTINUOUS
 62
     7
 10
317
 20
-295
 40
15
 50
179.9999776881996
 51
270.000028004002
  0
ARC
  8
0
  6
CONTINUOUS
 62
     7
 10
276.8746948242187
 20
-369
 40
5.000000000000019
 50
270.0000179860891
 51
349.9999516258094
  0
ARC
  8
0
  6
CONTINUOUS
 62
     7
 10
347.502197265625
 20
-362
 40
12
 50
195.0000056537406
 51
270.0000179860893
  0
ARC
  8
0
  6
CONTINUOUS
 62
     7
 10
339.5
 20
-57.5
 40
4.999999999999997
 50
89.99998201391097
 51
179.9999640278213
  0
ARC
  8
0
  6
CONTINUOUS
 62
     7
 10
339.5
 20
57.5
 40
4.999999999999981
 50
179.9999776881996
 51
270.0000280040023
  0
ARC
  8
0
  6
CONTINUOUS
 62
     7
 10
354.5
 20
-57.5
 40
5
 50
0
 51
90.00000250447847
  0
ARC
  8
0
  6
CONTINUOUS
 62
     7
 10
354.5
 20
57.5
 40
4.999999999999997
 50
269.9999974955215
 51
0
  0
ARC
  8
0
  6
CONTINUOUS
 62
     7
 10
255
 20
-82.5
 40
5.00000000000001
 50
179.9999776881996
 51
270.0000280040019
  0
ARC
  8
0
  6
CONTINUOUS
 62
     7
 10
255
 20
-52.5
 40
4.999999999999996
 50
113.5781775193881
 51
179.9999640278213
  0
ARC
  8
0
  6
CONTINUOUS
 62
     7
 10
262
 20
0
 40
10
 50
125.8133549268205
 51
234.1870239213073
  0
ARC
  8
0
  6
CONTINUOUS
 62
     7
 10
255
 20
52.5
 40
5.00000000000001
 50
179.9999776881996
 51
246.4218324985244
  0
ARC
  8
0
  6
CONTINUOUS
 62
     7
 10
255
 20
82.5
 40
4.999999999999996
 50
89.99992737239728
 51
179.9999640278213
  0
ARC
  8
0
  6
CONTINUOUS
 62
     7
 10
225
 20
0
 40
3
 50
270.0000179860896
 51
89.99998201391043
  0
CIRCLE
  8
0
  6
CONTINUOUS
 62
     7
 10
265
 20
-72.5
 40
6
  0
CIRCLE
  8
0
  6
CONTINUOUS
 62
     7
 10
265
 20
72.5
 40
6
  0
ARC
  8
0
  6
CONTINUOUS
 62
     7
 10
365
 20
82.5
 40
5
 50
359.9999453584866
 51
89.99992737239761
  0
ARC
  8
0
  6
CONTINUOUS
 62
     7
 10
355
 20
72.5
 40
6
 50
0
 51
318.5903489293095
  0
ARC
  8
0
  6
CONTINUOUS
 62
     7
 10
365
 20
-82.5
 40
5.000000000000004
 50
270.0000179860891
 51
0
  0
ARC
  8
0
  6
CONTINUOUS
 62
     7
 10
355
 20
-72.5
 40
5.999999999999986
 50
41.40957912633311
 51
1.001791266906166E-05
  0
ARC
  8
0
  6
CONTINUOUS
 62
     7
 10
454
 20
0
 40
3
 50
89.99998201391097
 51
269.9999460417318
  0
POLYLINE
  8
0
  6
CONTINUOUS
 62
     7
 66
     1
 10
0
 20
0
  0
VERTEX
  8
0
  6
CONTINUOUS
 62
     7
 10
340.0611891920868
 20
-224.1081479795829
 42
0.08272214436006896
  0
VERTEX
  8
0
  6
CONTINUOUS
 62
     7
 10
344.3481326217577
 20
-220.9067989025598
 42
0.08385195724971688
  0
VERTEX
  8
0
  6
CONTINUOUS
 62
     7
 10
347.3558385509184
 20
-216.4818604724658
 42
0.08471352835310694
  0
VERTEX
  8
0
  6
CONTINUOUS
 62
     7
 10
348.7339010333826
 20
-211.3125010270074
 42
0.08490394484120427
  0
VERTEX
  8
0
  6
CONTINUOUS
 62
     7
 10
348.3166336182751
 20
-205.9801493042962
 42
0.08436954756306737
  0
VERTEX
  8
0
  6
CONTINUOUS
 62
     7
 10
346.1548502984402
 20
-201.086903879803
 42
0.08333436534514188
  0
VERTEX
  8
0
  6
CONTINUOUS
 62
     7
 10
342.5050714789341
 20
-197.1746333523449
 42
0.08226407607550723
  0
VERTEX
  8
0
  6
CONTINUOUS
 62
     7
 10
337.7827009051664
 20
-194.6575649971801
 42
0.08162575954467796
  0
VERTEX
  8
0
  6
CONTINUOUS
 62
     7
 10
332.5
 20
-193.7898559570312
 42
0.08158651728711103
  0
VERTEX
  8
0
  6
CONTINUOUS
 62
     7
 10
327.2197300902632
 20
-194.6567438212062
 42
0.08224709535876855
  0
VERTEX
  8
0
  6
CONTINUOUS
 62
     7
 10
322.4978138242716
 20
-197.1724213062727
 42
0.08333889015944081
  0
VERTEX
  8
0
  6
CONTINUOUS
 62
     7
 10
318.8469676925434
 20
-201.0841539537639
 42
0.08437845610599985
  0
VERTEX
  8
0
  6
CONTINUOUS
 62
     7
 10
316.6840281944521
 20
-205.9775299915169
 42
0.08490760073460432
  0
VERTEX
  8
0
  6
CONTINUOUS
 62
     7
 10
316.2658742511385
 20
-211.3100454668092
 42
0.08470970460368143
  0
VERTEX
  8
0
  6
CONTINUOUS
 62
     7
 10
317.6430272189461
 20
-216.4793823841288
 42
0.08383810240637626
  0
VERTEX
  8
0
  6
CONTINUOUS
 62
     7
 10
320.6493426858557
 20
-220.9041628187437
 42
0.08273731688225971
  0
VERTEX
  8
0
  6
CONTINUOUS
 62
     7
 10
324.9364020168161
 20
-224.1069037398441
 42
0
  0
SEQEND
  8
0
  0
POLYLINE
  8
0
  6
CONTINUOUS
 62
     7
 66
     1
 10
0
 20
0
 70
     1
  0
VERTEX
  8
0
  6
CONTINUOUS
 62
     7
 10
342.5
 20
-209.8900909423828
 42
0.1005697614596514
  0
VERTEX
  8
0
  6
CONTINUOUS
 62
     7
 10
341.7286164258952
 20
-206.0972835948851
 42
0.09931459426855112
  0
VERTEX
  8
0
  6
CONTINUOUS
 62
     7
 10
339.5449283026197
 20
-202.900797913141
 42
0.09762475566248449
  0
VERTEX
  8
0
  6
CONTINUOUS
 62
     7
 10
336.3027735203133
 20
-200.7818698241244
 42
0.09645742494750086
  0
VERTEX
  8
0
  6
CONTINUOUS
 62
     7
 10
332.5
 20
-200.0420074462891
 42
0.0964368343300462
  0
VERTEX
  8
0
  6
CONTINUOUS
 62
     7
 10
328.6979889324393
 20
-200.7815611270046
 42
0.09759325526350002
  0
VERTEX
  8
0
  6
CONTINUOUS
 62
     7
 10
325.4565369725482
 20
-202.8993658033249
 42
0.09935255147165992
  0
VERTEX
  8
0
  6
CONTINUOUS
 62
     7
 10
323.2715980621025
 20
-206.0967774812675
 42
0.1005839922554519
  0
VERTEX
  8
0
  6
CONTINUOUS
 62
     7
 10
322.5
 20
-209.8900909423828
 42
0.1005699380586949
  0
VERTEX
  8
0
  6
CONTINUOUS
 62
     7
 10
323.2713844715514
 20
-213.6828980014489
 42
0.09931486592911076
  0
VERTEX
  8
0
  6
CONTINUOUS
 62
     7
 10
325.455076428439
 20
-216.8793809132591
 42
0.09762481604129454
  0
VERTEX
  8
0
  6
CONTINUOUS
 62
     7
 10
328.6972352694488
 20
-218.9983027098581
 42
0.09645692972528301
  0
VERTEX
  8
0
  6
CONTINUOUS
 62
     7
 10
332.5
 20
-219.7381591796875
 42
0.09643659111140299
  0
VERTEX
  8
0
  6
CONTINUOUS
 62
     7
 10
336.3020116123553
 20
-218.9986076263891
 42
0.09759332041094969
  0
VERTEX
  8
0
  6
CONTINUOUS
 62
     7
 10
339.5434655186984
 20
-216.8808059607914
 42
0.09935282727083802
  0
VERTEX
  8
0
  6
CONTINUOUS
 62
     7
 10
341.728404978167
 20
-213.6833948232786
 42
0.100583908041133
  0
SEQEND
  8
0
  0
POLYLINE
  8
0
  6
CONTINUOUS
 62
     7
 66
     1
 10
0
 20
0
  0
VERTEX
  8
0
  6
CONTINUOUS
 62
     7
 10
339.633260319332
 20
-221.6705082286607
 42
0.2015082714046877
  0
VERTEX
  8
0
  6
CONTINUOUS
 62
     7
 10
338.9032570372444
 20
-221.1620278178304
 42
0.03155962249731195
  0
VERTEX
  8
0
  6
CONTINUOUS
 62
     7
 10
338.013428586751
 20
-220.9229466748142
 42
0.01542694082228232
  0
VERTEX
  8
0
  6
CONTINUOUS
 62
     7
 10
337.1057895615067
 20
-220.7635852299206
 42
0.01021026469517426
  0
VERTEX
  8
0
  6
CONTINUOUS
 62
     7
 10
336.1902648884376
 20
-220.6497806231095
 42
0.00782924774676072
  0
VERTEX
  8
0
  6
CONTINUOUS
 62
     7
 10
335.2711859274283
 20
-220.5686921155886
 42
0.006588713842294452
  0
VERTEX
  8
0
  6
CONTINUOUS
 62
     7
 10
334.3499521814701
 20
-220.5139474174719
 42
0.005931101374084193
  0
VERTEX
  8
0
  6
CONTINUOUS
 62
     7
 10
333.4275498075577
 20
-220.4821798476608
 42
0.005641265167937867
  0
VERTEX
  8
0
  6
CONTINUOUS
 62
     7
 10
332.5046231181426
 20
-220.4716952056555
 42
0.005639189148661436
  0
VERTEX
  8
0
  6
CONTINUOUS
 62
     7
 10
331.5818052347442
 20
-220.481968535918
 42
0.005918164220037805
  0
VERTEX
  8
0
  6
CONTINUOUS
 62
     7
 10
330.6606368483845
 20
-220.5134566653092
 42
0.006584376605029783
  0
VERTEX
  8
0
  6
CONTINUOUS
 62
     7
 10
329.7386271257537
 20
-220.5679774050531
 42
0.007814520412722004
  0
VERTEX
  8
0
  6
CONTINUOUS
 62
     7
 10
328.8191934726262
 20
-220.6487926334559
 42
0.01018488360740578
  0
VERTEX
  8
0
  6
CONTINUOUS
 62
     7
 10
327.9029309451886
 20
-220.7623111264577
 42
0.01540565567862774
  0
VERTEX
  8
0
  6
CONTINUOUS
 62
     7
 10
326.992660379359
 20
-220.9216651729646
 42
0.03141742369792435
  0
VERTEX
  8
0
  6
CONTINUOUS
 62
     7
 10
326.1013798084895
 20
-221.1603987084411
 42
0.1997036642486376
  0
VERTEX
  8
0
  6
CONTINUOUS
 62
     7
 10
325.3671489644616
 20
-221.6682280128126
 42
0
  0
SEQEND
  8
0
  0
POLYLINE
  8
0
  6
CONTINUOUS
 62
     7
 66
     1
 10
0
 20
0
  0
VERTEX
  8
0
  6
CONTINUOUS
 62
     7
 10
324.7619022221352
 20
10.93737814818252
 42
0.04188730367423638
  0
VERTEX
  8
0
  6
CONTINUOUS
 62
     7
 10
325.2020344841995
 20
9.709403999588005
 42
0.04165594837388165
  0
VERTEX
  8
0
  6
CONTINUOUS
 62
     7
 10
325.8402812820294
 20
8.571480997584207
 42
0.04136510392960657
  0
VERTEX
  8
0
  6
CONTINUOUS
 62
     7
 10
326.6577381641796
 20
7.554627661301517
 42
0.04106114708363243
  0
VERTEX
  8
0
  6
CONTINUOUS
 62
     7
 10
327.6310482054423
 20
6.685491964297047
 42
0.04077357732523467
  0
VERTEX
  8
0
  6
CONTINUOUS
 62
     7
 10
328.7331206473258
 20
5.986312499169603
 42
0.04052878174778915
  0
VERTEX
  8
0
  6
CONTINUOUS
 62
     7
 10
329.933979701734
 20
5.474564569895136
 42
0.04034729443312932
  0
VERTEX
  8
0
  6
CONTINUOUS
 62
     7
 10
331.2015544560752
 20
5.162753377309822
 42
0.04023511476118604
  0
VERTEX
  8
0
  6
CONTINUOUS
 62
     7
 10
332.5021778129697
 20
5.058288866146238
 42
0.04022823417034637
  0
VERTEX
  8
0
  6
CONTINUOUS
 62
     7
 10
333.8025196657524
 20
5.163414401938661
 42
0.04031551583042834
  0
VERTEX
  8
0
  6
CONTINUOUS
 62
     7
 10
335.0689486216773
 20
5.475541793439424
 42
0.04051141576204503
  0
VERTEX
  8
0
  6
CONTINUOUS
 62
     7
 10
336.2691032684894
 20
5.987481882585715
 42
0.04075983235441678
  0
VERTEX
  8
0
  6
CONTINUOUS
 62
     7
 10
337.3705931556671
 20
6.68673216606684
 42
0.04106008099377936
  0
VERTEX
  8
0
  6
CONTINUOUS
 62
     7
 10
338.3436447586855
 20
7.556083921328614
 42
0.04137779398195301
  0
VERTEX
  8
0
  6
CONTINUOUS
 62
     7
 10
339.1610580729468
 20
8.573463371376505
 42
0.04167556173287016
  0
VERTEX
  8
0
  6
CONTINUOUS
 62
     7
 10
339.7992052336398
 20
9.712124199119215
 42
0.0419164945614424
  0
VERTEX
  8
0
  6
CONTINUOUS
 62
     7
 10
340.2390962624776
 20
10.94112975636099
 42
0
  0
SEQEND
  8
0
  0
POLYLINE
  8
0
  6
CONTINUOUS
 62
     7
 66
     1
 10
0
 20
0
  0
VERTEX
  8
0
  6
CONTINUOUS
 62
     7
 10
343.4314048289556
 20
20.26018562728211
 42
0.0175428024714942
  0
VERTEX
  8
0
  6
CONTINUOUS
 62
     7
 10
342.0899370004203
 20
20.55332861378042
 42
0.01105000106664553
  0
VERTEX
  8
0
  6
CONTINUOUS
 62
     7
 10
340.733649092524
 20
20.77138152718539
 42
0.008116753947646554
  0
VERTEX
  8
0
  6
CONTINUOUS
 62
     7
 10
339.3692750333379
 20
20.93806667291368
 42
0.006531214552919916
  0
VERTEX
  8
0
  6
CONTINUOUS
 62
     7
 10
338.0008428141854
 20
21.06499833982713
 42
0.005600166967233017
  0
VERTEX
  8
0
  6
CONTINUOUS
 62
     7
 10
336.6294646684681
 20
21.1588740847845
 42
0.005037299046472236
  0
VERTEX
  8
0
  6
CONTINUOUS
 62
     7
 10
335.2560748062272
 20
21.2236686663077
 42
0.004711430493024445
  0
VERTEX
  8
0
  6
CONTINUOUS
 62
     7
 10
333.8815881704423
 20
21.26174597165706
 42
0.004560874606666967
  0
VERTEX
  8
0
  6
CONTINUOUS
 62
     7
 10
332.5066224349903
 20
21.27438325536233
 42
0.004559742370436786
  0
VERTEX
  8
0
  6
CONTINUOUS
 62
     7
 10
331.1317827739626
 20
21.26199006405944
 42
0.004705488727854978
  0
VERTEX
  8
0
  6
CONTINUOUS
 62
     7
 10
329.7583480273248
 20
21.22420401926933
 42
0.005034824033440411
  0
VERTEX
  8
0
  6
CONTINUOUS
 62
     7
 10
328.3844006311996
 20
21.15966894912224
 42
0.00559437764301453
  0
VERTEX
  8
0
  6
CONTINUOUS
 62
     7
 10
327.0126631807537
 20
21.06607682664444
 42
0.006523128034349626
  0
VERTEX
  8
0
  6
CONTINUOUS
 62
     7
 10
325.643492488479
 20
20.93942309762384
 42
0.008102150586962115
  0
VERTEX
  8
0
  6
CONTINUOUS
 62
     7
 10
324.2783449725728
 20
20.7730520002711
 42
0.01103428390015725
  0
VERTEX
  8
0
  6
CONTINUOUS
 62
     7
 10
322.9199077333646
 20
20.55514866948618
 42
0.01751373987310754
  0
VERTEX
  8
0
  6
CONTINUOUS
 62
     7
 10
321.575787224559
 20
20.26205137394807
 42
0
  0
SEQEND
  8
0
  0
POLYLINE
  8
0
  6
CONTINUOUS
 62
     7
 66
     1
 10
0
 20
0
 70
     1
  0
VERTEX
  8
0
  6
CONTINUOUS
 62
     7
 10
332.5
 20
15.07009887695313
 42
0.01162476452189834
  0
VERTEX
  8
0
  6
CONTINUOUS
 62
     7
 10
329.0818891266273
 20
14.99160828867686
 42
0.01447217399078604
  0
VERTEX
  8
0
  6
CONTINUOUS
 62
     7
 10
325.6713792691481
 20
14.73808060470511
 42
0.0255603878170158
  0
VERTEX
  8
0
  6
CONTINUOUS
 62
     7
 10
322.2910452185806
 20
14.22591025962467
 42
0.1952839009470627
  0
VERTEX
  8
0
  6
CONTINUOUS
 62
     7
 10
319.35001214316
 20
12.78443255642297
 42
0.1938987691653555
  0
VERTEX
  8
0
  6
CONTINUOUS
 62
     7
 10
322.2942839600086
 20
11.34665175964835
 42
0.02553136055714643
  0
VERTEX
  8
0
  6
CONTINUOUS
 62
     7
 10
325.6729289292065
 20
10.83502013040028
 42
0.01446583242551547
  0
VERTEX
  8
0
  6
CONTINUOUS
 62
     7
 10
329.082344894868
 20
10.58164084475829
 42
0.01162275125249971
  0
VERTEX
  8
0
  6
CONTINUOUS
 62
     7
 10
332.5
 20
10.503173828125
 42
0.01162444772987198
  0
VERTEX
  8
0
  6
CONTINUOUS
 62
     7
 10
335.9181109421924
 20
10.58166215016709
 42
0.01447191320538956
  0
VERTEX
  8
0
  6
CONTINUOUS
 62
     7
 10
339.3286212821457
 20
10.83518367267387
 42
0.02556016153305867
  0
VERTEX
  8
0
  6
CONTINUOUS
 62
     7
 10
342.7089567942722
 20
11.34734461322044
 42
0.1952857525117497
  0
VERTEX
  8
0
  6
CONTINUOUS
 62
     7
 10
345.649987828509
 20
12.78881475813337
 42
0.1938970346386859
  0
VERTEX
  8
0
  6
CONTINUOUS
 62
     7
 10
342.7057157601428
 20
14.22660275370712
 42
0.02553159831797421
  0
VERTEX
  8
0
  6
CONTINUOUS
 62
     7
 10
339.3270722648019
 20
14.73824396651164
 42
0.01446609579013606
  0
VERTEX
  8
0
  6
CONTINUOUS
 62
     7
 10
335.9176567800718
 20
14.99162951316865
 42
0.01162307440157556
  0
SEQEND
  8
0
  0
POLYLINE
  8
0
  6
CONTINUOUS
 62
     7
 66
     1
 10
0
 20
0
  0
VERTEX
  8
0
  6
CONTINUOUS
 62
     7
 10
321.5736999511719
 20
20.26150512695312
 42
0.01843635118410121
  0
VERTEX
  8
0
  6
CONTINUOUS
 62
     7
 10
320.5927281980459
 20
20.02168355166498
 42
0.005077713457411355
  0
VERTEX
  8
0
  6
CONTINUOUS
 62
     7
 10
319.6233153901571
 20
19.73862101622251
 42
0.02696900170245065
  0
VERTEX
  8
0
  6
CONTINUOUS
 62
     7
 10
318.6726104271454
 20
19.39874832366537
 42
0.05660757361487111
  0
VERTEX
  8
0
  6
CONTINUOUS
 62
     7
 10
317.7928148625943
 20
18.90714904828949
 42
0.06337923833050824
  0
VERTEX
  8
0
  6
CONTINUOUS
 62
     7
 10
317.0650124159465
 20
18.21049324192239
 42
0.06341668615123489
  0
VERTEX
  8
0
  6
CONTINUOUS
 62
     7
 10
316.5286687861259
 20
17.35648193220872
 42
0.07213583156042142
  0
VERTEX
  8
0
  6
CONTINUOUS
 62
     7
 10
316.2430941642388
 20
16.39153076951115
 42
0.07236455277581426
  0
VERTEX
  8
0
  6
CONTINUOUS
 62
     7
 10
316.2432056499582
 20
15.38527698217656
 42
0.07212300140074429
  0
VERTEX
  8
0
  6
CONTINUOUS
 62
     7
 10
316.5289025447418
 20
14.42056653400342
 42
0.06331747111164614
  0
VERTEX
  8
0
  6
CONTINUOUS
 62
     7
 10
317.06434824941
 20
13.5678784695395
 42
0.06336610898978071
  0
VERTEX
  8
0
  6
CONTINUOUS
 62
     7
 10
317.7919655116744
 20
12.87103107425727
 42
0.05663944402412389
  0
VERTEX
  8
0
  6
CONTINUOUS
 62
     7
 10
318.6716597986451
 20
12.37921855455324
 42
0.02700180119260272
  0
VERTEX
  8
0
  6
CONTINUOUS
 62
     7
 10
319.6225569088974
 20
12.03916970608291
 42
0.005083127334602337
  0
VERTEX
  8
0
  6
CONTINUOUS
 62
     7
 10
320.5924881851635
 20
11.75594058514607
 42
0.01843875788479986
  0
VERTEX
  8
0
  6
CONTINUOUS
 62
     7
 10
321.5736999511719
 20
11.51605224609375
 42
0
  0
SEQEND
  8
0
  0
POLYLINE
  8
0
  6
CONTINUOUS
 62
     7
 66
     1
 10
0
 20
0
  0
VERTEX
  8
0
  6
CONTINUOUS
 62
     7
 10
343.4263000488281
 20
20.26150512695312
 42
-0.01843635118410115
  0
VERTEX
  8
0
  6
CONTINUOUS
 62
     7
 10
344.4072718019541
 20
20.02168355166498
 42
-0.005077713457411355
  0
VERTEX
  8
0
  6
CONTINUOUS
 62
     7
 10
345.3766846098429
 20
19.73862101622251
 42
-0.02696900170245065
  0
VERTEX
  8
0
  6
CONTINUOUS
 62
     7
 10
346.3273895728546
 20
19.39874832366537
 42
-0.05660757361487117
  0
VERTEX
  8
0
  6
CONTINUOUS
 62
     7
 10
347.2071851374057
 20
18.90714904828949
 42
-0.06337923833050461
  0
VERTEX
  8
0
  6
CONTINUOUS
 62
     7
 10
347.9349875840535
 20
18.21049324192239
 42
-0.06341668615123486
  0
VERTEX
  8
0
  6
CONTINUOUS
 62
     7
 10
348.4713312138741
 20
17.35648193220872
 42
-0.0721358315604191
  0
VERTEX
  8
0
  6
CONTINUOUS
 62
     7
 10
348.7569058357612
 20
16.39153076951115
 42
-0.07236455277581311
  0
VERTEX
  8
0
  6
CONTINUOUS
 62
     7
 10
348.7567943500418
 20
15.38527698217656
 42
-0.0721230014007444
  0
VERTEX
  8
0
  6
CONTINUOUS
 62
     7
 10
348.4710974552582
 20
14.42056653400342
 42
-0.06331747111164591
  0
VERTEX
  8
0
  6
CONTINUOUS
 62
     7
 10
347.93565175059
 20
13.5678784695395
 42
-0.0633661089897806
  0
VERTEX
  8
0
  6
CONTINUOUS
 62
     7
 10
347.2080344883256
 20
12.87103107425727
 42
-0.05663944402412389
  0
VERTEX
  8
0
  6
CONTINUOUS
 62
     7
 10
346.3283402013549
 20
12.37921855455324
 42
-0.02700180119260272
  0
VERTEX
  8
0
  6
CONTINUOUS
 62
     7
 10
345.3774430911026
 20
12.03916970608291
 42
-0.005083127334602337
  0
VERTEX
  8
0
  6
CONTINUOUS
 62
     7
 10
344.4075118148365
 20
11.75594058514607
 42
-0.01843875788479986
  0
VERTEX
  8
0
  6
CONTINUOUS
 62
     7
 10
343.4263000488281
 20
11.51605224609375
 42
0
  0
SEQEND
  8
0
  0
TEXT
  8
0
  6
CONTINUOUS
 62
     7
 10
-57.14286041259766
 20
-10
 40
20
 41
1.008403419045841
  1
ER-_AA
  0
ENDSEC
  0
EOF
