  0
SECTION
  2
HEADER
  0
ENDSEC
  0
SECTION
  2
TABLES
  0
TABLE
  2
LTYPE
 70
    22
  0
LTYPE
  2
CONTINUOUS
 70
    64
  3
Solid line
 72
    65
 73
     0
 40
0.000000
  0
LTYPE
  2
DASHED
 70
    64
  3
__ __ __ __ __ __ __ __ __ __ __ __ __ __ __
 72
    65
 73
     2
 40
3.500000
 49
2.000000
 49
-1.500000
  0
LTYPE
  2
CENTER
 70
    64
  3
____ _ ____ _ ____ _ ____ _ ____ _ ____ _ ____
 72
    65
 73
     4
 40
17.500000
 49
13.000000
 49
-1.500000
 49
1.500000
 49
-1.500000
  0
LTYPE
  2
PHANTOM
 70
    64
  3
_____ _ _ _____ _ _ _____ _ _ _____ _ _ ____  
 72
    65
 73
     6
 40
15.500000
 49
8.000000
 49
-1.500000
 49
1.500000
 49
-1.500000
 49
1.500000
 49
-1.500000
  0
LTYPE
  2
DOT
 70
    64
  3
. . . . . . . . . . . . . . . . . . . . . . . .
 72
    65
 73
     2
 40
0.25
 49
0.0
 49
-0.25
  0
ENDTAB
  0
TABLE
  2
LAYER
 70
     1
  0
LAYER
  2
0
 70
     0
 62
     7
  6
CONTINUOUS
  0
ENDTAB
  0
TABLE
  2
STYLE
 70
     1
  0
STYLE
  2
STANDARD
 70
     0
 40
0.000000
 41
1.000000
 50
0.000000
 71
     0
 42
0.200000
  3
txt
  4
BIGFONT
  0
ENDTAB
  0
TABLE
  2
VIEW
 70
     0
  0
ENDTAB
  0
ENDSEC
  0
SECTION
  2
BLOCKS
  0
ENDSEC
  0
SECTION
  2
ENTITIES
  0
LINE
  8
0
  6
CONTINUOUS
 62
     3
 10
426.5
 20
-250
 11
185
 21
-250
  0
LINE
  8
0
  6
CONTINUOUS
 62
     7
 10
324.5
 20
-176.5
 11
324.5
 21
-272.5189208984375
  0
LINE
  8
0
  6
CONTINUOUS
 62
     7
 10
377.5
 20
-230.0000152587891
 11
377.5
 21
-270
  0
LINE
  8
0
  6
CONTINUOUS
 62
     7
 10
334.5
 20
-177.5
 11
324.5
 21
-177.5
  0
LINE
  8
0
  6
CONTINUOUS
 62
     7
 10
339.5
 20
-198
 11
334.5
 21
-198
  0
LINE
  8
0
  6
CONTINUOUS
 62
     7
 10
334.5
 20
-177.5
 11
334.5
 21
-309.8394165039062
  0
LINE
  8
0
  6
CONTINUOUS
 62
     7
 10
370.5
 20
-221.5
 11
370.5
 21
-278.5
  0
LINE
  8
0
  6
CONTINUOUS
 62
     7
 10
377.5
 20
-229.9999694824219
 11
370.5000305175781
 21
-225.9585266113281
  0
LINE
  8
0
  6
CONTINUOUS
 62
     7
 10
370.5
 20
-221.5
 11
358.3580322265625
 21
-221.5
  0
LINE
  8
0
  6
CONTINUOUS
 62
     7
 10
377.5000305175781
 20
-270
 11
370.5000610351563
 21
-274.0414428710937
  0
LINE
  8
0
  6
CONTINUOUS
 62
     7
 10
339.5
 20
-302
 11
339.5
 21
-198
  0
LINE
  8
0
  6
CONTINUOUS
 62
     7
 10
339.5
 20
-302
 11
334.5
 21
-302
  0
LINE
  8
0
  6
CONTINUOUS
 62
     7
 10
411.5
 20
-238
 11
386.5
 21
-238
  0
LINE
  8
0
  6
CONTINUOUS
 62
     7
 10
411.5
 20
-238
 11
411.5
 21
-259.5
  0
LINE
  8
0
  6
CONTINUOUS
 62
     7
 10
411.5
 20
-259.5
 11
381.5
 21
-259.5
  0
LINE
  8
0
  6
CONTINUOUS
 62
     7
 10
411.5
 20
-240.5
 11
381.5
 21
-240.5
  0
LINE
  8
0
  6
CONTINUOUS
 62
     7
 10
381.5
 20
-237.5
 11
381.5
 21
-262.5
  0
LINE
  8
0
  6
CONTINUOUS
 62
     7
 10
381.5
 20
-262.5
 11
377.5
 21
-262.5
  0
LINE
  8
0
  6
CONTINUOUS
 62
     7
 10
381.5
 20
-237.5
 11
377.5
 21
-237.5
  0
LINE
  8
0
  6
CONTINUOUS
 62
     7
 10
386.5
 20
-238
 11
386.5
 21
-240.5
  0
LINE
  8
0
  6
CONTINUOUS
 62
     7
 10
370.5
 20
-278.5
 11
358.3580322265625
 21
-278.5
  0
LINE
  8
0
  6
CONTINUOUS
 62
     7
 10
358.9999694824219
 20
-244.0823822021484
 11
339.5
 21
-239.0312652587891
  0
LINE
  8
0
  6
CONTINUOUS
 62
     7
 10
358.9999694824219
 20
-230.935302734375
 11
339.5
 21
-217.1353302001953
  0
LINE
  8
0
  6
CONTINUOUS
 62
     7
 10
339.5
 20
-203.2694702148438
 11
358.9999694824219
 21
-222.1205596923828
  0
LINE
  8
0
  6
CONTINUOUS
 62
     7
 10
358.9999694824219
 20
-258.8154602050781
 11
339.5
 21
-263.8665771484375
  0
LINE
  8
0
  6
CONTINUOUS
 62
     7
 10
339.5
 20
-284.9861450195312
 11
358.9999694824219
 21
-271.1861877441406
  0
LINE
  8
0
  6
CONTINUOUS
 62
     7
 10
339.5
 20
-296.7305297851562
 11
358.9999694824219
 21
-277.8794555664062
  0
LINE
  8
0
  6
CONTINUOUS
 62
     7
 10
302
 20
-176.5
 11
324.5
 21
-176.5
  0
LINE
  8
0
  6
CONTINUOUS
 62
     7
 10
302
 20
-176.5
 11
302
 21
-245
  0
LINE
  8
0
  6
CONTINUOUS
 62
     7
 10
250
 20
-324
 11
250
 21
-340
  0
LINE
  8
0
  6
CONTINUOUS
 62
     7
 10
370
 20
-324
 11
370
 21
-340
  0
LINE
  8
0
  6
CONTINUOUS
 62
     7
 10
250
 20
-340
 11
370
 21
-340
  0
LINE
  8
0
  6
CONTINUOUS
 62
     7
 10
250
 20
-324
 11
276.8746948242187
 21
-324
  0
LINE
  8
0
  6
CONTINUOUS
 62
     7
 10
253
 20
-279.0033874511719
 11
253
 21
-324
  0
LINE
  8
0
  6
CONTINUOUS
 62
     7
 10
241
 20
-286
 11
253
 21
-286
  0
LINE
  8
0
  6
CONTINUOUS
 62
     7
 10
241
 20
-214
 11
257.4312438964844
 21
-214
  0
LINE
  8
0
  6
CONTINUOUS
 62
     7
 10
234
 20
-224.5
 11
234
 21
-275.5
  0
LINE
  8
0
  6
CONTINUOUS
 62
     7
 10
233.9999237060547
 20
-224.4998474121094
 11
240.9999389648437
 21
-220.4583892822266
  0
LINE
  8
0
  6
CONTINUOUS
 62
     7
 10
234
 20
-275.5000305175781
 11
241.0000152587891
 21
-279.54150390625
  0
LINE
  8
0
  6
CONTINUOUS
 62
     7
 10
292
 20
-177.5
 11
292
 21
-234.1139678955078
  0
LINE
  8
0
  6
CONTINUOUS
 62
     7
 10
292
 20
-177.5
 11
302
 21
-177.5
  0
LINE
  8
0
  6
CONTINUOUS
 62
     7
 10
277
 20
-198
 11
292
 21
-198
  0
LINE
  8
0
  6
CONTINUOUS
 62
     7
 10
277
 20
-198
 11
277
 21
-285.3291931152344
  0
LINE
  8
0
  6
CONTINUOUS
 62
     7
 10
254.4833374023438
 20
-225.6269226074219
 11
277.0000305175781
 21
-216.4286499023438
  0
LINE
  8
0
  6
CONTINUOUS
 62
     7
 10
277.0000915527344
 20
-235.875244140625
 11
254.4834594726563
 21
-239.2420501708984
  0
LINE
  8
0
  6
CONTINUOUS
 62
     7
 10
277
 20
-264.1251220703125
 11
254.4833831787109
 21
-260.75830078125
  0
LINE
  8
0
  6
CONTINUOUS
 62
     7
 10
252
 20
-207.5
 11
269.0793151855469
 21
-207.5
  0
LINE
  8
0
  6
CONTINUOUS
 62
     7
 10
252
 20
-207.5
 11
252
 21
-214
  0
LINE
  8
0
  6
CONTINUOUS
 62
     7
 10
253
 20
-274.0033874511719
 11
264.4833374023437
 21
-274.0033874511719
  0
LINE
  8
0
  6
CONTINUOUS
 62
     7
 10
277
 20
-285.3291931152344
 11
287.8888854980469
 21
-285.3291931152344
  0
LINE
  8
0
  6
CONTINUOUS
 62
     7
 10
264.4833984375
 20
-274.0032958984375
 11
277.0000610351563
 21
-285.3291015625
  0
LINE
  8
0
  6
CONTINUOUS
 62
     7
 10
295
 20
-245
 11
302
 21
-245
  0
LINE
  8
0
  6
CONTINUOUS
 62
     7
 10
281.798828125
 20
-319.8682556152344
 11
295.0001220703125
 21
-245
  0
LINE
  8
0
  6
CONTINUOUS
 62
     7
 10
317
 20
-260
 11
321.1455383300781
 21
-260
  0
LINE
  8
0
  6
CONTINUOUS
 62
     7
 10
292
 20
-234.1139678955078
 11
295
 21
-234.1139678955078
  0
LINE
  8
0
  6
CONTINUOUS
 62
     7
 10
321.1455688476562
 20
-259.9999694824219
 11
335.9111328125
 21
-315.1058044433594
  0
LINE
  8
0
  6
CONTINUOUS
 62
     3
 10
265
 20
-319.9278564453125
 11
265
 21
-343.29345703125
  0
LINE
  8
0
  6
CONTINUOUS
 62
     3
 10
355
 20
-319.9278564453125
 11
355
 21
-343.29345703125
  0
LINE
  8
0
  6
CONTINUOUS
 62
     7
 10
254.4834594726563
 20
-215.6452484130859
 11
277.0001220703125
 21
-203.0802001953125
  0
LINE
  8
0
  6
CONTINUOUS
 62
     7
 10
241
 20
-214
 11
241
 21
-286
  0
LINE
  8
0
  6
CONTINUOUS
 62
     7
 10
273.74169921875
 20
-240.567138671875
 11
261.0675048828125
 21
-242.0546722412109
  0
LINE
  8
0
  6
CONTINUOUS
 62
     7
 10
261.1930847167969
 20
-257.9592590332031
 11
273.7416381835937
 21
-259.4341125488281
  0
LINE
  8
0
  6
CONTINUOUS
 62
     7
 10
200
 20
-236.5
 11
200
 21
-261
  0
LINE
  8
0
  6
CONTINUOUS
 62
     7
 10
200
 20
-239
 11
230
 21
-239
  0
LINE
  8
0
  6
CONTINUOUS
 62
     7
 10
200
 20
-261
 11
230
 21
-261
  0
LINE
  8
0
  6
CONTINUOUS
 62
     7
 10
230
 20
-235
 11
230
 21
-265
  0
LINE
  8
0
  6
CONTINUOUS
 62
     7
 10
230
 20
-265
 11
234
 21
-265
  0
LINE
  8
0
  6
CONTINUOUS
 62
     7
 10
230
 20
-235
 11
234
 21
-235
  0
LINE
  8
0
  6
CONTINUOUS
 62
     7
 10
200
 20
-236.5
 11
225
 21
-236.5
  0
LINE
  8
0
  6
CONTINUOUS
 62
     7
 10
225
 20
-236.5
 11
225
 21
-239
  0
LINE
  8
0
  6
DASHED
 62
     7
 10
271
 20
-324
 11
271
 21
-340
  0
LINE
  8
0
  6
DASHED
 62
     7
 10
259
 20
-324
 11
259
 21
-340
  0
LINE
  8
0
  6
DASHED
 62
     7
 10
361
 20
-324
 11
361
 21
-340
  0
LINE
  8
0
  6
DASHED
 62
     7
 10
349
 20
-324
 11
349
 21
-340
  0
LINE
  8
0
  6
CONTINUOUS
 62
     7
 10
295
 20
-234.1139678955078
 11
295
 21
-245
  0
LINE
  8
0
  6
CONTINUOUS
 62
     7
 10
347.502197265625
 20
-324
 11
370
 21
-324
  0
LINE
  8
0
  6
CONTINUOUS
 62
     3
 10
426.5
 20
0
 11
185
 21
0
  0
LINE
  8
0
  6
CONTINUOUS
 62
     7
 10
377.5
 20
20
 11
377.5
 21
-20
  0
LINE
  8
0
  6
CONTINUOUS
 62
     7
 10
331.5
 20
72.5
 11
324.5
 21
72.5
  0
LINE
  8
0
  6
CONTINUOUS
 62
     7
 10
339.5
 20
52
 11
334.5
 21
52
  0
LINE
  8
0
  6
CONTINUOUS
 62
     7
 10
331.5
 20
72.5
 11
331.5
 21
63.92559814453125
  0
LINE
  8
0
  6
CONTINUOUS
 62
     7
 10
334.5
 20
63.92559814453125
 11
334.5
 21
-63.92559814453125
  0
LINE
  8
0
  6
CONTINUOUS
 62
     7
 10
370.5
 20
28.5
 11
370.5
 21
-28.5
  0
LINE
  8
0
  6
CONTINUOUS
 62
     7
 10
377.4999694824219
 20
20.00008583068848
 11
370.5
 21
24.04152870178223
  0
LINE
  8
0
  6
CONTINUOUS
 62
     7
 10
370.5
 20
28.5
 11
358.3580322265625
 21
28.5
  0
LINE
  8
0
  6
CONTINUOUS
 62
     7
 10
377.5
 20
-19.99993515014648
 11
370.5
 21
-24.0413761138916
  0
LINE
  8
0
  6
CONTINUOUS
 62
     7
 10
370.5
 20
-28.5
 11
358.3580322265625
 21
-28.5
  0
LINE
  8
0
  6
CONTINUOUS
 62
     7
 10
339.5
 20
-52
 11
339.5
 21
52
  0
LINE
  8
0
  6
CONTINUOUS
 62
     7
 10
339.5
 20
-52
 11
334.5
 21
-52
  0
LINE
  8
0
  6
CONTINUOUS
 62
     7
 10
331.5
 20
-72.5
 11
324.5
 21
-72.5
  0
LINE
  8
0
  6
CONTINUOUS
 62
     7
 10
334.5
 20
63.92559814453125
 11
331.5
 21
63.92559814453125
  0
LINE
  8
0
  6
CONTINUOUS
 62
     7
 10
334.5
 20
-63.92559814453125
 11
331.5
 21
-63.92559814453125
  0
LINE
  8
0
  6
CONTINUOUS
 62
     7
 10
411.5
 20
9.5
 11
411.5
 21
-9.5
  0
LINE
  8
0
  6
CONTINUOUS
 62
     7
 10
411.5
 20
-9.5
 11
381.5
 21
-9.5
  0
LINE
  8
0
  6
CONTINUOUS
 62
     7
 10
411.5
 20
9.5
 11
381.5
 21
9.5
  0
LINE
  8
0
  6
CONTINUOUS
 62
     7
 10
381.5
 20
12.5
 11
381.5
 21
-12.5
  0
LINE
  8
0
  6
CONTINUOUS
 62
     7
 10
381.5
 20
-12.5
 11
377.5
 21
-12.5
  0
LINE
  8
0
  6
CONTINUOUS
 62
     7
 10
381.5
 20
12.5
 11
377.5
 21
12.5
  0
LINE
  8
0
  6
CONTINUOUS
 62
     7
 10
411.5
 20
3
 11
386.5
 21
3
  0
LINE
  8
0
  6
CONTINUOUS
 62
     7
 10
411.5
 20
-3
 11
386.5
 21
-3
  0
LINE
  8
0
  6
CONTINUOUS
 62
     7
 10
386.5
 20
3
 11
386.5
 21
-3
  0
LINE
  8
0
  6
CONTINUOUS
 62
     7
 10
358.9999694824219
 20
5.917615413665771
 11
339.5000305175781
 21
10.9687442779541
  0
LINE
  8
0
  6
CONTINUOUS
 62
     7
 10
358.9999694824219
 20
19.06468772888184
 11
339.5
 21
32.86465835571289
  0
LINE
  8
0
  6
CONTINUOUS
 62
     7
 10
339.5
 20
46.73052978515625
 11
358.9999694824219
 21
27.87942695617676
  0
LINE
  8
0
  6
CONTINUOUS
 62
     7
 10
359
 20
-5.917582035064697
 11
339.5
 21
-10.96871852874756
  0
LINE
  8
0
  6
CONTINUOUS
 62
     7
 10
358.9999694824219
 20
-19.0647144317627
 11
339.5
 21
-32.86469650268555
  0
LINE
  8
0
  6
CONTINUOUS
 62
     7
 10
339.5
 20
-46.73053359985352
 11
358.9999389648438
 21
-27.87945747375488
  0
LINE
  8
0
  6
CONTINUOUS
 62
     7
 10
331.5
 20
-63.92559814453125
 11
331.5
 21
-72.5
  0
LINE
  8
0
  6
CONTINUOUS
 62
     7
 10
302
 20
73.5
 11
324.5
 21
73.5
  0
LINE
  8
0
  6
CONTINUOUS
 62
     7
 10
302
 20
-73.5
 11
324.5
 21
-73.5
  0
LINE
  8
0
  6
CONTINUOUS
 62
     7
 10
302
 20
79.088134765625
 11
302
 21
-79.088134765625
  0
LINE
  8
0
  6
CONTINUOUS
 62
     7
 10
324.5
 20
73.5
 11
324.5
 21
-73.5
  0
LINE
  8
0
  6
CONTINUOUS
 62
     7
 10
234
 20
25.5
 11
234
 21
-25.5
  0
LINE
  8
0
  6
CONTINUOUS
 62
     7
 10
370
 20
-65.96502685546875
 11
370
 21
-82.5
  0
LINE
  8
0
  6
CONTINUOUS
 62
     7
 10
255
 20
-87.5
 11
365
 21
-87.5
  0
LINE
  8
0
  6
CONTINUOUS
 62
     7
 10
250
 20
-52.5
 11
250
 21
-82.5
  0
LINE
  8
0
  6
CONTINUOUS
 62
     7
 10
339.5
 20
-51.06284332275391
 11
366.7554931640625
 21
-61.28365707397461
  0
LINE
  8
0
  6
CONTINUOUS
 62
     7
 10
359.1106872558594
 20
-57.09365463256836
 11
348.7469787597656
 21
-37.79125213623047
  0
LINE
  8
0
  6
CONTINUOUS
 62
     7
 10
230
 20
15
 11
230
 21
-15
  0
LINE
  8
0
  6
CONTINUOUS
 62
     7
 10
200
 20
11
 11
200
 21
-11
  0
LINE
  8
0
  6
CONTINUOUS
 62
     7
 10
200
 20
11
 11
230
 21
11
  0
LINE
  8
0
  6
CONTINUOUS
 62
     7
 10
200
 20
-11
 11
230
 21
-11
  0
LINE
  8
0
  6
CONTINUOUS
 62
     7
 10
230
 20
-15
 11
234
 21
-15
  0
LINE
  8
0
  6
CONTINUOUS
 62
     7
 10
230
 20
15
 11
234
 21
15
  0
LINE
  8
0
  6
CONTINUOUS
 62
     7
 10
241
 20
36
 11
241
 21
-36
  0
LINE
  8
0
  6
CONTINUOUS
 62
     7
 10
241
 20
36
 11
257.4314575195313
 21
36
  0
LINE
  8
0
  6
CONTINUOUS
 62
     7
 10
241
 20
-36
 11
257.4313354492188
 21
-36
  0
LINE
  8
0
  6
CONTINUOUS
 62
     7
 10
277
 20
52
 11
292
 21
52
  0
LINE
  8
0
  6
CONTINUOUS
 62
     7
 10
277
 20
-52
 11
292
 21
-52
  0
LINE
  8
0
  6
CONTINUOUS
 62
     7
 10
292
 20
63.92559814453125
 11
292
 21
-63.92559814453125
  0
LINE
  8
0
  6
CONTINUOUS
 62
     7
 10
277
 20
52
 11
277
 21
-52
  0
LINE
  8
0
  6
CONTINUOUS
 62
     7
 10
233.9999237060547
 20
25.50034332275391
 11
240.9999084472656
 21
29.54178428649902
  0
LINE
  8
0
  6
CONTINUOUS
 62
     7
 10
234.0000305175781
 20
-25.49998092651367
 11
241.0000152587891
 21
-29.54142189025879
  0
LINE
  8
0
  6
CONTINUOUS
 62
     7
 10
254.4833679199219
 20
-10.7576904296875
 11
277.0000305175781
 21
-14.12448024749756
  0
LINE
  8
0
  6
CONTINUOUS
 62
     7
 10
254.4832763671875
 20
-24.37336349487305
 11
276.9999389648438
 21
-33.57160949707031
  0
LINE
  8
0
  6
CONTINUOUS
 62
     7
 10
254.4834136962891
 20
-34.35472869873047
 11
277.0000610351563
 21
-46.91979217529297
  0
LINE
  8
0
  6
CONTINUOUS
 62
     7
 10
254.4832916259766
 20
10.75817394256592
 11
276.9999694824219
 21
14.12496471405029
  0
LINE
  8
0
  6
CONTINUOUS
 62
     7
 10
254.4835357666016
 20
24.37271499633789
 11
277.000244140625
 21
33.57097244262695
  0
LINE
  8
0
  6
CONTINUOUS
 62
     7
 10
254.4830627441406
 20
34.35540390014648
 11
276.9997253417969
 21
46.92047500610352
  0
LINE
  8
0
  6
CONTINUOUS
 62
     7
 10
250
 20
52.5
 11
250
 21
82.5
  0
LINE
  8
0
  6
CONTINUOUS
 62
     7
 10
255
 20
87.5
 11
365
 21
87.5
  0
LINE
  8
0
  6
CONTINUOUS
 62
     7
 10
370
 20
65.96502685546875
 11
370
 21
82.5
  0
LINE
  8
0
  6
CONTINUOUS
 62
     7
 10
339.5
 20
51.06185150146484
 11
366.7557983398437
 21
61.28277206420898
  0
LINE
  8
0
  6
CONTINUOUS
 62
     7
 10
359.1104736328125
 20
57.0937614440918
 11
348.7467956542969
 21
37.79143905639648
  0
LINE
  8
0
  6
CONTINUOUS
 62
     7
 10
253
 20
-36
 11
253
 21
-51.72433471679687
  0
LINE
  8
0
  6
CONTINUOUS
 62
     7
 10
253
 20
-51.72433471679687
 11
277
 21
-51.72433471679687
  0
LINE
  8
0
  6
CONTINUOUS
 62
     7
 10
253
 20
36
 11
253
 21
51.724365234375
  0
LINE
  8
0
  6
CONTINUOUS
 62
     7
 10
253
 20
51.724365234375
 11
277
 21
51.724365234375
  0
LINE
  8
0
  6
CONTINUOUS
 62
     7
 10
200
 20
-3
 11
225
 21
-3
  0
LINE
  8
0
  6
CONTINUOUS
 62
     7
 10
200
 20
3
 11
225
 21
3
  0
LINE
  8
0
  6
CONTINUOUS
 62
     7
 10
225
 20
3
 11
225
 21
-3
  0
LINE
  8
0
  6
CONTINUOUS
 62
     3
 10
355
 20
-64.04592895507813
 11
355
 21
-81.23434448242187
  0
LINE
  8
0
  6
CONTINUOUS
 62
     3
 10
347.0876159667969
 20
-72.5
 11
362.9788208007812
 21
-72.5
  0
LINE
  8
0
  6
CONTINUOUS
 62
     3
 10
257.0876159667969
 20
-72.5
 11
272.9788208007813
 21
-72.5
  0
LINE
  8
0
  6
CONTINUOUS
 62
     3
 10
265
 20
-64.04592895507813
 11
265
 21
-81.23434448242187
  0
LINE
  8
0
  6
CONTINUOUS
 62
     3
 10
257.0876159667969
 20
72.5
 11
272.9788208007813
 21
72.5
  0
LINE
  8
0
  6
CONTINUOUS
 62
     3
 10
265
 20
64.04592895507813
 11
265
 21
81.23434448242187
  0
LINE
  8
0
  6
CONTINUOUS
 62
     3
 10
347.0876159667969
 20
72.5
 11
362.9788208007812
 21
72.5
  0
LINE
  8
0
  6
CONTINUOUS
 62
     3
 10
355
 20
64.04592895507813
 11
355
 21
81.23434448242187
  0
LINE
  8
0
  6
CONTINUOUS
 62
     7
 10
256.1483154296875
 20
-8.109145164489746
 11
277
 21
-10.15435123443604
  0
LINE
  8
0
  6
CONTINUOUS
 62
     7
 10
256.1488342285156
 20
8.109478950500488
 11
277
 21
10.1557788848877
  0
LINE
  8
0
  6
CONTINUOUS
 62
     7
 10
292
 20
63.92559814453125
 11
295
 21
63.92559814453125
  0
LINE
  8
0
  6
CONTINUOUS
 62
     7
 10
292
 20
-63.92559814453125
 11
295
 21
-63.92559814453125
  0
LINE
  8
0
  6
CONTINUOUS
 62
     7
 10
295
 20
-63.92559814453125
 11
295
 21
-79.088134765625
  0
LINE
  8
0
  6
CONTINUOUS
 62
     7
 10
280.4034729003906
 20
-86.15631866455078
 11
294.6483459472656
 21
-79.08812713623047
  0
LINE
  8
0
  6
CONTINUOUS
 62
     7
 10
294.6483154296875
 20
-79.088134765625
 11
321.4365234375
 21
-79.088134765625
  0
LINE
  8
0
  6
CONTINUOUS
 62
     7
 10
321.4365234375
 20
-79.088134765625
 11
338.8550415039063
 21
-86.10872650146484
  0
LINE
  8
0
  6
CONTINUOUS
 62
     7
 10
280.4034729003906
 20
86.15631103515625
 11
294.6483459472656
 21
79.08811187744141
  0
LINE
  8
0
  6
CONTINUOUS
 62
     7
 10
295
 20
63.92559814453125
 11
295
 21
79.088134765625
  0
LINE
  8
0
  6
CONTINUOUS
 62
     7
 10
294.6483154296875
 20
79.088134765625
 11
321.4365234375
 21
79.088134765625
  0
LINE
  8
0
  6
CONTINUOUS
 62
     7
 10
321.4365234375
 20
79.08815002441406
 11
338.8550415039063
 21
86.10874176025391
  0
LINE
  8
0
  6
CONTINUOUS
 62
     3
 10
-96.08383941650391
 20
-250
 11
96.08260345458984
 21
-250
  0
LINE
  8
0
  6
CONTINUOUS
 62
     3
 10
0
 20
-161.5
 11
0
 21
-355
  0
LINE
  8
0
  6
CONTINUOUS
 62
     7
 10
-87.5
 20
-340
 11
-47.5
 21
-340
  0
LINE
  8
0
  6
CONTINUOUS
 62
     7
 10
-87.5
 20
-324
 11
-87.5
 21
-340
  0
LINE
  8
0
  6
CONTINUOUS
 62
     7
 10
87.5
 20
-324
 11
87.5
 21
-340
  0
LINE
  8
0
  6
CONTINUOUS
 62
     7
 10
-87.5
 20
-324
 11
-47.5
 21
-324
  0
LINE
  8
0
  6
CONTINUOUS
 62
     7
 10
-44.5
 20
-337
 11
44.5
 21
-337
  0
LINE
  8
0
  6
CONTINUOUS
 62
     7
 10
-47.5
 20
-324
 11
-47.5
 21
-340
  0
LINE
  8
0
  6
CONTINUOUS
 62
     7
 10
47.5
 20
-324
 11
47.5
 21
-340
  0
LINE
  8
0
  6
CONTINUOUS
 62
     7
 10
47.5
 20
-324
 11
87.5
 21
-324
  0
LINE
  8
0
  6
CONTINUOUS
 62
     7
 10
47.5
 20
-340
 11
87.5
 21
-340
  0
LINE
  8
0
  6
CONTINUOUS
 62
     7
 10
41.56008911132812
 20
-213.9604797363281
 11
52.5412712097168
 21
-210.0009765625
  0
LINE
  8
0
  6
CONTINUOUS
 62
     7
 10
51.98717498779297
 20
-232.0225524902344
 11
60.90682220458984
 21
-224.4923095703125
  0
LINE
  8
0
  6
CONTINUOUS
 62
     7
 10
-10.42958736419678
 20
-195.9883422851563
 11
-8.368015289306641
 21
-184.49853515625
  0
LINE
  8
0
  6
CONTINUOUS
 62
     7
 10
10.42675876617432
 20
-195.9887084960937
 11
8.365205764770508
 21
-184.4990081787109
  0
LINE
  8
0
  6
CONTINUOUS
 62
     3
 10
50.2479248046875
 20
-220.9881286621094
 11
62.63628005981445
 21
-213.8357086181641
  0
LINE
  8
0
  6
CONTINUOUS
 62
     7
 10
-51.98984527587891
 20
-232.0260314941406
 11
-60.90946578979492
 21
-224.4958038330078
  0
LINE
  8
0
  6
CONTINUOUS
 62
     7
 10
-41.56135940551758
 20
-213.9633026123047
 11
-52.54254150390625
 21
-210.0037994384766
  0
LINE
  8
0
  6
CONTINUOUS
 62
     3
 10
-47.12594604492187
 20
-222.7916412353516
 11
-61.03079605102539
 21
-214.763671875
  0
LINE
  8
0
  6
CONTINUOUS
 62
     7
 10
-41.56193161010742
 20
-286.0347595214844
 11
-52.54311370849609
 21
-289.9942626953125
  0
LINE
  8
0
  6
CONTINUOUS
 62
     7
 10
-51.99099731445312
 20
-267.9727783203125
 11
-60.91064453125
 21
-275.5030212402344
  0
LINE
  8
0
  6
CONTINUOUS
 62
     3
 10
-47.64397811889648
 20
-277.5078125
 11
-62.04159927368164
 21
-285.8202819824219
  0
LINE
  8
0
  6
CONTINUOUS
 62
     7
 10
10.42457962036133
 20
-304.0106506347656
 11
8.363018035888672
 21
-315.5003967285156
  0
LINE
  8
0
  6
CONTINUOUS
 62
     7
 10
-10.43123531341553
 20
-304.0119323730469
 11
-8.369678497314453
 21
-315.5016784667969
  0
LINE
  8
0
  6
CONTINUOUS
 62
     7
 10
51.98831939697266
 20
-267.9757690429687
 11
60.90793991088867
 21
-275.5060119628906
  0
LINE
  8
0
  6
CONTINUOUS
 62
     7
 10
41.5611457824707
 20
-286.0367431640625
 11
52.54232406616211
 21
-289.9962463378906
  0
LINE
  8
0
  6
CONTINUOUS
 62
     3
 10
48.33074951171875
 20
-277.903564453125
 11
62.05522155761719
 21
-285.827392578125
  0
LINE
  8
0
  6
CONTINUOUS
 62
     7
 10
76.85211181640625
 20
-245
 11
80.58837890625
 21
-245
  0
LINE
  8
0
  6
CONTINUOUS
 62
     7
 10
-3
 20
-236.5
 11
-3
 21
-242.5
  0
LINE
  8
0
  6
CONTINUOUS
 62
     7
 10
3
 20
-236.5
 11
3
 21
-242.5
  0
LINE
  8
0
  6
CONTINUOUS
 62
     7
 10
-3
 20
-242.5
 11
3
 21
-242.5
  0
LINE
  8
0
  6
CONTINUOUS
 62
     7
 10
80.58786010742187
 20
-245.0000152587891
 11
87.49947357177734
 21
-324.0000305175781
  0
LINE
  8
0
  6
CONTINUOUS
 62
     7
 10
-80.58908843994141
 20
-244.9998931884766
 11
-87.50069427490234
 21
-323.9998779296875
  0
LINE
  8
0
  6
CONTINUOUS
 62
     7
 10
-76.57305908203125
 20
-245
 11
-80.58837890625
 21
-245
  0
LINE
  8
0
  6
CONTINUOUS
 62
     3
 10
-72.5
 20
-319.52587890625
 11
-72.5
 21
-343.3502807617188
  0
LINE
  8
0
  6
CONTINUOUS
 62
     3
 10
72.5
 20
-319.1353149414062
 11
72.5
 21
-343.3502807617188
  0
LINE
  8
0
  6
CONTINUOUS
 62
     7
 10
-3
 20
-236.5
 11
3
 21
-236.5
  0
LINE
  8
0
  6
DASHED
 62
     7
 10
-78.5
 20
-324
 11
-78.5
 21
-340
  0
LINE
  8
0
  6
DASHED
 62
     7
 10
-66.5
 20
-324
 11
-66.5
 21
-340
  0
LINE
  8
0
  6
DASHED
 62
     7
 10
78.5
 20
-324
 11
78.5
 21
-340
  0
LINE
  8
0
  6
DASHED
 62
     7
 10
66.5
 20
-324
 11
66.5
 21
-340
  0
LINE
  8
0
  6
CONTINUOUS
 62
     7
 10
-37.6698112487793
 20
-288.8358764648438
 11
-49.39344024658203
 21
-323.3568115234375
  0
LINE
  8
0
  6
CONTINUOUS
 62
     7
 10
37.67015075683594
 20
-288.8362121582031
 11
49.39368438720703
 21
-323.3568725585937
  0
LINE
  8
0
  6
CONTINUOUS
 62
     7
 10
36.32621765136719
 20
-240.2664337158203
 11
47.33036804199219
 21
-237.31787109375
  0
LINE
  8
0
  6
CONTINUOUS
 62
     7
 10
26.59263610839844
 20
-223.4073638916016
 11
34.64823150634766
 21
-215.3517608642578
  0
LINE
  8
0
  6
CONTINUOUS
 62
     7
 10
9.733601570129395
 20
-213.6737823486328
 11
12.68215370178223
 21
-202.6696319580078
  0
LINE
  8
0
  6
CONTINUOUS
 62
     7
 10
-9.733590126037598
 20
-213.6737823486328
 11
-12.68214321136475
 21
-202.6696319580078
  0
LINE
  8
0
  6
CONTINUOUS
 62
     7
 10
-26.59263610839844
 20
-223.4073638916016
 11
-34.64823150634766
 21
-215.3517608642578
  0
LINE
  8
0
  6
CONTINUOUS
 62
     7
 10
-36.32621383666992
 20
-240.2664184570313
 11
-47.3303337097168
 21
-237.31787109375
  0
LINE
  8
0
  6
CONTINUOUS
 62
     7
 10
-36.32621383666992
 20
-259.7335815429688
 11
-47.33036422729492
 21
-262.68212890625
  0
LINE
  8
0
  6
CONTINUOUS
 62
     7
 10
-25.45584487915039
 20
-275.4558410644531
 11
-35.7515754699707
 21
-285.7515869140625
  0
LINE
  8
0
  6
CONTINUOUS
 62
     7
 10
-9.733562469482422
 20
-286.3262329101563
 11
-12.68211364746094
 21
-297.3303527832031
  0
LINE
  8
0
  6
CONTINUOUS
 62
     7
 10
9.73357105255127
 20
-286.3262329101563
 11
12.68212413787842
 21
-297.3303527832031
  0
LINE
  8
0
  6
CONTINUOUS
 62
     7
 10
26.59263610839844
 20
-276.5926208496094
 11
35.75192260742187
 21
-285.7519226074219
  0
LINE
  8
0
  6
CONTINUOUS
 62
     7
 10
36.32624816894531
 20
-259.7335815429688
 11
47.33039474487305
 21
-262.68212890625
  0
LINE
  8
0
  6
CONTINUOUS
 62
     7
 10
-9.8349609375
 20
-207.5
 11
9.8349609375
 21
-207.5
  0
LINE
  8
0
  6
CONTINUOUS
 62
     7
 10
-41
 20
-240.5670776367188
 11
-41
 21
-259.43310546875
  0
LINE
  8
0
  6
CONTINUOUS
 62
     7
 10
-9.83526611328125
 20
-292.5
 11
9.83441162109375
 21
-292.5
  0
LINE
  8
0
  6
CONTINUOUS
 62
     7
 10
41
 20
-240.5669555664062
 11
41
 21
-259.4340209960938
  0
ARC
  8
0
  6
CONTINUOUS
 62
     7
 10
262
 20
-250
 40
8.000000000000011
 50
96.69394306092748
 51
264.2191471358
  0
ARC
  8
0
  6
CONTINUOUS
 62
     7
 10
248
 20
-279.0033874511719
 40
5
 50
0
 51
89.99998201391064
  0
ARC
  8
0
  6
CONTINUOUS
 62
     7
 10
317
 20
-245
 40
15
 50
179.9999776881996
 51
270.000028004002
  0
ARC
  8
0
  6
CONTINUOUS
 62
     7
 10
276.8746948242187
 20
-319
 40
5.000000000000019
 50
270.0000179860891
 51
349.9999516258094
  0
ARC
  8
0
  6
CONTINUOUS
 62
     7
 10
347.502197265625
 20
-312
 40
12
 50
195.0000056537406
 51
270.0000179860893
  0
ARC
  8
0
  6
CONTINUOUS
 62
     7
 10
386.5
 20
0
 40
3
 50
89.99998201391097
 51
269.9999460417318
  0
ARC
  8
0
  6
CONTINUOUS
 62
     7
 10
255
 20
-82.5
 40
5.00000000000001
 50
179.9999776881996
 51
270.0000280040019
  0
ARC
  8
0
  6
CONTINUOUS
 62
     7
 10
365
 20
-82.5
 40
5.000000000000004
 50
270.0000179860891
 51
0
  0
ARC
  8
0
  6
CONTINUOUS
 62
     7
 10
255
 20
-52.5
 40
4.999999999999996
 50
113.5781775193881
 51
179.9999640278213
  0
ARC
  8
0
  6
CONTINUOUS
 62
     7
 10
365
 20
-65.96502685546875
 40
5
 50
0
 51
69.44395397086706
  0
ARC
  8
0
  6
CONTINUOUS
 62
     7
 10
363.5158996582031
 20
-54.72848510742187
 40
5.000000000000003
 50
208.2318715856177
 51
249.4439353015325
  0
ARC
  8
0
  6
CONTINUOUS
 62
     7
 10
262
 20
0
 40
10
 50
125.8133549268205
 51
234.1870239213073
  0
ARC
  8
0
  6
CONTINUOUS
 62
     7
 10
255
 20
52.5
 40
5.00000000000001
 50
179.9999776881996
 51
246.4218324985244
  0
ARC
  8
0
  6
CONTINUOUS
 62
     7
 10
255
 20
82.5
 40
4.999999999999996
 50
89.99992737239728
 51
179.9999640278213
  0
ARC
  8
0
  6
CONTINUOUS
 62
     7
 10
365
 20
82.5
 40
5
 50
359.9999453584866
 51
89.99992737239761
  0
ARC
  8
0
  6
CONTINUOUS
 62
     7
 10
365
 20
65.96502685546875
 40
4.999999999999995
 50
290.5559913876195
 51
359.9999453584866
  0
ARC
  8
0
  6
CONTINUOUS
 62
     7
 10
363.5158996582031
 20
54.728515625
 40
5
 50
110.5560100569544
 51
151.7681830558957
  0
ARC
  8
0
  6
CONTINUOUS
 62
     7
 10
225
 20
0
 40
3
 50
270.0000179860896
 51
89.99998201391043
  0
CIRCLE
  8
0
  6
CONTINUOUS
 62
     7
 10
355
 20
-72.5
 40
6
  0
CIRCLE
  8
0
  6
CONTINUOUS
 62
     7
 10
265
 20
-72.5
 40
6
  0
CIRCLE
  8
0
  6
CONTINUOUS
 62
     7
 10
265
 20
72.5
 40
6
  0
CIRCLE
  8
0
  6
CONTINUOUS
 62
     7
 10
355
 20
72.5
 40
6
  0
ARC
  8
0
  6
CONTINUOUS
 62
     7
 10
0
 20
-250
 40
73.50000000000001
 50
308.4898483365928
 51
230.6476745349201
  0
ARC
  8
0
  6
CONTINUOUS
 62
     7
 10
0
 20
-250
 40
52.00000000000001
 50
317.2032196985211
 51
222.7971234047991
  0
CIRCLE
  8
0
  6
CONTINUOUS
 62
     7
 10
0
 20
-250
 40
36
  0
CIRCLE
  8
0
  6
CONTINUOUS
 62
     7
 10
0
 20
-250
 40
25.5
  0
ARC
  8
0
  6
CONTINUOUS
 62
     3
 10
0
 20
-250
 40
63.99999999999999
 50
262.7235169349513
 51
276.6528817848702
  0
ARC
  8
0
  6
CONTINUOUS
 62
     7
 10
55.42559814453125
 20
-218
 40
8.500000000000002
 50
310.1721717404912
 51
109.8278162687826
  0
ARC
  8
0
  6
CONTINUOUS
 62
     7
 10
0
 20
-186
 40
8.5
 50
10.17218707052167
 51
169.8278315988131
  0
ARC
  8
0
  6
CONTINUOUS
 62
     7
 10
-55.42559814453125
 20
-218
 40
8.500000000000012
 50
70.17218190998464
 51
229.8278332684651
  0
ARC
  8
0
  6
CONTINUOUS
 62
     7
 10
-55.42559814453125
 20
-281.9999389648438
 40
8.500000000000012
 50
130.1721767494475
 51
289.8278212777388
  0
ARC
  8
0
  6
CONTINUOUS
 62
     7
 10
0
 20
-313.9999389648438
 40
8.5
 50
190.1721820615654
 51
349.8278265898566
  0
ARC
  8
0
  6
CONTINUOUS
 62
     7
 10
55.42559814453125
 20
-281.9999389648438
 40
8.499999999999995
 50
250.1721769010283
 51
49.82782142931953
  0
ARC
  8
0
  6
CONTINUOUS
 62
     7
 10
0
 20
-250
 40
52.00000000000001
 50
227.2056726470495
 51
312.794759476101
  0
ARC
  8
0
  6
CONTINUOUS
 62
     7
 10
76.85211181640625
 20
-240
 40
4.999999999999998
 50
223.1602062431643
 51
270.0000179860893
  0
ARC
  8
0
  6
CONTINUOUS
 62
     7
 10
0
 20
-250
 40
10.99999999999999
 50
105.8266368114757
 51
74.17337821539321
  0
ARC
  8
0
  6
CONTINUOUS
 62
     7
 10
-44.5
 20
-340
 40
2.999999999999977
 50
89.9999820139107
 51
179.9999640278208
  0
ARC
  8
0
  6
CONTINUOUS
 62
     7
 10
44.5
 20
-340
 40
3
 50
0
 51
89.9999820139107
  0
ARC
  8
0
  6
CONTINUOUS
 62
     7
 10
-76.85211181640625
 20
-240
 40
4.999999999999993
 50
273.2070854995447
 51
316.8397921629738
  0
ARC
  8
0
  6
CONTINUOUS
 62
     3
 10
0
 20
-250
 40
63.99999999999999
 50
323.7564412825952
 51
336.2875280980819
  0
ARC
  8
0
  6
CONTINUOUS
 62
     3
 10
0
 20
-250
 40
64
 50
23.80862559750625
 51
36.97342590192314
  0
ARC
  8
0
  6
CONTINUOUS
 62
     3
 10
0
 20
-250
 40
63.99999999999999
 50
83.35940572544663
 51
95.80329322334701
  0
ARC
  8
0
  6
CONTINUOUS
 62
     3
 10
0
 20
-250
 40
63.99999999999999
 50
143.0914249230133
 51
156.5041952452475
  0
ARC
  8
0
  6
CONTINUOUS
 62
     3
 10
0
 20
-250
 40
64.00000000000001
 50
202.9723527171411
 51
216.6502300018201
  0
ARC
  8
0
  6
CONTINUOUS
 62
     7
 10
-30.0947265625
 20
-291.408447265625
 40
7.999999999999984
 50
135.0000003416228
 51
161.2420379252968
  0
ARC
  8
0
  6
CONTINUOUS
 62
     7
 10
30.09506225585938
 20
-291.4087829589844
 40
8
 50
18.75796025347026
 51
45.00000125223909
  0
ARC
  8
0
  6
CONTINUOUS
 62
     7
 10
0
 20
-250
 40
73.49999999999999
 50
235.9438068598137
 51
305.0063391617651
  0
TEXT
  8
0
  6
CONTINUOUS
 62
     7
 10
-27.85714530944824
 20
-7.5
 40
15
 41
0.8512496656821464
  1
ＥＲ－Ａ
  0
ENDSEC
  0
EOF
