  0
SECTION
  2
HEADER
  9
$ACADVER
  1
AC1009
  9
$DWGCODEPAGE
  3
dos932
  9
$INSBASE
 10
0.0
 20
0.0
 30
0.0
  9
$EXTMIN
 10
-162.502972
 20
-165.0
 30
0.0
  9
$EXTMAX
 10
881.377798
 20
208.950005
 30
0.0
  9
$LIMMIN
 10
-162.502972
 20
-165.0
  9
$LIMMAX
 10
881.377798
 20
208.950005
  9
$ORTHOMODE
 70
     0
  9
$REGENMODE
 70
     1
  9
$FILLMODE
 70
     1
  9
$QTEXTMODE
 70
     0
  9
$MIRRTEXT
 70
     1
  9
$DRAGMODE
 70
     2
  9
$LTSCALE
 40
1.0
  9
$OSMODE
 70
     0
  9
$ATTMODE
 70
     1
  9
$TEXTSIZE
 40
3.15
  9
$TRACEWID
 40
0.05
  9
$TEXTSTYLE
  7
MX_NOTE_STANDARD
  9
$CLAYER
  8
LY_1
  9
$CELTYPE
  6
CONTINUOUS
  9
$CECOLOR
 62
   256
  9
$DIMSCALE
 40
1.0
  9
$DIMASZ
 40
2.5
  9
$DIMEXO
 40
1.0
  9
$DIMDLI
 40
3.75
  9
$DIMRND
 40
0.0
  9
$DIMDLE
 40
0.0
  9
$DIMEXE
 40
1.5
  9
$DIMTP
 40
0.0
  9
$DIMTM
 40
0.0
  9
$DIMTXT
 40
3.15
  9
$DIMCEN
 40
2.5
  9
$DIMTSZ
 40
0.0
  9
$DIMTOL
 70
     0
  9
$DIMLIM
 70
     0
  9
$DIMTIH
 70
     0
  9
$DIMTOH
 70
     0
  9
$DIMSE1
 70
     0
  9
$DIMSE2
 70
     0
  9
$DIMTAD
 70
     1
  9
$DIMZIN
 70
     8
  9
$DIMBLK
  1

  9
$DIMASO
 70
     1
  9
$DIMSHO
 70
     1
  9
$DIMPOST
  1

  9
$DIMAPOST
  1

  9
$DIMALT
 70
     0
  9
$DIMALTD
 70
     4
  9
$DIMALTF
 40
0.03937
  9
$DIMLFAC
 40
1.0
  9
$DIMTOFL
 70
     1
  9
$DIMTVP
 40
0.0
  9
$DIMTIX
 70
     0
  9
$DIMSOXD
 70
     0
  9
$DIMSAH
 70
     0
  9
$DIMBLK1
  1

  9
$DIMBLK2
  1

  9
$DIMSTYLE
  2
MXDIMSTYLE
  9
$DIMCLRD
 70
     0
  9
$DIMCLRE
 70
     0
  9
$DIMCLRT
 70
     0
  9
$DIMTFAC
 40
1.0
  9
$DIMGAP
 40
1.0
  9
$LUNITS
 70
     2
  9
$LUPREC
 70
     4
  9
$AXISMODE
 70
     0
  9
$AXISUNIT
 10
0.0
 20
0.0
  9
$SKETCHINC
 40
0.1
  9
$FILLETRAD
 40
0.0
  9
$AUNITS
 70
     0
  9
$AUPREC
 70
     0
  9
$MENU
  1
acad
  9
$ELEVATION
 40
0.0
  9
$PELEVATION
 40
0.0
  9
$THICKNESS
 40
0.0
  9
$LIMCHECK
 70
     0
  9
$BLIPMODE
 70
     1
  9
$CHAMFERA
 40
0.0
  9
$CHAMFERB
 40
0.0
  9
$SKPOLY
 70
     0
  9
$TDCREATE
 40
2453665.670185185
  9
$TDUPDATE
 40
2453665.670185185
  9
$TDINDWG
 40
0.0000000000
  9
$TDUSRTIMER
 40
0.0000000000
  9
$USRTIMER
 70
     1
  9
$ANGBASE
 50
0.0
  9
$ANGDIR
 70
     0
  9
$PDMODE
 70
     0
  9
$PDSIZE
 40
0.0
  9
$PLINEWID
 40
0.0
  9
$COORDS
 70
     1
  9
$SPLFRAME
 70
     0
  9
$SPLINETYPE
 70
     6
  9
$SPLINESEGS
 70
     8
  9
$ATTDIA
 70
     0
  9
$ATTREQ
 70
     1
  9
$HANDLING
 70
     1
  9
$HANDSEED
  5
209
  9
$SURFTAB1
 70
     6
  9
$SURFTAB2
 70
     6
  9
$SURFTYPE
 70
     6
  9
$SURFU
 70
     6
  9
$SURFV
 70
     6
  9
$UCSNAME
  2

  9
$UCSORG
 10
0.0
 20
0.0
 30
0.0
  9
$UCSXDIR
 10
1.0
 20
0.0
 30
0.0
  9
$UCSYDIR
 10
0.0
 20
1.0
 30
0.0
  9
$PUCSNAME
  2

  9
$PUCSORG
 10
0.0
 20
0.0
 30
0.0
  9
$PUCSXDIR
 10
1.0
 20
0.0
 30
0.0
  9
$PUCSYDIR
 10
0.0
 20
1.0
 30
0.0
  9
$USERI1
 70
     0
  9
$USERI2
 70
     0
  9
$USERI3
 70
     0
  9
$USERI4
 70
     0
  9
$USERI5
 70
     0
  9
$USERR1
 40
0.0
  9
$USERR2
 40
0.0
  9
$USERR3
 40
0.0
  9
$USERR4
 40
0.0
  9
$USERR5
 40
0.0
  9
$WORLDVIEW
 70
     1
  9
$SHADEDGE
 70
     3
  9
$SHADEDIF
 70
    70
  9
$TILEMODE
 70
     1
  9
$MAXACTVP
 70
    16
  9
$PINSBASE
 10
0.0
 20
0.0
 30
0.0
  9
$PLIMCHECK
 70
     0
  9
$PEXTMIN
 10
1.000000E+20
 20
1.000000E+20
 30
1.000000E+20
  9
$PEXTMAX
 10
-1.000000E+20
 20
-1.000000E+20
 30
-1.000000E+20
  9
$PLIMMIN
 10
0.0
 20
0.0
  9
$PLIMMAX
 10
12.0
 20
9.0
  9
$UNITMODE
 70
     0
  9
$VISRETAIN
 70
     0
  9
$PLINEGEN
 70
     1
  9
$PSLTSCALE
 70
     0
  9
$TREEDEPTH
 70
  3020
  9
$DWGCODEPAGE
  3
dos932
  0
ENDSEC
  0
SECTION
  2
TABLES
  0
TABLE
  2
VPORT
 70
     1
  0
VPORT
  2
*ACTIVE
 70
     0
 10
0.0
 20
0.0
 11
1.0
 21
1.0
 12
359.437413
 22
21.975002
 13
0.0
 23
0.0
 14
1.0
 24
1.0
 15
0.0
 25
0.0
 16
0.0
 26
0.0
 36
1.0
 17
0.0
 27
0.0
 37
0.0
 40
377.689505
 41
1.732051
 42
50.0
 43
0.0
 44
0.0
 50
0.0
 51
0.0
 71
     0
 72
   100
 73
     1
 74
     1
 75
     0
 76
     0
 77
     0
 78
     0
  0
ENDTAB
  0
TABLE
  2
LTYPE
 70
     2
  0
LTYPE
  2
CONTINUOUS
 70
    64
  3
Solid line
 72
    65
 73
     0
 40
0.0
  0
LTYPE
  2
CENTER
 70
    64
  3
Center ____ _ ____ _ ____ _ ____ _ ____ _ ____
 72
    65
 73
     4
 40
50.8
 49
31.75
 49
-6.35
 49
6.35
 49
-6.35
  0
ENDTAB
  0
TABLE
  2
LAYER
 70
     3
  0
LAYER
  2
0
 70
     0
 62
     7
  6
CONTINUOUS
  0
LAYER
  2
LY_1
 70
     0
 62
     7
  6
CONTINUOUS
  0
LAYER
  2
DEFPOINTS
 70
     0
 62
     7
  6
CONTINUOUS
  0
ENDTAB
  0
TABLE
  2
STYLE
 70
     1
  0
STYLE
  2
MX_NOTE_STANDARD
 70
     0
 40
0.0
 41
1.0
 50
0.0
 71
     0
 42
3.15
  3
txt.shx
  4
extfont.shx
  0
ENDTAB
  0
TABLE
  2
VIEW
 70
     0
  0
ENDTAB
  0
TABLE
  2
UCS
 70
     0
  0
ENDTAB
  0
TABLE
  2
APPID
 70
     1
  0
APPID
  2
ACAD
 70
     0
  0
ENDTAB
  0
TABLE
  2
DIMSTYLE
 70
     1
  0
DIMSTYLE
  2
MXDIMSTYLE
 70
     0
  3

  4

  5

  6

  7

 40
1.0
 41
2.5
 42
1.0
 43
3.75
 44
1.5
 45
0.0
 46
0.0
 47
0.0
 48
0.0
 71
     0
 72
     0
 73
     0
 74
     0
 75
     0
 76
     0
 77
     1
 78
     8
140
3.15
141
2.5
142
0.0
143
0.03937
144
1.0
145
0.0
146
1.0
147
1.0
170
     0
171
     4
172
     1
173
     0
174
     0
175
     0
176
     0
177
     0
178
     0
  0
ENDTAB
  0
ENDSEC
  0
SECTION
  2
BLOCKS
  0
ENDSEC
  0
SECTION
  2
ENTITIES
  0
ARC
  8
LY_1
  6
CENTER
 62
     7
  5
20
 10
0.0
 20
0.0
 30
0.0
 40
75.0
 50
173.876799
 51
186.123199
  0
ARC
  8
LY_1
  6
CENTER
 62
     7
  5
21
 10
0.0
 20
0.0
 30
0.0
 40
75.0
 50
233.876801
 51
246.123194
  0
LINE
  8
LY_1
  6
CENTER
 62
     7
  5
22
 10
-33.813833
 20
-58.567471
 30
0.0
 11
-41.0683
 21
-71.132576
 31
0.0
  0
ARC
  8
LY_1
  6
CENTER
 62
     7
  5
23
 10
0.0
 20
0.0
 30
0.0
 40
75.0
 50
293.876806
 51
306.123199
  0
LINE
  8
LY_1
  6
CENTER
 62
     7
  5
24
 10
33.813722
 20
-58.567522
 30
0.0
 11
41.068189
 21
-71.132628
 31
0.0
  0
ARC
  8
LY_1
  6
CENTER
 62
     7
  5
25
 10
0.0
 20
0.0
 30
0.0
 40
75.0
 50
353.876801
 51
6.123201
  0
ARC
  8
LY_1
  6
CENTER
 62
     7
  5
26
 10
0.0
 20
0.0
 30
0.0
 40
75.0
 50
53.876799
 51
66.123199
  0
LINE
  8
LY_1
  6
CENTER
 62
     7
  5
27
 10
33.814037
 20
58.567433
 30
0.0
 11
41.068475
 21
71.132489
 31
0.0
  0
ARC
  8
LY_1
  6
CENTER
 62
     7
  5
28
 10
0.0
 20
0.0
 30
0.0
 40
75.0
 50
113.876801
 51
126.123201
  0
LINE
  8
LY_1
  6
CENTER
 62
     7
  5
29
 10
-33.814148
 20
58.567382
 30
0.0
 11
-41.068596
 21
71.132454
 31
0.0
  0
LINE
  8
LY_1
  6
CENTER
 62
     7
  5
2A
 10
799.000113
 20
121.54988
 30
0.0
 11
799.000113
 21
88.00001
 31
0.0
  0
LINE
  8
LY_1
  6
CONTINUOUS
 62
   251
  5
2B
 10
806.938313
 20
115.33128
 30
0.0
 11
806.300313
 21
115.69963
 31
0.0
  0
LINE
  8
LY_1
  6
CONTINUOUS
 62
   251
  5
2C
 10
785.500103
 20
100.00001
 30
0.0
 11
785.500103
 21
88.00001
 31
0.0
  0
LINE
  8
LY_1
  6
CONTINUOUS
 62
   251
  5
2D
 10
806.300313
 20
115.69963
 30
0.0
 11
791.700303
 21
115.69963
 31
0.0
  0
LINE
  8
LY_1
  6
CONTINUOUS
 62
   251
  5
2E
 10
791.062303
 20
115.33128
 30
0.0
 11
791.700303
 21
115.69963
 31
0.0
  0
LINE
  8
LY_1
  6
CONTINUOUS
 62
   251
  5
2F
 10
791.062303
 20
115.33128
 30
0.0
 11
791.062303
 21
102.19963
 31
0.0
  0
LINE
  8
LY_1
  6
CONTINUOUS
 62
   251
  5
30
 10
786.300313
 20
102.19963
 30
0.0
 11
786.300313
 21
100.00001
 31
0.0
  0
LINE
  8
LY_1
  6
CONTINUOUS
 62
   251
  5
31
 10
812.500113
 20
100.00001
 30
0.0
 11
812.500113
 21
88.00001
 31
0.0
  0
LINE
  8
LY_1
  6
CONTINUOUS
 62
   251
  5
32
 10
812.500113
 20
100.00001
 30
0.0
 11
785.500103
 21
100.00001
 31
0.0
  0
LINE
  8
LY_1
  6
CONTINUOUS
 62
   251
  5
33
 10
806.938313
 20
115.33128
 30
0.0
 11
806.938313
 21
102.19963
 31
0.0
  0
LINE
  8
LY_1
  6
CONTINUOUS
 62
   251
  5
34
 10
811.700313
 20
102.19963
 30
0.0
 11
811.700313
 21
100.00001
 31
0.0
  0
LINE
  8
LY_1
  6
CONTINUOUS
 62
   251
  5
35
 10
811.700313
 20
102.19963
 30
0.0
 11
786.300313
 21
102.19963
 31
0.0
  0
LINE
  8
LY_1
  6
CONTINUOUS
 62
   251
  5
36
 10
833.700112
 20
80.09999
 30
0.0
 11
834.700112
 21
81.09999
 31
0.0
  0
LINE
  8
LY_1
  6
CONTINUOUS
 62
   251
  5
37
 10
779.500103
 20
88.00001
 30
0.0
 11
779.500103
 21
-87.999994
 31
0.0
  0
LINE
  8
LY_1
  6
CONTINUOUS
 62
   251
  5
38
 10
762.500123
 20
140.172883
 30
0.0
 11
762.500123
 21
121.25001
 31
0.0
  0
LINE
  8
LY_1
  6
CONTINUOUS
 62
   251
  5
39
 10
724.500123
 20
140.172883
 30
0.0
 11
724.500123
 21
121.25001
 31
0.0
  0
LINE
  8
LY_1
  6
CONTINUOUS
 62
   251
  5
3A
 10
829.450112
 20
61.8
 30
0.0
 11
829.450112
 21
58.0
 31
0.0
  0
LINE
  8
LY_1
  6
CONTINUOUS
 62
   251
  5
3B
 10
826.500115
 20
88.00001
 30
0.0
 11
826.500115
 21
-87.999994
 31
0.0
  0
LINE
  8
LY_1
  6
CONTINUOUS
 62
   251
  5
3C
 10
829.000115
 20
58.0
 30
0.0
 11
829.000115
 21
42.5
 31
0.0
  0
LINE
  8
LY_1
  6
CONTINUOUS
 62
   251
  5
3D
 10
841.500115
 20
-42.5
 30
0.0
 11
826.500115
 21
-42.5
 31
0.0
  0
LINE
  8
LY_1
  6
CONTINUOUS
 62
   251
  5
3E
 10
841.500115
 20
-27.50366
 30
0.0
 11
826.500115
 21
-27.50366
 31
0.0
  0
LINE
  8
LY_1
  6
CONTINUOUS
 62
   251
  5
3F
 10
865.856004
 20
-39.18428
 30
0.0
 11
841.500115
 21
-40.03481
 31
0.0
  0
LINE
  8
LY_1
  6
CONTINUOUS
 62
   251
  5
40
 10
841.500115
 20
42.5
 30
0.0
 11
841.500115
 21
-42.5
 31
0.0
  0
LINE
  8
LY_1
  6
CONTINUOUS
 62
   251
  5
41
 10
868.000112
 20
58.0
 30
0.0
 11
868.000112
 21
-30.0
 31
0.0
  0
LINE
  8
LY_1
  6
CONTINUOUS
 62
   251
  5
42
 10
835.500115
 20
42.5
 30
0.0
 11
835.500115
 21
-42.5
 31
0.0
  0
LINE
  8
LY_1
  6
CONTINUOUS
 62
   251
  5
43
 10
841.500115
 20
27.50348
 30
0.0
 11
826.500115
 21
27.50348
 31
0.0
  0
LINE
  8
LY_1
  6
CONTINUOUS
 62
   251
  5
44
 10
868.000112
 20
34.3474
 30
0.0
 11
841.500115
 21
34.3474
 31
0.0
  0
LINE
  8
LY_1
  6
CENTER
 62
     7
  5
45
 10
848.500115
 20
87.84276
 30
0.0
 11
848.500115
 21
54.54082
 31
0.0
  0
LINE
  8
LY_1
  6
CONTINUOUS
 62
   251
  5
46
 10
841.500115
 20
42.5
 30
0.0
 11
835.500115
 21
42.5
 31
0.0
  0
LINE
  8
LY_1
  6
CONTINUOUS
 62
   251
  5
47
 10
863.300111
 20
80.09999
 30
0.0
 11
863.300111
 21
61.8
 31
0.0
  0
LINE
  8
LY_1
  6
CONTINUOUS
 62
   251
  5
48
 10
863.300111
 20
80.09999
 30
0.0
 11
862.300111
 21
81.09999
 31
0.0
  0
LINE
  8
LY_1
  6
CONTINUOUS
 62
   251
  5
49
 10
867.550111
 20
61.8
 30
0.0
 11
829.450112
 21
61.8
 31
0.0
  0
LINE
  8
LY_1
  6
CONTINUOUS
 62
   251
  5
4A
 10
867.550111
 20
61.8
 30
0.0
 11
867.550111
 21
58.0
 31
0.0
  0
LINE
  8
LY_1
  6
CONTINUOUS
 62
   251
  5
4B
 10
868.000112
 20
58.0
 30
0.0
 11
829.000115
 21
58.0
 31
0.0
  0
LINE
  8
LY_1
  6
CONTINUOUS
 62
   251
  5
4C
 10
835.500115
 20
42.5
 30
0.0
 11
826.500115
 21
42.5
 31
0.0
  0
LINE
  8
LY_1
  6
CONTINUOUS
 62
   251
  5
4D
 10
833.700112
 20
80.09999
 30
0.0
 11
833.700112
 21
61.8
 31
0.0
  0
LINE
  8
LY_1
  6
CONTINUOUS
 62
   251
  5
4E
 10
862.300111
 20
81.09999
 30
0.0
 11
834.700112
 21
81.09999
 31
0.0
  0
LINE
  8
LY_1
  6
CONTINUOUS
 62
   251
  5
4F
 10
826.500115
 20
57.99991
 30
0.0
 11
632.000103
 21
57.99991
 31
0.0
  0
LINE
  8
LY_1
  6
CONTINUOUS
 62
   251
  5
50
 10
826.500115
 20
-58.0001
 30
0.0
 11
632.000103
 21
-58.0001
 31
0.0
  0
LINE
  8
LY_1
  6
CONTINUOUS
 62
   251
  5
51
 10
704.000103
 20
51.0
 30
0.0
 11
632.000103
 21
51.0
 31
0.0
  0
LINE
  8
LY_1
  6
CONTINUOUS
 62
   251
  5
52
 10
704.000103
 20
48.0
 30
0.0
 11
632.000103
 21
48.0
 31
0.0
  0
LINE
  8
LY_1
  6
CONTINUOUS
 62
   251
  5
53
 10
704.000103
 20
45.0
 30
0.0
 11
632.000103
 21
45.0
 31
0.0
  0
LINE
  8
LY_1
  6
CONTINUOUS
 62
   251
  5
54
 10
704.000103
 20
42.0
 30
0.0
 11
632.000103
 21
42.0
 31
0.0
  0
LINE
  8
LY_1
  6
CONTINUOUS
 62
   251
  5
55
 10
704.000103
 20
-42.0
 30
0.0
 11
632.000103
 21
-42.0
 31
0.0
  0
LINE
  8
LY_1
  6
CONTINUOUS
 62
   251
  5
56
 10
704.000103
 20
-45.0
 30
0.0
 11
632.000103
 21
-45.0
 31
0.0
  0
LINE
  8
LY_1
  6
CONTINUOUS
 62
   251
  5
57
 10
704.000103
 20
-48.0
 30
0.0
 11
632.000103
 21
-48.0
 31
0.0
  0
LINE
  8
LY_1
  6
CONTINUOUS
 62
   251
  5
58
 10
704.000103
 20
-51.0
 30
0.0
 11
632.000103
 21
-51.0
 31
0.0
  0
LINE
  8
LY_1
  6
CONTINUOUS
 62
   251
  5
59
 10
769.000103
 20
88.00001
 30
0.0
 11
769.000103
 21
-87.999994
 31
0.0
  0
LINE
  8
LY_1
  6
CONTINUOUS
 62
   251
  5
5A
 10
632.000103
 20
88.00001
 30
0.0
 11
632.000103
 21
-87.999994
 31
0.0
  0
LINE
  8
LY_1
  6
CONTINUOUS
 62
   251
  5
5B
 10
630.000103
 20
88.00001
 30
0.0
 11
630.000103
 21
-87.999994
 31
0.0
  0
LINE
  8
LY_1
  6
CONTINUOUS
 62
   251
  5
5C
 10
769.000103
 20
-51.0
 30
0.0
 11
704.000103
 21
-51.0
 31
0.0
  0
LINE
  8
LY_1
  6
CONTINUOUS
 62
   251
  5
5D
 10
769.000103
 20
-48.0
 30
0.0
 11
704.000103
 21
-48.0
 31
0.0
  0
LINE
  8
LY_1
  6
CONTINUOUS
 62
   251
  5
5E
 10
769.000103
 20
-45.0
 30
0.0
 11
704.000103
 21
-45.0
 31
0.0
  0
LINE
  8
LY_1
  6
CONTINUOUS
 62
   251
  5
5F
 10
769.000103
 20
51.0
 30
0.0
 11
704.000103
 21
51.0
 31
0.0
  0
LINE
  8
LY_1
  6
CONTINUOUS
 62
   251
  5
60
 10
769.000103
 20
48.0
 30
0.0
 11
704.000103
 21
48.0
 31
0.0
  0
LINE
  8
LY_1
  6
CONTINUOUS
 62
   251
  5
61
 10
769.000103
 20
45.0
 30
0.0
 11
704.000103
 21
45.0
 31
0.0
  0
LINE
  8
LY_1
  6
CONTINUOUS
 62
   251
  5
62
 10
769.000103
 20
42.0
 30
0.0
 11
704.000103
 21
42.0
 31
0.0
  0
LINE
  8
LY_1
  6
CONTINUOUS
 62
   251
  5
63
 10
769.000103
 20
-42.0
 30
0.0
 11
704.000103
 21
-42.0
 31
0.0
  0
LINE
  8
LY_1
  6
CENTER
 62
     7
  5
64
 10
743.500123
 20
147.34105
 30
0.0
 11
743.500123
 21
103.86555
 31
0.0
  0
LINE
  8
LY_1
  6
CONTINUOUS
 62
   251
  5
65
 10
765.700133
 20
121.25001
 30
0.0
 11
721.300123
 21
121.25001
 31
0.0
  0
LINE
  8
LY_1
  6
CONTINUOUS
 62
   251
  5
66
 10
721.300123
 20
121.25001
 30
0.0
 11
721.300123
 21
118.00001
 31
0.0
  0
LINE
  8
LY_1
  6
CONTINUOUS
 62
   251
  5
67
 10
765.700133
 20
121.25001
 30
0.0
 11
765.700133
 21
118.00001
 31
0.0
  0
LINE
  8
LY_1
  6
CONTINUOUS
 62
   251
  5
68
 10
768.000123
 20
118.00001
 30
0.0
 11
768.000123
 21
88.00001
 31
0.0
  0
LINE
  8
LY_1
  6
CONTINUOUS
 62
   251
  5
69
 10
706.000123
 20
89.00001
 30
0.0
 11
706.000123
 21
88.00001
 31
0.0
  0
LINE
  8
LY_1
  6
CONTINUOUS
 62
   251
  5
6A
 10
768.000123
 20
118.00001
 30
0.0
 11
711.441423
 21
118.00001
 31
0.0
  0
LINE
  8
LY_1
  6
CONTINUOUS
 62
   251
  5
6B
 10
726.20723
 20
141.87999
 30
0.0
 11
760.793016
 21
141.87999
 31
0.0
  0
LINE
  8
LY_1
  6
CONTINUOUS
 62
   251
  5
6C
 10
760.793016
 20
141.87999
 30
0.0
 11
762.500123
 21
140.172883
 31
0.0
  0
LINE
  8
LY_1
  6
CONTINUOUS
 62
   251
  5
6D
 10
726.20723
 20
141.87999
 30
0.0
 11
724.500123
 21
140.172883
 31
0.0
  0
ARC
  8
LY_1
  6
CONTINUOUS
 62
   251
  5
6E
 10
865.821103
 20
-38.18489
 30
0.0
 40
1.0
 50
271.999998
 51
343.6062
  0
ARC
  8
LY_1
  6
CONTINUOUS
 62
   251
  5
6F
 10
838.000115
 20
-30.0
 30
0.0
 40
30.0
 50
343.6062
 51
0.00001
  0
ARC
  8
LY_1
  6
CONTINUOUS
 62
   251
  5
70
 10
786.000123
 20
89.00001
 30
0.0
 40
80.0
 50
158.74619
 51
180.0
  0
LINE
  8
LY_1
  6
CONTINUOUS
 62
   251
  5
71
 10
630.000103
 20
-73.806
 30
0.0
 11
612.000103
 21
-73.806
 31
0.0
  0
LINE
  8
LY_1
  6
CONTINUOUS
 62
   251
  5
72
 10
630.000103
 20
73.806
 30
0.0
 11
612.000103
 21
73.806
 31
0.0
  0
LINE
  8
LY_1
  6
CONTINUOUS
 62
   251
  5
73
 10
612.000103
 20
-87.999994
 30
0.0
 11
826.500115
 21
-87.999994
 31
0.0
  0
LINE
  8
LY_1
  6
CONTINUOUS
 62
   251
  5
74
 10
612.000103
 20
88.00001
 30
0.0
 11
826.500115
 21
88.00001
 31
0.0
  0
LINE
  8
LY_1
  6
CONTINUOUS
 62
   251
  5
75
 10
554.650111
 20
152.3
 30
0.0
 11
563.650111
 21
152.3
 31
0.0
  0
POLYLINE
  8
LY_1
  6
CONTINUOUS
 62
     7
  5
76
 66
     1
 10
0.0
 20
0.0
 30
0.0
  0
VERTEX
  8
LY_1
  6
CONTINUOUS
 62
     7
  5
166
 10
325.00021
 20
93.862482
 30
0.0
  0
VERTEX
  8
LY_1
  6
CONTINUOUS
 62
     7
  5
167
 10
325.663208
 20
93.0943
 30
0.0
  0
VERTEX
  8
LY_1
  6
CONTINUOUS
 62
     7
  5
168
 10
326.315266
 20
92.315886
 30
0.0
  0
VERTEX
  8
LY_1
  6
CONTINUOUS
 62
     7
  5
169
 10
326.955333
 20
91.527474
 30
0.0
  0
VERTEX
  8
LY_1
  6
CONTINUOUS
 62
     7
  5
16A
 10
327.582359
 20
90.729294
 30
0.0
  0
VERTEX
  8
LY_1
  6
CONTINUOUS
 62
     7
  5
16B
 10
328.195292
 20
89.921578
 30
0.0
  0
VERTEX
  8
LY_1
  6
CONTINUOUS
 62
     7
  5
16C
 10
328.793081
 20
89.104558
 30
0.0
  0
VERTEX
  8
LY_1
  6
CONTINUOUS
 62
     7
  5
16D
 10
329.374677
 20
88.278465
 30
0.0
  0
VERTEX
  8
LY_1
  6
CONTINUOUS
 62
     7
  5
16E
 10
329.939027
 20
87.443532
 30
0.0
  0
VERTEX
  8
LY_1
  6
CONTINUOUS
 62
     7
  5
16F
 10
330.485082
 20
86.599989
 30
0.0
  0
VERTEX
  8
LY_1
  6
CONTINUOUS
 62
     7
  5
170
 10
331.01179
 20
85.74807
 30
0.0
  0
VERTEX
  8
LY_1
  6
CONTINUOUS
 62
     7
  5
171
 10
331.518101
 20
84.888004
 30
0.0
  0
VERTEX
  8
LY_1
  6
CONTINUOUS
 62
     7
  5
172
 10
332.002963
 20
84.020024
 30
0.0
  0
VERTEX
  8
LY_1
  6
CONTINUOUS
 62
     7
  5
173
 10
332.465326
 20
83.144362
 30
0.0
  0
VERTEX
  8
LY_1
  6
CONTINUOUS
 62
     7
  5
174
 10
332.90414
 20
82.26125
 30
0.0
  0
VERTEX
  8
LY_1
  6
CONTINUOUS
 62
     7
  5
175
 10
333.318352
 20
81.370918
 30
0.0
  0
VERTEX
  8
LY_1
  6
CONTINUOUS
 62
     7
  5
176
 10
333.706913
 20
80.473599
 30
0.0
  0
VERTEX
  8
LY_1
  6
CONTINUOUS
 62
     7
  5
177
 10
334.238685
 20
79.119511
 30
0.0
  0
VERTEX
  8
LY_1
  6
CONTINUOUS
 62
     7
  5
178
 10
334.71317
 20
77.750892
 30
0.0
  0
VERTEX
  8
LY_1
  6
CONTINUOUS
 62
     7
  5
179
 10
335.132765
 20
76.368309
 30
0.0
  0
VERTEX
  8
LY_1
  6
CONTINUOUS
 62
     7
  5
17A
 10
335.499868
 20
74.972332
 30
0.0
  0
VERTEX
  8
LY_1
  6
CONTINUOUS
 62
     7
  5
17B
 10
335.816874
 20
73.563529
 30
0.0
  0
VERTEX
  8
LY_1
  6
CONTINUOUS
 62
     7
  5
17C
 10
336.086183
 20
72.142468
 30
0.0
  0
VERTEX
  8
LY_1
  6
CONTINUOUS
 62
     7
  5
17D
 10
336.310189
 20
70.709716
 30
0.0
  0
VERTEX
  8
LY_1
  6
CONTINUOUS
 62
     7
  5
17E
 10
336.491291
 20
69.265844
 30
0.0
  0
VERTEX
  8
LY_1
  6
CONTINUOUS
 62
     7
  5
17F
 10
336.631886
 20
67.811418
 30
0.0
  0
VERTEX
  8
LY_1
  6
CONTINUOUS
 62
     7
  5
180
 10
336.734371
 20
66.347007
 30
0.0
  0
VERTEX
  8
LY_1
  6
CONTINUOUS
 62
     7
  5
181
 10
336.801142
 20
64.87318
 30
0.0
  0
VERTEX
  8
LY_1
  6
CONTINUOUS
 62
     7
  5
182
 10
336.834598
 20
63.390504
 30
0.0
  0
VERTEX
  8
LY_1
  6
CONTINUOUS
 62
     7
  5
183
 10
336.837134
 20
61.899548
 30
0.0
  0
VERTEX
  8
LY_1
  6
CONTINUOUS
 62
     7
  5
184
 10
336.811149
 20
60.400881
 30
0.0
  0
VERTEX
  8
LY_1
  6
CONTINUOUS
 62
     7
  5
185
 10
336.759039
 20
58.89507
 30
0.0
  0
VERTEX
  8
LY_1
  6
CONTINUOUS
 62
     7
  5
186
 10
336.683201
 20
57.382684
 30
0.0
  0
VERTEX
  8
LY_1
  6
CONTINUOUS
 62
     7
  5
187
 10
336.586032
 20
55.864291
 30
0.0
  0
VERTEX
  8
LY_1
  6
CONTINUOUS
 62
     7
  5
188
 10
336.46993
 20
54.34046
 30
0.0
  0
VERTEX
  8
LY_1
  6
CONTINUOUS
 62
     7
  5
189
 10
336.337292
 20
52.811758
 30
0.0
  0
VERTEX
  8
LY_1
  6
CONTINUOUS
 62
     7
  5
18A
 10
336.190514
 20
51.278755
 30
0.0
  0
VERTEX
  8
LY_1
  6
CONTINUOUS
 62
     7
  5
18B
 10
336.031994
 20
49.742018
 30
0.0
  0
VERTEX
  8
LY_1
  6
CONTINUOUS
 62
     7
  5
18C
 10
335.864129
 20
48.202115
 30
0.0
  0
VERTEX
  8
LY_1
  6
CONTINUOUS
 62
     7
  5
18D
 10
335.689316
 20
46.659616
 30
0.0
  0
VERTEX
  8
LY_1
  6
CONTINUOUS
 62
     7
  5
18E
 10
335.509952
 20
45.115087
 30
0.0
  0
VERTEX
  8
LY_1
  6
CONTINUOUS
 62
     7
  5
18F
 10
335.328434
 20
43.569099
 30
0.0
  0
VERTEX
  8
LY_1
  6
CONTINUOUS
 62
     7
  5
190
 10
335.147159
 20
42.022218
 30
0.0
  0
VERTEX
  8
LY_1
  6
CONTINUOUS
 62
     7
  5
191
 10
334.968525
 20
40.475013
 30
0.0
  0
VERTEX
  8
LY_1
  6
CONTINUOUS
 62
     7
  5
192
 10
334.794928
 20
38.928052
 30
0.0
  0
VERTEX
  8
LY_1
  6
CONTINUOUS
 62
     7
  5
193
 10
334.628766
 20
37.381905
 30
0.0
  0
VERTEX
  8
LY_1
  6
CONTINUOUS
 62
     7
  5
194
 10
334.472435
 20
35.837138
 30
0.0
  0
VERTEX
  8
LY_1
  6
CONTINUOUS
 62
     7
  5
195
 10
334.328333
 20
34.294321
 30
0.0
  0
VERTEX
  8
LY_1
  6
CONTINUOUS
 62
     7
  5
196
 10
334.198856
 20
32.754021
 30
0.0
  0
VERTEX
  8
LY_1
  6
CONTINUOUS
 62
     7
  5
197
 10
334.070925
 20
30.995099
 30
0.0
  0
VERTEX
  8
LY_1
  6
CONTINUOUS
 62
     7
  5
198
 10
333.964098
 20
29.240158
 30
0.0
  0
VERTEX
  8
LY_1
  6
CONTINUOUS
 62
     7
  5
199
 10
333.87719
 20
27.489138
 30
0.0
  0
VERTEX
  8
LY_1
  6
CONTINUOUS
 62
     7
  5
19A
 10
333.809014
 20
25.74198
 30
0.0
  0
VERTEX
  8
LY_1
  6
CONTINUOUS
 62
     7
  5
19B
 10
333.758386
 20
23.998624
 30
0.0
  0
VERTEX
  8
LY_1
  6
CONTINUOUS
 62
     7
  5
19C
 10
333.724118
 20
22.259011
 30
0.0
  0
VERTEX
  8
LY_1
  6
CONTINUOUS
 62
     7
  5
19D
 10
333.705026
 20
20.52308
 30
0.0
  0
VERTEX
  8
LY_1
  6
CONTINUOUS
 62
     7
  5
19E
 10
333.699922
 20
18.790772
 30
0.0
  0
VERTEX
  8
LY_1
  6
CONTINUOUS
 62
     7
  5
19F
 10
333.707622
 20
17.062027
 30
0.0
  0
VERTEX
  8
LY_1
  6
CONTINUOUS
 62
     7
  5
1A0
 10
333.72694
 20
15.336785
 30
0.0
  0
VERTEX
  8
LY_1
  6
CONTINUOUS
 62
     7
  5
1A1
 10
333.756688
 20
13.614988
 30
0.0
  0
VERTEX
  8
LY_1
  6
CONTINUOUS
 62
     7
  5
1A2
 10
333.795683
 20
11.896575
 30
0.0
  0
VERTEX
  8
LY_1
  6
CONTINUOUS
 62
     7
  5
1A3
 10
333.842736
 20
10.181486
 30
0.0
  0
VERTEX
  8
LY_1
  6
CONTINUOUS
 62
     7
  5
1A4
 10
333.896664
 20
8.469662
 30
0.0
  0
VERTEX
  8
LY_1
  6
CONTINUOUS
 62
     7
  5
1A5
 10
333.956279
 20
6.761043
 30
0.0
  0
VERTEX
  8
LY_1
  6
CONTINUOUS
 62
     7
  5
1A6
 10
334.020395
 20
5.055569
 30
0.0
  0
VERTEX
  8
LY_1
  6
CONTINUOUS
 62
     7
  5
1A7
 10
334.087828
 20
3.353182
 30
0.0
  0
VERTEX
  8
LY_1
  6
CONTINUOUS
 62
     7
  5
1A8
 10
334.157391
 20
1.65382
 30
0.0
  0
VERTEX
  8
LY_1
  6
CONTINUOUS
 62
     7
  5
1A9
 10
334.227898
 20
-0.042576
 30
0.0
  0
VERTEX
  8
LY_1
  6
CONTINUOUS
 62
     7
  5
1AA
 10
334.298162
 20
-1.736065
 30
0.0
  0
VERTEX
  8
LY_1
  6
CONTINUOUS
 62
     7
  5
1AB
 10
334.367
 20
-3.426707
 30
0.0
  0
VERTEX
  8
LY_1
  6
CONTINUOUS
 62
     7
  5
1AC
 10
334.433223
 20
-5.114561
 30
0.0
  0
VERTEX
  8
LY_1
  6
CONTINUOUS
 62
     7
  5
1AD
 10
334.495647
 20
-6.799688
 30
0.0
  0
VERTEX
  8
LY_1
  6
CONTINUOUS
 62
     7
  5
1AE
 10
334.553085
 20
-8.482148
 30
0.0
  0
VERTEX
  8
LY_1
  6
CONTINUOUS
 62
     7
  5
1AF
 10
334.604351
 20
-10.161999
 30
0.0
  0
VERTEX
  8
LY_1
  6
CONTINUOUS
 62
     7
  5
1B0
 10
334.648261
 20
-11.839301
 30
0.0
  0
VERTEX
  8
LY_1
  6
CONTINUOUS
 62
     7
  5
1B1
 10
334.683627
 20
-13.514115
 30
0.0
  0
VERTEX
  8
LY_1
  6
CONTINUOUS
 62
     7
  5
1B2
 10
334.709263
 20
-15.1865
 30
0.0
  0
VERTEX
  8
LY_1
  6
CONTINUOUS
 62
     7
  5
1B3
 10
334.723985
 20
-16.856515
 30
0.0
  0
VERTEX
  8
LY_1
  6
CONTINUOUS
 62
     7
  5
1B4
 10
334.726606
 20
-18.524221
 30
0.0
  0
VERTEX
  8
LY_1
  6
CONTINUOUS
 62
     7
  5
1B5
 10
334.715939
 20
-20.189676
 30
0.0
  0
VERTEX
  8
LY_1
  6
CONTINUOUS
 62
     7
  5
1B6
 10
334.6908
 20
-21.852942
 30
0.0
  0
VERTEX
  8
LY_1
  6
CONTINUOUS
 62
     7
  5
1B7
 10
334.667035
 20
-22.90245
 30
0.0
  0
VERTEX
  8
LY_1
  6
CONTINUOUS
 62
     7
  5
1B8
 10
334.637369
 20
-23.951341
 30
0.0
  0
VERTEX
  8
LY_1
  6
CONTINUOUS
 62
     7
  5
1B9
 10
334.60215
 20
-24.99985
 30
0.0
  0
VERTEX
  8
LY_1
  6
CONTINUOUS
 62
     7
  5
1BA
 10
334.561724
 20
-26.048209
 30
0.0
  0
VERTEX
  8
LY_1
  6
CONTINUOUS
 62
     7
  5
1BB
 10
334.516437
 20
-27.096652
 30
0.0
  0
VERTEX
  8
LY_1
  6
CONTINUOUS
 62
     7
  5
1BC
 10
334.466636
 20
-28.145412
 30
0.0
  0
VERTEX
  8
LY_1
  6
CONTINUOUS
 62
     7
  5
1BD
 10
334.412668
 20
-29.194724
 30
0.0
  0
VERTEX
  8
LY_1
  6
CONTINUOUS
 62
     7
  5
1BE
 10
334.35488
 20
-30.24482
 30
0.0
  0
VERTEX
  8
LY_1
  6
CONTINUOUS
 62
     7
  5
1BF
 10
334.293617
 20
-31.295934
 30
0.0
  0
VERTEX
  8
LY_1
  6
CONTINUOUS
 62
     7
  5
1C0
 10
334.229227
 20
-32.3483
 30
0.0
  0
VERTEX
  8
LY_1
  6
CONTINUOUS
 62
     7
  5
1C1
 10
334.162057
 20
-33.402151
 30
0.0
  0
VERTEX
  8
LY_1
  6
CONTINUOUS
 62
     7
  5
1C2
 10
334.092452
 20
-34.457721
 30
0.0
  0
VERTEX
  8
LY_1
  6
CONTINUOUS
 62
     7
  5
1C3
 10
334.02076
 20
-35.515244
 30
0.0
  0
VERTEX
  8
LY_1
  6
CONTINUOUS
 62
     7
  5
1C4
 10
333.947328
 20
-36.574952
 30
0.0
  0
VERTEX
  8
LY_1
  6
CONTINUOUS
 62
     7
  5
1C5
 10
333.872501
 20
-37.63708
 30
0.0
  0
VERTEX
  8
LY_1
  6
CONTINUOUS
 62
     7
  5
1C6
 10
333.796626
 20
-38.701861
 30
0.0
  0
VERTEX
  8
LY_1
  6
CONTINUOUS
 62
     7
  5
1C7
 10
333.720051
 20
-39.769528
 30
0.0
  0
VERTEX
  8
LY_1
  6
CONTINUOUS
 62
     7
  5
1C8
 10
333.643122
 20
-40.840316
 30
0.0
  0
VERTEX
  8
LY_1
  6
CONTINUOUS
 62
     7
  5
1C9
 10
333.566184
 20
-41.914457
 30
0.0
  0
VERTEX
  8
LY_1
  6
CONTINUOUS
 62
     7
  5
1CA
 10
333.489586
 20
-42.992185
 30
0.0
  0
VERTEX
  8
LY_1
  6
CONTINUOUS
 62
     7
  5
1CB
 10
333.413674
 20
-44.073734
 30
0.0
  0
VERTEX
  8
LY_1
  6
CONTINUOUS
 62
     7
  5
1CC
 10
333.338793
 20
-45.159338
 30
0.0
  0
VERTEX
  8
LY_1
  6
CONTINUOUS
 62
     7
  5
1CD
 10
333.265292
 20
-46.249229
 30
0.0
  0
VERTEX
  8
LY_1
  6
CONTINUOUS
 62
     7
  5
1CE
 10
333.193516
 20
-47.343642
 30
0.0
  0
VERTEX
  8
LY_1
  6
CONTINUOUS
 62
     7
  5
1CF
 10
333.123813
 20
-48.442809
 30
0.0
  0
VERTEX
  8
LY_1
  6
CONTINUOUS
 62
     7
  5
1D0
 10
333.056528
 20
-49.546965
 30
0.0
  0
VERTEX
  8
LY_1
  6
CONTINUOUS
 62
     7
  5
1D1
 10
332.992009
 20
-50.656344
 30
0.0
  0
VERTEX
  8
LY_1
  6
CONTINUOUS
 62
     7
  5
1D2
 10
332.930602
 20
-51.771177
 30
0.0
  0
VERTEX
  8
LY_1
  6
CONTINUOUS
 62
     7
  5
1D3
 10
332.872653
 20
-52.8917
 30
0.0
  0
VERTEX
  8
LY_1
  6
CONTINUOUS
 62
     7
  5
1D4
 10
332.81851
 20
-54.018146
 30
0.0
  0
VERTEX
  8
LY_1
  6
CONTINUOUS
 62
     7
  5
1D5
 10
332.768519
 20
-55.150748
 30
0.0
  0
VERTEX
  8
LY_1
  6
CONTINUOUS
 62
     7
  5
1D6
 10
332.723026
 20
-56.28974
 30
0.0
  0
VERTEX
  8
LY_1
  6
CONTINUOUS
 62
     7
  5
1D7
 10
332.691412
 20
-57.160951
 30
0.0
  0
VERTEX
  8
LY_1
  6
CONTINUOUS
 62
     7
  5
1D8
 10
332.661454
 20
-58.035231
 30
0.0
  0
VERTEX
  8
LY_1
  6
CONTINUOUS
 62
     7
  5
1D9
 10
332.631999
 20
-58.911807
 30
0.0
  0
VERTEX
  8
LY_1
  6
CONTINUOUS
 62
     7
  5
1DA
 10
332.601897
 20
-59.789911
 30
0.0
  0
VERTEX
  8
LY_1
  6
CONTINUOUS
 62
     7
  5
1DB
 10
332.569996
 20
-60.668774
 30
0.0
  0
VERTEX
  8
LY_1
  6
CONTINUOUS
 62
     7
  5
1DC
 10
332.535143
 20
-61.547624
 30
0.0
  0
VERTEX
  8
LY_1
  6
CONTINUOUS
 62
     7
  5
1DD
 10
332.496186
 20
-62.425692
 30
0.0
  0
VERTEX
  8
LY_1
  6
CONTINUOUS
 62
     7
  5
1DE
 10
332.451975
 20
-63.302208
 30
0.0
  0
VERTEX
  8
LY_1
  6
CONTINUOUS
 62
     7
  5
1DF
 10
332.401357
 20
-64.176402
 30
0.0
  0
VERTEX
  8
LY_1
  6
CONTINUOUS
 62
     7
  5
1E0
 10
332.343181
 20
-65.047505
 30
0.0
  0
VERTEX
  8
LY_1
  6
CONTINUOUS
 62
     7
  5
1E1
 10
332.276294
 20
-65.914746
 30
0.0
  0
VERTEX
  8
LY_1
  6
CONTINUOUS
 62
     7
  5
1E2
 10
332.199544
 20
-66.777356
 30
0.0
  0
VERTEX
  8
LY_1
  6
CONTINUOUS
 62
     7
  5
1E3
 10
332.111781
 20
-67.634565
 30
0.0
  0
VERTEX
  8
LY_1
  6
CONTINUOUS
 62
     7
  5
1E4
 10
332.011852
 20
-68.485603
 30
0.0
  0
VERTEX
  8
LY_1
  6
CONTINUOUS
 62
     7
  5
1E5
 10
331.898605
 20
-69.329699
 30
0.0
  0
VERTEX
  8
LY_1
  6
CONTINUOUS
 62
     7
  5
1E6
 10
331.770889
 20
-70.166085
 30
0.0
  0
VERTEX
  8
LY_1
  6
CONTINUOUS
 62
     7
  5
1E7
 10
331.627552
 20
-70.99399
 30
0.0
  0
VERTEX
  8
LY_1
  6
CONTINUOUS
 62
     7
  5
1E8
 10
331.467441
 20
-71.812645
 30
0.0
  0
VERTEX
  8
LY_1
  6
CONTINUOUS
 62
     7
  5
1E9
 10
331.289406
 20
-72.621279
 30
0.0
  0
VERTEX
  8
LY_1
  6
CONTINUOUS
 62
     7
  5
1EA
 10
331.092293
 20
-73.419123
 30
0.0
  0
VERTEX
  8
LY_1
  6
CONTINUOUS
 62
     7
  5
1EB
 10
330.874953
 20
-74.205406
 30
0.0
  0
VERTEX
  8
LY_1
  6
CONTINUOUS
 62
     7
  5
1EC
 10
330.636232
 20
-74.97936
 30
0.0
  0
VERTEX
  8
LY_1
  6
CONTINUOUS
 62
     7
  5
1ED
 10
330.374979
 20
-75.740213
 30
0.0
  0
VERTEX
  8
LY_1
  6
CONTINUOUS
 62
     7
  5
1EE
 10
330.090042
 20
-76.487197
 30
0.0
  0
VERTEX
  8
LY_1
  6
CONTINUOUS
 62
     7
  5
1EF
 10
329.780269
 20
-77.219541
 30
0.0
  0
VERTEX
  8
LY_1
  6
CONTINUOUS
 62
     7
  5
1F0
 10
329.444508
 20
-77.936475
 30
0.0
  0
VERTEX
  8
LY_1
  6
CONTINUOUS
 62
     7
  5
1F1
 10
329.081609
 20
-78.63723
 30
0.0
  0
VERTEX
  8
LY_1
  6
CONTINUOUS
 62
     7
  5
1F2
 10
328.690418
 20
-79.321035
 30
0.0
  0
VERTEX
  8
LY_1
  6
CONTINUOUS
 62
     7
  5
1F3
 10
328.269784
 20
-79.987122
 30
0.0
  0
VERTEX
  8
LY_1
  6
CONTINUOUS
 62
     7
  5
1F4
 10
327.818555
 20
-80.634719
 30
0.0
  0
VERTEX
  8
LY_1
  6
CONTINUOUS
 62
     7
  5
1F5
 10
327.33558
 20
-81.263057
 30
0.0
  0
VERTEX
  8
LY_1
  6
CONTINUOUS
 62
     7
  5
1F6
 10
326.819706
 20
-81.871367
 30
0.0
  0
VERTEX
  8
LY_1
  6
CONTINUOUS
 62
     7
  5
1F7
 10
326.71478
 20
-81.988034
 30
0.0
  0
VERTEX
  8
LY_1
  6
CONTINUOUS
 62
     7
  5
1F8
 10
326.608571
 20
-82.103907
 30
0.0
  0
VERTEX
  8
LY_1
  6
CONTINUOUS
 62
     7
  5
1F9
 10
326.501101
 20
-82.218984
 30
0.0
  0
VERTEX
  8
LY_1
  6
CONTINUOUS
 62
     7
  5
1FA
 10
326.392392
 20
-82.333268
 30
0.0
  0
VERTEX
  8
LY_1
  6
CONTINUOUS
 62
     7
  5
1FB
 10
326.282467
 20
-82.446759
 30
0.0
  0
VERTEX
  8
LY_1
  6
CONTINUOUS
 62
     7
  5
1FC
 10
326.171348
 20
-82.559459
 30
0.0
  0
VERTEX
  8
LY_1
  6
CONTINUOUS
 62
     7
  5
1FD
 10
326.059056
 20
-82.671369
 30
0.0
  0
VERTEX
  8
LY_1
  6
CONTINUOUS
 62
     7
  5
1FE
 10
325.945614
 20
-82.78249
 30
0.0
  0
VERTEX
  8
LY_1
  6
CONTINUOUS
 62
     7
  5
1FF
 10
325.831043
 20
-82.892823
 30
0.0
  0
VERTEX
  8
LY_1
  6
CONTINUOUS
 62
     7
  5
200
 10
325.715366
 20
-83.002369
 30
0.0
  0
VERTEX
  8
LY_1
  6
CONTINUOUS
 62
     7
  5
201
 10
325.598605
 20
-83.11113
 30
0.0
  0
VERTEX
  8
LY_1
  6
CONTINUOUS
 62
     7
  5
202
 10
325.480782
 20
-83.219106
 30
0.0
  0
VERTEX
  8
LY_1
  6
CONTINUOUS
 62
     7
  5
203
 10
325.361919
 20
-83.326299
 30
0.0
  0
VERTEX
  8
LY_1
  6
CONTINUOUS
 62
     7
  5
204
 10
325.242038
 20
-83.432709
 30
0.0
  0
VERTEX
  8
LY_1
  6
CONTINUOUS
 62
     7
  5
205
 10
325.121161
 20
-83.538338
 30
0.0
  0
VERTEX
  8
LY_1
  6
CONTINUOUS
 62
     7
  5
206
 10
324.99931
 20
-83.643187
 30
0.0
  0
SEQEND
  8
LY_1
  6
CONTINUOUS
 62
     7
  5
207
  0
CIRCLE
  8
LY_1
  6
CONTINUOUS
 62
   251
  5
77
 10
459.00013
 20
0.0
 30
0.0
 40
4.990937
  0
ARC
  8
LY_1
  6
CONTINUOUS
 62
   251
  5
78
 10
357.000122
 20
-70.845404
 30
0.0
 40
5.0
 50
112.387109
 51
180.000005
  0
ARC
  8
LY_1
  6
CONTINUOUS
 62
   251
  5
79
 10
399.00013
 20
-56.992769
 30
0.0
 40
5.0
 50
0.0
 51
90.000003
  0
ARC
  8
LY_1
  6
CONTINUOUS
 62
   251
  5
7A
 10
399.00013
 20
56.992764
 30
0.0
 40
5.0
 50
269.999997
 51
0.0
  0
ARC
  8
LY_1
  6
CONTINUOUS
 62
   251
  5
7B
 10
357.000122
 20
119.999999
 30
0.0
 40
5.0
 50
179.999978
 51
270.000028
  0
ARC
  8
LY_1
  6
CONTINUOUS
 62
   251
  5
7C
 10
357.000122
 20
70.845394
 30
0.0
 40
5.0
 50
179.999991
 51
247.612881
  0
ARC
  8
LY_1
  6
CONTINUOUS
 62
   251
  5
7D
 10
317.000122
 20
0.0
 30
0.0
 40
8.0
 50
269.999997
 51
90.000003
  0
CIRCLE
  8
LY_1
  6
CONTINUOUS
 62
   251
  5
7E
 10
0.0
 20
0.0
 30
0.0
 40
115.0
  0
CIRCLE
  8
LY_1
  6
CONTINUOUS
 62
   251
  5
7F
 10
0.0
 20
0.0
 30
0.0
 40
87.5
  0
CIRCLE
  8
LY_1
  6
CONTINUOUS
 62
   251
  5
80
 10
0.0
 20
0.0
 30
0.0
 40
55.0
  0
ARC
  8
LY_1
  6
CENTER
 62
     7
  5
81
 10
0.0
 20
0.0
 30
0.0
 40
132.5
 50
288.109124
 51
297.218636
  0
CIRCLE
  8
LY_1
  6
CONTINUOUS
 62
   251
  5
82
 10
50.705566
 20
-122.414064
 30
0.0
 40
7.5
  0
ARC
  8
LY_1
  6
CENTER
 62
     7
  5
83
 10
0.0
 20
0.0
 30
0.0
 40
132.5
 50
242.177908
 51
252.218638
  0
CIRCLE
  8
LY_1
  6
CONTINUOUS
 62
   251
  5
84
 10
-50.705566
 20
-122.414064
 30
0.0
 40
7.5
  0
ARC
  8
LY_1
  6
CENTER
 62
     7
  5
85
 10
0.0
 20
0.0
 30
0.0
 40
132.5
 50
198.109135
 51
207.21864
  0
CIRCLE
  8
LY_1
  6
CONTINUOUS
 62
   251
  5
86
 10
-122.414055
 20
-50.705576
 30
0.0
 40
7.5
  0
ARC
  8
LY_1
  6
CENTER
 62
     7
  5
87
 10
0.0
 20
0.0
 30
0.0
 40
132.5
 50
152.489182
 51
162.218632
  0
CIRCLE
  8
LY_1
  6
CONTINUOUS
 62
   251
  5
88
 10
-122.414055
 20
50.705533
 30
0.0
 40
7.5
  0
ARC
  8
LY_1
  6
CENTER
 62
     7
  5
89
 10
0.0
 20
0.0
 30
0.0
 40
132.5
 50
108.109115
 51
117.218641
  0
CIRCLE
  8
LY_1
  6
CONTINUOUS
 62
   251
  5
8A
 10
-50.705566
 20
122.414026
 30
0.0
 40
7.5
  0
ARC
  8
LY_1
  6
CENTER
 62
     7
  5
8B
 10
0.0
 20
0.0
 30
0.0
 40
132.5
 50
62.903436
 51
72.218636
  0
CIRCLE
  8
LY_1
  6
CONTINUOUS
 62
   251
  5
8C
 10
50.705566
 20
122.414026
 30
0.0
 40
7.5
  0
ARC
  8
LY_1
  6
CENTER
 62
     7
  5
8D
 10
0.0
 20
0.0
 30
0.0
 40
132.5
 50
18.109123
 51
27.218635
  0
CIRCLE
  8
LY_1
  6
CONTINUOUS
 62
   251
  5
8E
 10
122.414055
 20
50.705533
 30
0.0
 40
7.5
  0
CIRCLE
  8
LY_1
  6
CONTINUOUS
 62
   251
  5
8F
 10
122.414055
 20
-50.705576
 30
0.0
 40
7.5
  0
ARC
  8
LY_1
  6
CENTER
 62
     7
  5
90
 10
0.0
 20
0.0
 30
0.0
 40
132.5
 50
332.557847
 51
342.218634
  0
CIRCLE
  8
LY_1
  6
CONTINUOUS
 62
   251
  5
91
 10
0.0
 20
0.0
 30
0.0
 40
150.0
  0
ARC
  8
LY_1
  6
CONTINUOUS
 62
   251
  5
92
 10
0.0
 20
0.0
 30
0.0
 40
27.5
 50
16.912373
 51
343.087606
  0
CIRCLE
  8
LY_1
  6
CONTINUOUS
 62
   251
  5
93
 10
0.0
 20
0.0
 30
0.0
 40
107.5
  0
ARC
  8
LY_1
  6
CONTINUOUS
 62
   251
  5
94
 10
489.000111
 20
138.500006
 30
0.0
 40
20.5
 50
304.60665
 51
235.393317
  0
CIRCLE
  8
LY_1
  6
CONTINUOUS
 62
   251
  5
95
 10
489.000111
 20
138.500006
 30
0.0
 40
12.5
  0
ARC
  8
LY_1
  6
CONTINUOUS
 62
   251
  5
96
 10
529.500111
 20
148.8
 30
0.0
 40
15.0
 50
89.999995
 51
179.999997
  0
ARC
  8
LY_1
  6
CONTINUOUS
 62
   251
  5
97
 10
540.500111
 20
137.8
 30
0.0
 40
3.0
 50
89.999995
 51
179.999997
  0
ARC
  8
LY_1
  6
CONTINUOUS
 62
   251
  5
98
 10
497.000104
 20
87.500012
 30
0.0
 40
5.0
 50
179.999995
 51
269.999997
  0
ARC
  8
LY_1
  6
CONTINUOUS
 62
   251
  5
99
 10
504.000112
 20
77.499998
 30
0.0
 40
5.0
 50
0.0
 51
90.000003
  0
ARC
  8
LY_1
  6
CONTINUOUS
 62
   251
  5
9A
 10
542.000113
 20
113.000003
 30
0.0
 40
2.0
 50
0.0
 51
90.0
  0
ARC
  8
LY_1
  6
CONTINUOUS
 62
   251
  5
9B
 10
504.000111
 20
77.499999
 30
0.0
 40
5.0
 50
0.0
 51
90.000003
  0
ARC
  8
LY_1
  6
CONTINUOUS
 62
   251
  5
9C
 10
589.000112
 20
49.772075
 30
0.0
 40
5.0
 50
269.999997
 51
0.0
  0
ARC
  8
LY_1
  6
CONTINUOUS
 62
   251
  5
9D
 10
504.000111
 20
77.499999
 30
0.0
 40
5.0
 50
0.0
 51
90.000003
  0
ARC
  8
LY_1
  6
CONTINUOUS
 62
   251
  5
9E
 10
549.014987
 20
73.392478
 30
0.0
 40
5.0
 50
179.999991
 51
258.246599
  0
ARC
  8
LY_1
  6
CONTINUOUS
 62
   251
  5
9F
 10
504.000111
 20
77.499998
 30
0.0
 40
5.0
 50
0.0
 51
90.000003
  0
ARC
  8
LY_1
  6
CONTINUOUS
 62
   251
  5
A0
 10
504.000111
 20
77.499998
 30
0.0
 40
5.0
 50
0.0
 51
90.000003
  0
ARC
  8
LY_1
  6
CONTINUOUS
 62
   251
  5
A1
 10
589.000111
 20
73.499998
 30
0.0
 40
5.0
 50
269.999997
 51
0.0
  0
ARC
  8
LY_1
  6
CONTINUOUS
 62
   251
  5
A2
 10
514.000111
 20
73.499998
 30
0.0
 40
5.0
 50
179.999991
 51
270.000001
  0
ARC
  8
LY_1
  6
CONTINUOUS
 62
   251
  5
A3
 10
514.000111
 20
49.772074
 30
0.0
 40
5.0
 50
179.999991
 51
270.000001
  0
ARC
  8
LY_1
  6
CONTINUOUS
 62
   251
  5
A4
 10
589.000111
 20
49.772074
 30
0.0
 40
5.0
 50
269.999997
 51
0.0
  0
ARC
  8
LY_1
  6
CONTINUOUS
 62
   251
  5
A5
 10
504.000111
 20
77.499998
 30
0.0
 40
5.0
 50
0.0
 51
90.000003
  0
ARC
  8
LY_1
  6
CONTINUOUS
 62
   251
  5
A6
 10
504.000111
 20
77.499998
 30
0.0
 40
5.0
 50
0.0
 51
90.000003
  0
ARC
  8
LY_1
  6
CONTINUOUS
 62
   251
  5
A7
 10
589.000111
 20
73.499998
 30
0.0
 40
5.0
 50
269.999997
 51
0.0
  0
ARC
  8
LY_1
  6
CONTINUOUS
 62
   251
  5
A8
 10
514.000111
 20
73.499998
 30
0.0
 40
5.0
 50
179.999991
 51
270.000001
  0
ARC
  8
LY_1
  6
CONTINUOUS
 62
   251
  5
A9
 10
514.000111
 20
49.772074
 30
0.0
 40
5.0
 50
179.999991
 51
270.000001
  0
ARC
  8
LY_1
  6
CONTINUOUS
 62
   251
  5
AA
 10
589.000111
 20
49.772074
 30
0.0
 40
5.0
 50
269.999997
 51
0.0
  0
ARC
  8
LY_1
  6
CONTINUOUS
 62
   251
  5
AB
 10
502.914639
 20
118.334773
 30
0.0
 40
4.0
 50
124.606679
 51
192.045781
  0
ARC
  8
LY_1
  6
CONTINUOUS
 62
   251
  5
AC
 10
475.085602
 20
118.334773
 30
0.0
 40
4.0
 50
347.954189
 51
55.393343
  0
ARC
  8
LY_1
  6
CONTINUOUS
 62
   251
  5
AD
 10
504.000111
 20
77.499995
 30
0.0
 40
5.0
 50
0.0
 51
90.000003
  0
ARC
  8
LY_1
  6
CONTINUOUS
 62
   251
  5
AE
 10
589.000111
 20
-49.772081
 30
0.0
 40
5.0
 50
0.0
 51
90.000003
  0
ARC
  8
LY_1
  6
CONTINUOUS
 62
   251
  5
AF
 10
514.000111
 20
-49.772081
 30
0.0
 40
5.0
 50
90.000003
 51
180.000005
  0
ARC
  8
LY_1
  6
CONTINUOUS
 62
   251
  5
B0
 10
514.000111
 20
49.772072
 30
0.0
 40
5.0
 50
179.999991
 51
270.000001
  0
ARC
  8
LY_1
  6
CONTINUOUS
 62
   251
  5
B1
 10
514.000111
 20
-73.500013
 30
0.0
 40
5.0
 50
90.000003
 51
180.000005
  0
ARC
  8
LY_1
  6
CONTINUOUS
 62
   251
  5
B2
 10
589.000111
 20
-73.500013
 30
0.0
 40
5.0
 50
0.0
 51
90.000003
  0
ARC
  8
LY_1
  6
CONTINUOUS
 62
   251
  5
B3
 10
497.000103
 20
-87.50001
 30
0.0
 40
5.0
 50
90.000003
 51
180.000005
  0
ARC
  8
LY_1
  6
CONTINUOUS
 62
   251
  5
B4
 10
504.000111
 20
-77.49999
 30
0.0
 40
5.0
 50
269.999997
 51
0.0
  0
ARC
  8
LY_1
  6
CONTINUOUS
 62
   251
  5
B5
 10
514.000111
 20
73.499999
 30
0.0
 40
5.0
 50
179.999991
 51
270.000001
  0
ARC
  8
LY_1
  6
CONTINUOUS
 62
   251
  5
B6
 10
589.000111
 20
73.499999
 30
0.0
 40
5.0
 50
269.999997
 51
0.0
  0
ARC
  8
LY_1
  6
CONTINUOUS
 62
   251
  5
B7
 10
504.000111
 20
77.499995
 30
0.0
 40
5.0
 50
0.0
 51
90.000003
  0
LINE
  8
LY_1
  6
CONTINUOUS
 62
   251
  5
B8
 10
463.94988
 20
-0.000002
 30
0.0
 11
459.00013
 21
4.949747
 31
0.0
  0
LINE
  8
LY_1
  6
CONTINUOUS
 62
   251
  5
B9
 10
459.00013
 20
-4.949749
 30
0.0
 11
463.94988
 21
-0.000002
 31
0.0
  0
LINE
  8
LY_1
  6
CONTINUOUS
 62
   251
  5
BA
 10
454.050381
 20
-0.000001
 30
0.0
 11
459.00013
 21
-4.949749
 31
0.0
  0
LINE
  8
LY_1
  6
CONTINUOUS
 62
   251
  5
BB
 10
459.00013
 20
4.949747
 30
0.0
 11
454.050381
 21
-0.000001
 31
0.0
  0
LINE
  8
LY_1
  6
CONTINUOUS
 62
   251
  5
BC
 10
474.000111
 20
114.999999
 30
0.0
 11
474.000111
 21
-115.00001
 31
0.0
  0
LINE
  8
LY_1
  6
CENTER
 62
     7
  5
BD
 10
238.418397
 20
0.0
 30
0.0
 11
881.377798
 21
0.0
 31
0.0
  0
LINE
  8
LY_1
  6
CONTINUOUS
 62
   251
  5
BE
 10
357.000122
 20
114.999999
 30
0.0
 11
422.000122
 21
114.999999
 31
0.0
  0
LINE
  8
LY_1
  6
CONTINUOUS
 62
   251
  5
BF
 10
422.000122
 20
114.999999
 30
0.0
 11
422.000122
 21
-115.00001
 31
0.0
  0
LINE
  8
LY_1
  6
CONTINUOUS
 62
   251
  5
C0
 10
352.000122
 20
150.00001
 30
0.0
 11
352.000122
 21
-150.00001
 31
0.0
  0
LINE
  8
LY_1
  6
CONTINUOUS
 62
   251
  5
C1
 10
404.00013
 20
114.999999
 30
0.0
 11
404.00013
 21
-114.99999
 31
0.0
  0
LINE
  8
LY_1
  6
CONTINUOUS
 62
   251
  5
C2
 10
355.095859
 20
-66.222377
 30
0.0
 11
389.641088
 21
-51.992955
 31
0.0
  0
LINE
  8
LY_1
  6
CONTINUOUS
 62
   251
  5
C3
 10
352.000218
 20
-92.734738
 30
0.0
 11
404.000219
 21
-71.453981
 31
0.0
  0
LINE
  8
LY_1
  6
CONTINUOUS
 62
   251
  5
C4
 10
352.000176
 20
-106.876881
 30
0.0
 11
404.000182
 21
-85.596122
 31
0.0
  0
LINE
  8
LY_1
  6
CONTINUOUS
 62
   251
  5
C5
 10
355.095724
 20
66.222297
 30
0.0
 11
389.640973
 21
51.992868
 31
0.0
  0
LINE
  8
LY_1
  6
CONTINUOUS
 62
   251
  5
C6
 10
352.000187
 20
106.876632
 30
0.0
 11
404.000171
 21
85.595882
 31
0.0
  0
LINE
  8
LY_1
  6
CONTINUOUS
 62
   251
  5
C7
 10
352.000221
 20
92.734482
 30
0.0
 11
404.000205
 21
71.453732
 31
0.0
  0
LINE
  8
LY_1
  6
CONTINUOUS
 62
   251
  5
C8
 10
389.640999
 20
51.992764
 30
0.0
 11
399.00013
 21
51.992764
 31
0.0
  0
LINE
  8
LY_1
  6
CONTINUOUS
 62
   251
  5
C9
 10
389.640999
 20
-51.992769
 30
0.0
 11
399.00013
 21
-51.992769
 31
0.0
  0
LINE
  8
LY_1
  6
CONTINUOUS
 62
   251
  5
CA
 10
330.000124
 20
32.5
 30
0.0
 11
330.000124
 21
-32.5
 31
0.0
  0
LINE
  8
LY_1
  6
CONTINUOUS
 62
   251
  5
CB
 10
250.0
 20
-27.5
 30
0.0
 11
330.000124
 21
-27.5
 31
0.0
  0
LINE
  8
LY_1
  6
CONTINUOUS
 62
   251
  5
CC
 10
250.0
 20
27.5
 30
0.0
 11
330.000124
 21
27.5
 31
0.0
  0
LINE
  8
LY_1
  6
CONTINUOUS
 62
   251
  5
CD
 10
330.000124
 20
-32.5
 30
0.0
 11
334.219847
 21
-32.5
 31
0.0
  0
LINE
  8
LY_1
  6
CONTINUOUS
 62
   251
  5
CE
 10
330.000124
 20
32.5
 30
0.0
 11
334.179077
 21
32.5
 31
0.0
  0
LINE
  8
LY_1
  6
CONTINUOUS
 62
   251
  5
CF
 10
250.0
 20
27.5
 30
0.0
 11
250.0
 21
-27.5
 31
0.0
  0
LINE
  8
LY_1
  6
CONTINUOUS
 62
   251
  5
D0
 10
330.000124
 20
-150.00001
 30
0.0
 11
352.000122
 21
-150.00001
 31
0.0
  0
LINE
  8
LY_1
  6
CONTINUOUS
 62
   251
  5
D1
 10
325.000124
 20
-114.99999
 30
0.0
 11
330.000124
 21
-114.99999
 31
0.0
  0
LINE
  8
LY_1
  6
CONTINUOUS
 62
   251
  5
D2
 10
325.000124
 20
-83.642569
 30
0.0
 11
325.000124
 21
-114.99999
 31
0.0
  0
LINE
  8
LY_1
  6
CONTINUOUS
 62
   251
  5
D3
 10
330.000124
 20
-76.707869
 30
0.0
 11
330.000124
 21
-150.00001
 31
0.0
  0
LINE
  8
LY_1
  6
CONTINUOUS
 62
   251
  5
D4
 10
330.000124
 20
150.00001
 30
0.0
 11
352.000122
 21
150.00001
 31
0.0
  0
LINE
  8
LY_1
  6
CONTINUOUS
 62
   251
  5
D5
 10
330.000124
 20
150.00001
 30
0.0
 11
330.000124
 21
87.351227
 31
0.0
  0
LINE
  8
LY_1
  6
CONTINUOUS
 62
   251
  5
D6
 10
325.000124
 20
114.999999
 30
0.0
 11
330.000124
 21
114.999999
 31
0.0
  0
LINE
  8
LY_1
  6
CONTINUOUS
 62
   251
  5
D7
 10
325.000124
 20
114.999999
 30
0.0
 11
325.000124
 21
93.862119
 31
0.0
  0
LINE
  8
LY_1
  6
CONTINUOUS
 62
   251
  5
D8
 10
250.0
 20
7.999992
 30
0.0
 11
317.000122
 21
7.999992
 31
0.0
  0
LINE
  8
LY_1
  6
CONTINUOUS
 62
   251
  5
D9
 10
250.0
 20
-8.000002
 30
0.0
 11
317.000122
 21
-8.000002
 31
0.0
  0
LINE
  8
LY_1
  6
CONTINUOUS
 62
   251
  5
DA
 10
404.00013
 20
-115.00001
 30
0.0
 11
422.000122
 21
-115.00001
 31
0.0
  0
LINE
  8
LY_1
  6
CENTER
 62
     7
  5
DB
 10
378.000126
 20
202.880735
 30
0.0
 11
378.000126
 21
107.207615
 31
0.0
  0
LINE
  8
LY_1
  6
CONTINUOUS
 62
   251
  5
DC
 10
386.071186
 20
198.950005
 30
0.0
 11
369.929047
 21
198.950005
 31
0.0
  0
LINE
  8
LY_1
  6
CONTINUOUS
 62
   251
  5
DD
 10
386.507683
 20
189.949999
 30
0.0
 11
369.492569
 21
189.949999
 31
0.0
  0
LINE
  8
LY_1
  6
CONTINUOUS
 62
   251
  5
DE
 10
386.507677
 20
189.950006
 30
0.0
 11
386.331114
 21
184.300002
 31
0.0
  0
LINE
  8
LY_1
  6
CONTINUOUS
 62
   251
  5
DF
 10
369.492567
 20
189.949999
 30
0.0
 11
369.669129
 21
184.300005
 31
0.0
  0
LINE
  8
LY_1
  6
CONTINUOUS
 62
   251
  5
E0
 10
386.071186
 20
198.949995
 30
0.0
 11
386.071186
 21
189.949999
 31
0.0
  0
LINE
  8
LY_1
  6
CONTINUOUS
 62
   251
  5
E1
 10
369.929047
 20
198.950005
 30
0.0
 11
369.929047
 21
189.949999
 31
0.0
  0
LINE
  8
LY_1
  6
CONTINUOUS
 62
   251
  5
E2
 10
366.50013
 20
152.300005
 30
0.0
 11
389.500122
 21
152.300005
 31
0.0
  0
LINE
  8
LY_1
  6
CONTINUOUS
 62
   251
  5
E3
 10
389.500122
 20
184.300003
 30
0.0
 11
389.500122
 21
152.300005
 31
0.0
  0
LINE
  8
LY_1
  6
CONTINUOUS
 62
   251
  5
E4
 10
366.50013
 20
184.300003
 30
0.0
 11
366.50013
 21
152.300005
 31
0.0
  0
LINE
  8
LY_1
  6
CONTINUOUS
 62
   251
  5
E5
 10
369.500122
 20
152.300005
 30
0.0
 11
369.500122
 21
114.999999
 31
0.0
  0
LINE
  8
LY_1
  6
CONTINUOUS
 62
   251
  5
E6
 10
386.50013
 20
152.300005
 30
0.0
 11
386.50013
 21
114.999999
 31
0.0
  0
LINE
  8
LY_1
  6
CONTINUOUS
 62
   251
  5
E7
 10
378.000126
 20
198.950005
 30
0.0
 11
378.000126
 21
189.949999
 31
0.0
  0
LINE
  8
LY_1
  6
CONTINUOUS
 62
     7
  5
E8
 10
386.071173
 20
189.949983
 30
0.0
 11
378.000106
 21
198.949986
 31
0.0
  0
LINE
  8
LY_1
  6
CONTINUOUS
 62
     7
  5
E9
 10
386.071192
 20
198.950004
 30
0.0
 11
378.000121
 21
189.950004
 31
0.0
  0
LINE
  8
LY_1
  6
CONTINUOUS
 62
     7
  5
EA
 10
378.000119
 20
198.950005
 30
0.0
 11
369.92905
 21
189.950003
 31
0.0
  0
LINE
  8
LY_1
  6
CONTINUOUS
 62
     7
  5
EB
 10
378.000117
 20
189.950003
 30
0.0
 11
369.929049
 21
198.950003
 31
0.0
  0
LINE
  8
LY_1
  6
CONTINUOUS
 62
   251
  5
EC
 10
366.50013
 20
184.300003
 30
0.0
 11
389.500122
 21
184.300003
 31
0.0
  0
LINE
  8
LY_1
  6
CONTINUOUS
 62
   251
  5
ED
 10
426.000118
 20
117.500002
 30
0.0
 11
470.000114
 21
117.500002
 31
0.0
  0
LINE
  8
LY_1
  6
CONTINUOUS
 62
   251
  5
EE
 10
426.000118
 20
-117.50001
 30
0.0
 11
470.000114
 21
-117.50001
 31
0.0
  0
LINE
  8
LY_1
  6
CONTINUOUS
 62
   251
  5
EF
 10
422.000141
 20
113.499982
 30
0.0
 11
426.000148
 21
117.499973
 31
0.0
  0
LINE
  8
LY_1
  6
CONTINUOUS
 62
   251
  5
F0
 10
470.000183
 20
117.500104
 30
0.0
 11
474.000195
 21
113.500092
 31
0.0
  0
LINE
  8
LY_1
  6
CONTINUOUS
 62
   251
  5
F1
 10
474.00018
 20
-113.500072
 30
0.0
 11
470.000203
 21
-117.500064
 31
0.0
  0
LINE
  8
LY_1
  6
CONTINUOUS
 62
   251
  5
F2
 10
426.00025
 20
-117.499879
 30
0.0
 11
422.000253
 21
-113.499878
 31
0.0
  0
LINE
  8
LY_1
  6
CONTINUOUS
 62
   251
  5
F3
 10
426.000118
 20
74.942169
 30
0.0
 11
470.000114
 21
74.942169
 31
0.0
  0
LINE
  8
LY_1
  6
CONTINUOUS
 62
   251
  5
F4
 10
426.000118
 20
61.286745
 30
0.0
 11
470.000114
 21
61.286745
 31
0.0
  0
LINE
  8
LY_1
  6
CONTINUOUS
 62
   251
  5
F5
 10
426.000118
 20
52.540345
 30
0.0
 11
470.000114
 21
52.540345
 31
0.0
  0
LINE
  8
LY_1
  6
CONTINUOUS
 62
   251
  5
F6
 10
426.000118
 20
37.164698
 30
0.0
 11
470.000114
 21
37.164698
 31
0.0
  0
LINE
  8
LY_1
  6
CONTINUOUS
 62
   251
  5
F7
 10
426.000118
 20
27.552004
 30
0.0
 11
470.000114
 21
27.552004
 31
0.0
  0
LINE
  8
LY_1
  6
CONTINUOUS
 62
   251
  5
F8
 10
426.000118
 20
10.999479
 30
0.0
 11
470.000114
 21
10.999479
 31
0.0
  0
LINE
  8
LY_1
  6
CONTINUOUS
 62
   251
  5
F9
 10
426.000118
 20
-11.000309
 30
0.0
 11
470.000114
 21
-11.000309
 31
0.0
  0
LINE
  8
LY_1
  6
CONTINUOUS
 62
   251
  5
FA
 10
426.000118
 20
-27.55167
 30
0.0
 11
470.000114
 21
-27.55167
 31
0.0
  0
LINE
  8
LY_1
  6
CONTINUOUS
 62
   251
  5
FB
 10
426.000118
 20
-37.163944
 30
0.0
 11
470.000114
 21
-37.163944
 31
0.0
  0
LINE
  8
LY_1
  6
CONTINUOUS
 62
   251
  5
FC
 10
426.000118
 20
-52.540464
 30
0.0
 11
470.000114
 21
-52.540464
 31
0.0
  0
LINE
  8
LY_1
  6
CONTINUOUS
 62
   251
  5
FD
 10
426.000118
 20
-61.28644
 30
0.0
 11
470.000114
 21
-61.28644
 31
0.0
  0
LINE
  8
LY_1
  6
CONTINUOUS
 62
   251
  5
FE
 10
426.000118
 20
-74.94092
 30
0.0
 11
470.000114
 21
-74.94092
 31
0.0
  0
LINE
  8
LY_1
  6
CONTINUOUS
 62
   251
  5
FF
 10
426.000118
 20
-90.497446
 30
0.0
 11
470.000114
 21
-90.497446
 31
0.0
  0
LINE
  8
LY_1
  6
CONTINUOUS
 62
   251
  5
100
 10
426.000118
 20
-100.250425
 30
0.0
 11
470.000114
 21
-100.250425
 31
0.0
  0
LINE
  8
LY_1
  6
CONTINUOUS
 62
   251
  5
101
 10
426.000118
 20
-105.0982
 30
0.0
 11
470.000114
 21
-105.0982
 31
0.0
  0
LINE
  8
LY_1
  6
CONTINUOUS
 62
   251
  5
102
 10
426.000118
 20
-111.467657
 30
0.0
 11
470.000114
 21
-111.467657
 31
0.0
  0
LINE
  8
LY_1
  6
CENTER
 62
     7
  5
103
 10
459.00013
 20
6.990938
 30
0.0
 11
459.00013
 21
-6.990938
 31
0.0
  0
LINE
  8
LY_1
  6
CONTINUOUS
 62
   251
  5
104
 10
31.500015
 20
7.999992
 30
0.0
 11
31.500015
 21
-8.000002
 31
0.0
  0
LINE
  8
LY_1
  6
CONTINUOUS
 62
   251
  5
105
 10
-11.500015
 20
184.300003
 30
0.0
 11
11.500015
 21
184.300003
 31
0.0
  0
LINE
  8
LY_1
  6
CONTINUOUS
 62
     7
  5
106
 10
-0.000015
 20
189.949985
 30
0.0
 11
-8.071084
 21
198.949987
 31
0.0
  0
LINE
  8
LY_1
  6
CONTINUOUS
 62
     7
  5
107
 10
0.000021
 20
198.950012
 30
0.0
 11
-8.071048
 21
189.950011
 31
0.0
  0
LINE
  8
LY_1
  6
CONTINUOUS
 62
     7
  5
108
 10
8.071079
 20
198.949996
 30
0.0
 11
0.000008
 21
189.949996
 31
0.0
  0
LINE
  8
LY_1
  6
CONTINUOUS
 62
     7
  5
109
 10
8.071067
 20
189.949988
 30
0.0
 11
0.0
 21
198.949991
 31
0.0
  0
LINE
  8
LY_1
  6
CONTINUOUS
 62
   251
  5
10A
 10
0.0
 20
198.950005
 30
0.0
 11
0.0
 21
189.949999
 31
0.0
  0
LINE
  8
LY_1
  6
CONTINUOUS
 62
   251
  5
10B
 10
8.499985
 20
152.30001
 30
0.0
 11
8.499985
 21
149.758978
 31
0.0
  0
LINE
  8
LY_1
  6
CONTINUOUS
 62
   251
  5
10C
 10
-8.499985
 20
152.30001
 30
0.0
 11
-8.499985
 21
149.758978
 31
0.0
  0
LINE
  8
LY_1
  6
CONTINUOUS
 62
   251
  5
10D
 10
-11.500015
 20
184.300003
 30
0.0
 11
-11.500015
 21
152.30001
 31
0.0
  0
LINE
  8
LY_1
  6
CONTINUOUS
 62
   251
  5
10E
 10
11.500015
 20
184.300003
 30
0.0
 11
11.500015
 21
152.30001
 31
0.0
  0
LINE
  8
LY_1
  6
CONTINUOUS
 62
   251
  5
10F
 10
-11.500015
 20
152.30001
 30
0.0
 11
11.500015
 21
152.30001
 31
0.0
  0
LINE
  8
LY_1
  6
CONTINUOUS
 62
   251
  5
110
 10
-8.07106
 20
198.950005
 30
0.0
 11
-8.07106
 21
189.949999
 31
0.0
  0
LINE
  8
LY_1
  6
CONTINUOUS
 62
   251
  5
111
 10
8.07106
 20
198.949995
 30
0.0
 11
8.07106
 21
189.949999
 31
0.0
  0
LINE
  8
LY_1
  6
CONTINUOUS
 62
   251
  5
112
 10
-8.50758
 20
189.949999
 30
0.0
 11
-8.331018
 21
184.30001
 31
0.0
  0
LINE
  8
LY_1
  6
CONTINUOUS
 62
   251
  5
113
 10
8.507536
 20
189.950004
 30
0.0
 11
8.330972
 21
184.300001
 31
0.0
  0
LINE
  8
LY_1
  6
CONTINUOUS
 62
   251
  5
114
 10
8.507576
 20
189.949999
 30
0.0
 11
-8.507576
 21
189.949999
 31
0.0
  0
LINE
  8
LY_1
  6
CONTINUOUS
 62
   251
  5
115
 10
8.07106
 20
198.950005
 30
0.0
 11
-8.07106
 21
198.950005
 31
0.0
  0
LINE
  8
LY_1
  6
CENTER
 62
     7
  5
116
 10
46.294677
 20
-111.765647
 30
0.0
 11
54.890707
 21
-132.518313
 31
0.0
  0
LINE
  8
LY_1
  6
CENTER
 62
     7
  5
117
 10
-46.29543
 20
-111.765298
 30
0.0
 11
-54.891475
 21
-132.517977
 31
0.0
  0
LINE
  8
LY_1
  6
CENTER
 62
     7
  5
118
 10
-111.765813
 20
-46.294429
 30
0.0
 11
-132.518425
 21
-54.890439
 31
0.0
  0
LINE
  8
LY_1
  6
CENTER
 62
     7
  5
119
 10
-111.765463
 20
46.295054
 30
0.0
 11
-132.518143
 21
54.891098
 31
0.0
  0
LINE
  8
LY_1
  6
CENTER
 62
     7
  5
11A
 10
-46.294668
 20
111.765664
 30
0.0
 11
-54.890708
 21
132.518346
 31
0.0
  0
LINE
  8
LY_1
  6
CENTER
 62
     7
  5
11B
 10
46.294731
 20
111.765741
 30
0.0
 11
54.890752
 21
132.518369
 31
0.0
  0
LINE
  8
LY_1
  6
CENTER
 62
     7
  5
11C
 10
111.765885
 20
46.294412
 30
0.0
 11
132.518601
 21
54.890468
 31
0.0
  0
LINE
  8
LY_1
  6
CENTER
 62
     7
  5
11D
 10
111.765724
 20
-46.294966
 30
0.0
 11
132.518262
 21
-54.890955
 31
0.0
  0
LINE
  8
LY_1
  6
CONTINUOUS
 62
   251
  5
11E
 10
31.500015
 20
-8.000002
 30
0.0
 11
21.500015
 21
-8.000002
 31
0.0
  0
LINE
  8
LY_1
  6
CONTINUOUS
 62
   251
  5
11F
 10
31.500015
 20
7.999992
 30
0.0
 11
21.500015
 21
7.999992
 31
0.0
  0
LINE
  8
LY_1
  6
CONTINUOUS
 62
   251
  5
120
 10
21.500015
 20
7.999992
 30
0.0
 11
21.500015
 21
-8.000002
 31
0.0
  0
LINE
  8
LY_1
  6
CENTER
 62
     7
  5
121
 10
0.0
 20
208.950005
 30
0.0
 11
0.0
 21
-165.0
 31
0.0
  0
LINE
  8
LY_1
  6
CENTER
 62
     7
  5
122
 10
-162.502972
 20
0.0
 30
0.0
 11
163.123408
 21
0.0
 31
0.0
  0
LINE
  8
LY_1
  6
CONTINUOUS
 62
   251
  5
123
 10
313.0
 20
7.999992
 30
0.0
 11
313.0
 21
-8.000002
 31
0.0
  0
LINE
  8
LY_1
  6
CONTINUOUS
 62
   251
  5
124
 10
474.000111
 20
-115.00001
 30
0.0
 11
492.000103
 21
-115.00001
 31
0.0
  0
LINE
  8
LY_1
  6
CENTER
 62
     7
  5
125
 10
463.514538
 20
138.499908
 30
0.0
 11
513.942623
 21
138.499908
 31
0.0
  0
LINE
  8
LY_1
  6
CONTINUOUS
 62
   251
  5
126
 10
474.000111
 20
115.000003
 30
0.0
 11
542.000113
 21
115.000003
 31
0.0
  0
LINE
  8
LY_1
  6
CONTINUOUS
 62
     7
  5
127
 10
563.65011
 20
160.37107
 30
0.0
 11
554.65011
 21
152.300001
 31
0.0
  0
LINE
  8
LY_1
  6
CONTINUOUS
 62
     7
  5
128
 10
563.65011
 20
152.300001
 30
0.0
 11
554.65011
 21
144.228932
 31
0.0
  0
LINE
  8
LY_1
  6
CENTER
 62
     7
  5
129
 10
567.335557
 20
152.3
 30
0.0
 11
512.333443
 21
152.3
 31
0.0
  0
LINE
  8
LY_1
  6
CONTINUOUS
 62
   251
  5
12A
 10
517.588795
 20
115.000003
 30
0.0
 11
517.588795
 21
129.3
 31
0.0
  0
LINE
  8
LY_1
  6
CONTINUOUS
 62
     7
  5
12B
 10
554.65011
 20
160.37107
 30
0.0
 11
563.65011
 21
152.300001
 31
0.0
  0
LINE
  8
LY_1
  6
CONTINUOUS
 62
   251
  5
12C
 10
554.65011
 20
160.807564
 30
0.0
 11
549.000111
 21
160.631001
 31
0.0
  0
LINE
  8
LY_1
  6
CONTINUOUS
 62
   251
  5
12D
 10
514.500107
 20
129.3
 30
0.0
 11
536.833454
 21
129.3
 31
0.0
  0
LINE
  8
LY_1
  6
CONTINUOUS
 62
   251
  5
12E
 10
514.500107
 20
148.8
 30
0.0
 11
514.500107
 21
129.3
 31
0.0
  0
LINE
  8
LY_1
  6
CONTINUOUS
 62
   251
  5
12F
 10
563.65011
 20
144.228932
 30
0.0
 11
554.65011
 21
144.228932
 31
0.0
  0
LINE
  8
LY_1
  6
CONTINUOUS
 62
   251
  5
130
 10
534.411427
 20
115.000003
 30
0.0
 11
534.411427
 21
129.3
 31
0.0
  0
LINE
  8
LY_1
  6
CENTER
 62
     7
  5
131
 10
526.000111
 20
166.966667
 30
0.0
 11
526.000111
 21
106.370404
 31
0.0
  0
LINE
  8
LY_1
  6
CONTINUOUS
 62
   251
  5
132
 10
554.65011
 20
143.792437
 30
0.0
 11
554.65011
 21
160.807564
 31
0.0
  0
LINE
  8
LY_1
  6
CONTINUOUS
 62
   251
  5
133
 10
554.65011
 20
143.792437
 30
0.0
 11
549.000111
 21
143.969
 31
0.0
  0
LINE
  8
LY_1
  6
CONTINUOUS
 62
     7
  5
134
 10
563.650111
 20
144.228932
 30
0.0
 11
554.65011
 21
152.300001
 31
0.0
  0
LINE
  8
LY_1
  6
CONTINUOUS
 62
   251
  5
135
 10
563.65011
 20
160.37107
 30
0.0
 11
554.65011
 21
160.37107
 31
0.0
  0
LINE
  8
LY_1
  6
CONTINUOUS
 62
   251
  5
136
 10
549.000111
 20
163.8
 30
0.0
 11
549.000111
 21
140.8
 31
0.0
  0
LINE
  8
LY_1
  6
CONTINUOUS
 62
   251
  5
137
 10
549.000111
 20
163.8
 30
0.0
 11
529.500111
 21
163.8
 31
0.0
  0
LINE
  8
LY_1
  6
CONTINUOUS
 62
   251
  5
138
 10
549.000111
 20
140.8
 30
0.0
 11
540.500111
 21
140.8
 31
0.0
  0
LINE
  8
LY_1
  6
CONTINUOUS
 62
   251
  5
139
 10
537.500111
 20
137.8
 30
0.0
 11
537.500111
 21
129.3
 31
0.0
  0
LINE
  8
LY_1
  6
CONTINUOUS
 62
   251
  5
13A
 10
563.65011
 20
144.228932
 30
0.0
 11
563.65011
 21
160.37107
 31
0.0
  0
LINE
  8
LY_1
  6
CONTINUOUS
 62
   251
  5
13B
 10
497.000104
 20
82.5
 30
0.0
 11
504.000112
 21
82.5
 31
0.0
  0
LINE
  8
LY_1
  6
CONTINUOUS
 62
   251
  5
13C
 10
509.000112
 20
64.153888
 30
0.0
 11
509.000112
 21
-54.800789
 31
0.0
  0
LINE
  8
LY_1
  6
CONTINUOUS
 62
   251
  5
13D
 10
509.000112
 20
77.499998
 30
0.0
 11
509.000112
 21
64.153888
 31
0.0
  0
LINE
  8
LY_1
  6
CONTINUOUS
 62
   251
  5
13E
 10
501.000119
 20
82.499999
 30
0.0
 11
504.000111
 21
82.499999
 31
0.0
  0
LINE
  8
LY_1
  6
CONTINUOUS
 62
   251
  5
13F
 10
509.000111
 20
54.800776
 30
0.0
 11
509.000111
 21
-54.800778
 31
0.0
  0
LINE
  8
LY_1
  6
CONTINUOUS
 62
   251
  5
140
 10
509.000111
 20
77.499999
 30
0.0
 11
509.000111
 21
61.871844
 31
0.0
  0
LINE
  8
LY_1
  6
CONTINUOUS
 62
   251
  5
141
 10
544.014987
 20
112.991429
 30
0.0
 11
544.014987
 21
73.392478
 31
0.0
  0
LINE
  8
LY_1
  6
CONTINUOUS
 62
   251
  5
142
 10
479.000122
 20
117.499999
 30
0.0
 11
479.942994
 21
122.847291
 31
0.0
  0
LINE
  8
LY_1
  6
CONTINUOUS
 62
   251
  5
143
 10
492.000103
 20
104.225399
 30
0.0
 11
492.000103
 21
-111.988668
 31
0.0
  0
LINE
  8
LY_1
  6
CONTINUOUS
 62
   251
  5
144
 10
509.000111
 20
77.499998
 30
0.0
 11
509.000111
 21
61.871843
 31
0.0
  0
LINE
  8
LY_1
  6
CONTINUOUS
 62
   251
  5
145
 10
509.000111
 20
54.800775
 30
0.0
 11
509.000111
 21
-54.800777
 31
0.0
  0
LINE
  8
LY_1
  6
CONTINUOUS
 62
   251
  5
146
 10
501.000118
 20
82.499998
 30
0.0
 11
504.000111
 21
82.499998
 31
0.0
  0
LINE
  8
LY_1
  6
CONTINUOUS
 62
   251
  5
147
 10
492.000103
 20
104.225399
 30
0.0
 11
492.000103
 21
-111.988668
 31
0.0
  0
LINE
  8
LY_1
  6
CONTINUOUS
 62
   251
  5
148
 10
509.000111
 20
77.499998
 30
0.0
 11
509.000111
 21
61.871843
 31
0.0
  0
LINE
  8
LY_1
  6
CONTINUOUS
 62
   251
  5
149
 10
509.000111
 20
54.800775
 30
0.0
 11
509.000111
 21
-54.800777
 31
0.0
  0
LINE
  8
LY_1
  6
CONTINUOUS
 62
   251
  5
14A
 10
501.000118
 20
82.499998
 30
0.0
 11
504.000111
 21
82.499998
 31
0.0
  0
LINE
  8
LY_1
  6
CONTINUOUS
 62
   251
  5
14B
 10
479.80011
 20
117.500002
 30
0.0
 11
479.80011
 21
115.000002
 31
0.0
  0
LINE
  8
LY_1
  6
CONTINUOUS
 62
   251
  5
14C
 10
479.000111
 20
117.500002
 30
0.0
 11
499.002713
 21
117.500002
 31
0.0
  0
LINE
  8
LY_1
  6
CENTER
 62
     7
  5
14D
 10
489.000111
 20
164.242401
 30
0.0
 11
489.000111
 21
108.429399
 31
0.0
  0
LINE
  8
LY_1
  6
CONTINUOUS
 62
   251
  5
14E
 10
479.943029
 20
122.847303
 30
0.0
 11
498.057244
 21
122.847303
 31
0.0
  0
LINE
  8
LY_1
  6
CONTINUOUS
 62
   251
  5
14F
 10
479.942994
 20
122.847291
 30
0.0
 11
489.000111
 21
126.000006
 31
0.0
  0
LINE
  8
LY_1
  6
CONTINUOUS
 62
   251
  5
150
 10
498.057244
 20
122.847303
 30
0.0
 11
499.000119
 21
117.499999
 31
0.0
  0
LINE
  8
LY_1
  6
CONTINUOUS
 62
   251
  5
151
 10
498.200111
 20
117.500002
 30
0.0
 11
498.200111
 21
115.000002
 31
0.0
  0
LINE
  8
LY_1
  6
CONTINUOUS
 62
   251
  5
152
 10
489.000111
 20
126.000006
 30
0.0
 11
498.057244
 21
122.847303
 31
0.0
  0
LINE
  8
LY_1
  6
CONTINUOUS
 62
   251
  5
153
 10
501.000118
 20
82.499998
 30
0.0
 11
504.000111
 21
82.499998
 31
0.0
  0
LINE
  8
LY_1
  6
CONTINUOUS
 62
   251
  5
154
 10
514.000111
 20
-44.772081
 30
0.0
 11
589.000111
 21
-44.772081
 31
0.0
  0
LINE
  8
LY_1
  6
CONTINUOUS
 62
   251
  5
155
 10
509.000111
 20
-61.871843
 30
0.0
 11
594.000111
 21
-61.871843
 31
0.0
  0
LINE
  8
LY_1
  6
CONTINUOUS
 62
   251
  5
156
 10
509.000111
 20
-54.800787
 30
0.0
 11
594.000111
 21
-54.800787
 31
0.0
  0
LINE
  8
LY_1
  6
CONTINUOUS
 62
   251
  5
157
 10
509.000111
 20
54.800777
 30
0.0
 11
509.000111
 21
-54.800787
 31
0.0
  0
LINE
  8
LY_1
  6
CONTINUOUS
 62
   251
  5
158
 10
514.000111
 20
44.772072
 30
0.0
 11
589.000111
 21
44.772072
 31
0.0
  0
LINE
  8
LY_1
  6
CONTINUOUS
 62
   251
  5
159
 10
509.000111
 20
61.871843
 30
0.0
 11
594.000111
 21
61.871843
 31
0.0
  0
LINE
  8
LY_1
  6
CONTINUOUS
 62
   251
  5
15A
 10
509.000111
 20
54.800777
 30
0.0
 11
594.000111
 21
54.800777
 31
0.0
  0
LINE
  8
LY_1
  6
CONTINUOUS
 62
   251
  5
15B
 10
497.000103
 20
-82.50001
 30
0.0
 11
504.000111
 21
-82.50001
 31
0.0
  0
LINE
  8
LY_1
  6
CONTINUOUS
 62
   251
  5
15C
 10
509.000111
 20
-77.49999
 30
0.0
 11
509.000111
 21
-55.33947
 31
0.0
  0
LINE
  8
LY_1
  6
CONTINUOUS
 62
   251
  5
15D
 10
514.000111
 20
-68.500013
 30
0.0
 11
589.000111
 21
-68.500013
 31
0.0
  0
LINE
  8
LY_1
  6
CONTINUOUS
 62
   251
  5
15E
 10
594.000111
 20
-88.000002
 30
0.0
 11
612.000103
 21
-88.000002
 31
0.0
  0
LINE
  8
LY_1
  6
CONTINUOUS
 62
   251
  5
15F
 10
509.000111
 20
77.499995
 30
0.0
 11
509.000111
 21
61.871843
 31
0.0
  0
LINE
  8
LY_1
  6
CONTINUOUS
 62
   251
  5
160
 10
514.000111
 20
68.499999
 30
0.0
 11
589.000111
 21
68.499999
 31
0.0
  0
LINE
  8
LY_1
  6
CONTINUOUS
 62
   251
  5
161
 10
594.000111
 20
87.999997
 30
0.0
 11
612.000103
 21
87.999997
 31
0.0
  0
LINE
  8
LY_1
  6
CONTINUOUS
 62
   251
  5
162
 10
594.000111
 20
87.999997
 30
0.0
 11
594.000111
 21
-88.000002
 31
0.0
  0
LINE
  8
LY_1
  6
CONTINUOUS
 62
   251
  5
163
 10
612.000103
 20
87.999997
 30
0.0
 11
612.000103
 21
-88.000002
 31
0.0
  0
LINE
  8
LY_1
  6
CONTINUOUS
 62
   251
  5
164
 10
492.000103
 20
104.225399
 30
0.0
 11
492.000103
 21
-115.00001
 31
0.0
  0
ENDSEC
  0
EOF
