  0
SECTION
  2
HEADER
  9
$ACADVER
  1
AC1009
  9
$DWGCODEPAGE
  3
dos932
  9
$INSBASE
 10
0.0
 20
0.0
 30
0.0
  9
$EXTMIN
 10
-90.079279
 20
-88.91378
 30
0.0
  9
$EXTMAX
 10
494.572395
 20
118.800378
 30
0.0
  9
$LIMMIN
 10
-90.079279
 20
-88.91378
  9
$LIMMAX
 10
494.572395
 20
118.800378
  9
$ORTHOMODE
 70
     0
  9
$REGENMODE
 70
     1
  9
$FILLMODE
 70
     1
  9
$QTEXTMODE
 70
     0
  9
$MIRRTEXT
 70
     1
  9
$DRAGMODE
 70
     2
  9
$LTSCALE
 40
1.0
  9
$OSMODE
 70
     0
  9
$ATTMODE
 70
     1
  9
$TEXTSIZE
 40
3.15
  9
$TRACEWID
 40
0.05
  9
$TEXTSTYLE
  7
MX_NOTE_STANDARD
  9
$CLAYER
  8
LY_1
  9
$CELTYPE
  6
CONTINUOUS
  9
$CECOLOR
 62
   256
  9
$DIMSCALE
 40
1.0
  9
$DIMASZ
 40
2.5
  9
$DIMEXO
 40
1.0
  9
$DIMDLI
 40
3.75
  9
$DIMRND
 40
0.0
  9
$DIMDLE
 40
0.0
  9
$DIMEXE
 40
1.5
  9
$DIMTP
 40
0.0
  9
$DIMTM
 40
0.0
  9
$DIMTXT
 40
3.15
  9
$DIMCEN
 40
2.5
  9
$DIMTSZ
 40
0.0
  9
$DIMTOL
 70
     0
  9
$DIMLIM
 70
     0
  9
$DIMTIH
 70
     0
  9
$DIMTOH
 70
     0
  9
$DIMSE1
 70
     0
  9
$DIMSE2
 70
     0
  9
$DIMTAD
 70
     1
  9
$DIMZIN
 70
     8
  9
$DIMBLK
  1

  9
$DIMASO
 70
     1
  9
$DIMSHO
 70
     1
  9
$DIMPOST
  1

  9
$DIMAPOST
  1

  9
$DIMALT
 70
     0
  9
$DIMALTD
 70
     4
  9
$DIMALTF
 40
0.03937
  9
$DIMLFAC
 40
1.0
  9
$DIMTOFL
 70
     1
  9
$DIMTVP
 40
0.0
  9
$DIMTIX
 70
     0
  9
$DIMSOXD
 70
     0
  9
$DIMSAH
 70
     0
  9
$DIMBLK1
  1

  9
$DIMBLK2
  1

  9
$DIMSTYLE
  2
MXDIMSTYLE
  9
$DIMCLRD
 70
     0
  9
$DIMCLRE
 70
     0
  9
$DIMCLRT
 70
     0
  9
$DIMTFAC
 40
1.0
  9
$DIMGAP
 40
1.0
  9
$LUNITS
 70
     2
  9
$LUPREC
 70
     4
  9
$AXISMODE
 70
     0
  9
$AXISUNIT
 10
0.0
 20
0.0
  9
$SKETCHINC
 40
0.1
  9
$FILLETRAD
 40
0.0
  9
$AUNITS
 70
     0
  9
$AUPREC
 70
     0
  9
$MENU
  1
acad
  9
$ELEVATION
 40
0.0
  9
$PELEVATION
 40
0.0
  9
$THICKNESS
 40
0.0
  9
$LIMCHECK
 70
     0
  9
$BLIPMODE
 70
     1
  9
$CHAMFERA
 40
0.0
  9
$CHAMFERB
 40
0.0
  9
$SKPOLY
 70
     0
  9
$TDCREATE
 40
2453665.670162037
  9
$TDUPDATE
 40
2453665.670162037
  9
$TDINDWG
 40
0.0000000000
  9
$TDUSRTIMER
 40
0.0000000000
  9
$USRTIMER
 70
     1
  9
$ANGBASE
 50
0.0
  9
$ANGDIR
 70
     0
  9
$PDMODE
 70
     0
  9
$PDSIZE
 40
0.0
  9
$PLINEWID
 40
0.0
  9
$COORDS
 70
     1
  9
$SPLFRAME
 70
     0
  9
$SPLINETYPE
 70
     6
  9
$SPLINESEGS
 70
     8
  9
$ATTDIA
 70
     0
  9
$ATTREQ
 70
     1
  9
$HANDLING
 70
     1
  9
$HANDSEED
  5
209
  9
$SURFTAB1
 70
     6
  9
$SURFTAB2
 70
     6
  9
$SURFTYPE
 70
     6
  9
$SURFU
 70
     6
  9
$SURFV
 70
     6
  9
$UCSNAME
  2

  9
$UCSORG
 10
0.0
 20
0.0
 30
0.0
  9
$UCSXDIR
 10
1.0
 20
0.0
 30
0.0
  9
$UCSYDIR
 10
0.0
 20
1.0
 30
0.0
  9
$PUCSNAME
  2

  9
$PUCSORG
 10
0.0
 20
0.0
 30
0.0
  9
$PUCSXDIR
 10
1.0
 20
0.0
 30
0.0
  9
$PUCSYDIR
 10
0.0
 20
1.0
 30
0.0
  9
$USERI1
 70
     0
  9
$USERI2
 70
     0
  9
$USERI3
 70
     0
  9
$USERI4
 70
     0
  9
$USERI5
 70
     0
  9
$USERR1
 40
0.0
  9
$USERR2
 40
0.0
  9
$USERR3
 40
0.0
  9
$USERR4
 40
0.0
  9
$USERR5
 40
0.0
  9
$WORLDVIEW
 70
     1
  9
$SHADEDGE
 70
     3
  9
$SHADEDIF
 70
    70
  9
$TILEMODE
 70
     1
  9
$MAXACTVP
 70
    16
  9
$PINSBASE
 10
0.0
 20
0.0
 30
0.0
  9
$PLIMCHECK
 70
     0
  9
$PEXTMIN
 10
1.000000E+20
 20
1.000000E+20
 30
1.000000E+20
  9
$PEXTMAX
 10
-1.000000E+20
 20
-1.000000E+20
 30
-1.000000E+20
  9
$PLIMMIN
 10
0.0
 20
0.0
  9
$PLIMMAX
 10
12.0
 20
9.0
  9
$UNITMODE
 70
     0
  9
$VISRETAIN
 70
     0
  9
$PLINEGEN
 70
     1
  9
$PSLTSCALE
 70
     0
  9
$TREEDEPTH
 70
  3020
  9
$DWGCODEPAGE
  3
dos932
  0
ENDSEC
  0
SECTION
  2
TABLES
  0
TABLE
  2
VPORT
 70
     1
  0
VPORT
  2
*ACTIVE
 70
     0
 10
0.0
 20
0.0
 11
1.0
 21
1.0
 12
202.246558
 22
14.943299
 13
0.0
 23
0.0
 14
1.0
 24
1.0
 15
0.0
 25
0.0
 16
0.0
 26
0.0
 36
1.0
 17
0.0
 27
0.0
 37
0.0
 40
209.7913
 41
1.732051
 42
50.0
 43
0.0
 44
0.0
 50
0.0
 51
0.0
 71
     0
 72
   100
 73
     1
 74
     1
 75
     0
 76
     0
 77
     0
 78
     0
  0
ENDTAB
  0
TABLE
  2
LTYPE
 70
     2
  0
LTYPE
  2
CONTINUOUS
 70
    64
  3
Solid line
 72
    65
 73
     0
 40
0.0
  0
LTYPE
  2
CENTER
 70
    64
  3
Center ____ _ ____ _ ____ _ ____ _ ____ _ ____
 72
    65
 73
     4
 40
50.8
 49
31.75
 49
-6.35
 49
6.35
 49
-6.35
  0
ENDTAB
  0
TABLE
  2
LAYER
 70
     3
  0
LAYER
  2
0
 70
     0
 62
     7
  6
CONTINUOUS
  0
LAYER
  2
LY_1
 70
     0
 62
     7
  6
CONTINUOUS
  0
LAYER
  2
DEFPOINTS
 70
     0
 62
     7
  6
CONTINUOUS
  0
ENDTAB
  0
TABLE
  2
STYLE
 70
     1
  0
STYLE
  2
MX_NOTE_STANDARD
 70
     0
 40
0.0
 41
1.0
 50
0.0
 71
     0
 42
3.15
  3
txt.shx
  4
extfont.shx
  0
ENDTAB
  0
TABLE
  2
VIEW
 70
     0
  0
ENDTAB
  0
TABLE
  2
UCS
 70
     0
  0
ENDTAB
  0
TABLE
  2
APPID
 70
     1
  0
APPID
  2
ACAD
 70
     0
  0
ENDTAB
  0
TABLE
  2
DIMSTYLE
 70
     1
  0
DIMSTYLE
  2
MXDIMSTYLE
 70
     0
  3

  4

  5

  6

  7

 40
1.0
 41
2.5
 42
1.0
 43
3.75
 44
1.5
 45
0.0
 46
0.0
 47
0.0
 48
0.0
 71
     0
 72
     0
 73
     0
 74
     0
 75
     0
 76
     0
 77
     1
 78
     8
140
3.15
141
2.5
142
0.0
143
0.03937
144
1.0
145
0.0
146
1.0
147
1.0
170
     0
171
     4
172
     1
173
     0
174
     0
175
     0
176
     0
177
     0
178
     0
  0
ENDTAB
  0
ENDSEC
  0
SECTION
  2
BLOCKS
  0
ENDSEC
  0
SECTION
  2
ENTITIES
  0
LINE
  8
LY_1
  6
CONTINUOUS
 62
   251
  5
1F
 10
-19.420701
 20
91.99998
 30
0.0
 11
-20.5
 21
91.99998
 31
0.0
  0
LINE
  8
LY_1
  6
CONTINUOUS
 62
   251
  5
20
 10
-18.750662
 20
88.2
 30
0.0
 11
-20.5
 21
88.2
 31
0.0
  0
LINE
  8
LY_1
  6
CONTINUOUS
 62
   251
  5
21
 10
-17.40002
 20
109.99998
 30
0.0
 11
-17.40002
 21
106.114001
 31
0.0
  0
LINE
  8
LY_1
  6
CONTINUOUS
 62
   251
  5
22
 10
-16.39996
 20
110.99997
 30
0.0
 11
-17.40002
 21
109.99995
 31
0.0
  0
LINE
  8
LY_1
  6
CONTINUOUS
 62
   251
  5
23
 10
16.40002
 20
110.99998
 30
0.0
 11
-16.40002
 21
110.99998
 31
0.0
  0
LINE
  8
LY_1
  6
CONTINUOUS
 62
   251
  5
24
 10
17.40002
 20
109.99997
 30
0.0
 11
16.40002
 21
110.99997
 31
0.0
  0
LINE
  8
LY_1
  6
CONTINUOUS
 62
   251
  5
25
 10
17.40002
 20
91.99998
 30
0.0
 11
17.40002
 21
109.99998
 31
0.0
  0
LINE
  8
LY_1
  6
CONTINUOUS
 62
   251
  5
26
 10
20.5
 20
91.99998
 30
0.0
 11
-13.023516
 21
91.99998
 31
0.0
  0
LINE
  8
LY_1
  6
CONTINUOUS
 62
   251
  5
27
 10
20.5
 20
88.2
 30
0.0
 11
-12.353477
 21
88.2
 31
0.0
  0
LINE
  8
LY_1
  6
CONTINUOUS
 62
   251
  5
28
 10
-20.5
 20
91.99998
 30
0.0
 11
-20.5
 21
83.504512
 31
0.0
  0
LINE
  8
LY_1
  6
CONTINUOUS
 62
   251
  5
29
 10
20.5
 20
77.328843
 30
0.0
 11
20.5
 21
91.99998
 31
0.0
  0
LINE
  8
LY_1
  6
CONTINUOUS
 62
   251
  5
2A
 10
433.400046
 20
92.00011
 30
0.0
 11
433.400046
 21
110.00011
 31
0.0
  0
LINE
  8
LY_1
  6
CONTINUOUS
 62
   251
  5
2B
 10
433.400076
 20
110.00014
 30
0.0
 11
432.400076
 21
111.00015
 31
0.0
  0
LINE
  8
LY_1
  6
CONTINUOUS
 62
   251
  5
2C
 10
432.400046
 20
111.00011
 30
0.0
 11
399.600056
 21
111.00011
 31
0.0
  0
LINE
  8
LY_1
  6
CONTINUOUS
 62
   251
  5
2D
 10
399.600086
 20
111.00011
 30
0.0
 11
398.600086
 21
110.00011
 31
0.0
  0
LINE
  8
LY_1
  6
CONTINUOUS
 62
   251
  5
2E
 10
398.600056
 20
110.00011
 30
0.0
 11
398.600056
 21
92.00011
 31
0.0
  0
LINE
  8
LY_1
  6
CONTINUOUS
 62
   251
  5
2F
 10
398.600056
 20
92.00011
 30
0.0
 11
398.600056
 21
95.00011
 31
0.0
  0
LINE
  8
LY_1
  6
CONTINUOUS
 62
   251
  5
30
 10
395.500016
 20
88.20012
 30
0.0
 11
395.500016
 21
92.00011
 31
0.0
  0
LINE
  8
LY_1
  6
CONTINUOUS
 62
   251
  5
31
 10
395.500016
 20
92.00011
 30
0.0
 11
436.500016
 21
92.00011
 31
0.0
  0
LINE
  8
LY_1
  6
CONTINUOUS
 62
   251
  5
32
 10
436.500016
 20
92.00011
 30
0.0
 11
436.500016
 21
88.20012
 31
0.0
  0
LINE
  8
LY_1
  6
CONTINUOUS
 62
   251
  5
33
 10
393.500136
 20
88.19919
 30
0.0
 11
438.500016
 21
88.19919
 31
0.0
  0
LINE
  8
LY_1
  6
CONTINUOUS
 62
   251
  5
34
 10
376.500016
 20
65.0
 30
0.0
 11
376.500016
 21
-65.0
 31
0.0
  0
LINE
  8
LY_1
  6
CONTINUOUS
 62
   251
  5
35
 10
479.800006
 20
62.19998
 30
0.0
 11
479.800006
 21
80.49998
 31
0.0
  0
LINE
  8
LY_1
  6
CONTINUOUS
 62
   251
  5
36
 10
479.800036
 20
80.5
 30
0.0
 11
478.800036
 21
81.5
 31
0.0
  0
LINE
  8
LY_1
  6
CONTINUOUS
 62
   251
  5
37
 10
478.800006
 20
81.49998
 30
0.0
 11
451.200026
 21
81.49998
 31
0.0
  0
LINE
  8
LY_1
  6
CONTINUOUS
 62
   251
  5
38
 10
451.200066
 20
81.5
 30
0.0
 11
450.200066
 21
80.5
 31
0.0
  0
LINE
  8
LY_1
  6
CONTINUOUS
 62
   251
  5
39
 10
450.200026
 20
80.49998
 30
0.0
 11
450.200026
 21
62.19998
 31
0.0
  0
LINE
  8
LY_1
  6
CENTER
 62
     7
  5
3B
 10
465.000016
 20
54.94079
 30
0.0
 11
465.000016
 21
88.24274
 31
0.0
  0
LINE
  8
LY_1
  6
CONTINUOUS
 62
   251
  5
3C
 10
438.500016
 20
65.02215
 30
0.0
 11
438.500016
 21
88.20012
 31
0.0
  0
LINE
  8
LY_1
  6
CONTINUOUS
 62
   251
  5
3D
 10
380.500016
 20
28.0
 30
0.0
 11
440.491836
 21
28.0
 31
0.0
  0
LINE
  8
LY_1
  6
CONTINUOUS
 62
   251
  5
3E
 10
380.500016
 20
25.0
 30
0.0
 11
440.491836
 21
25.0
 31
0.0
  0
LINE
  8
LY_1
  6
CONTINUOUS
 62
   251
  5
3F
 10
380.500016
 20
22.0
 30
0.0
 11
440.491836
 21
22.0
 31
0.0
  0
LINE
  8
LY_1
  6
CONTINUOUS
 62
   251
  5
40
 10
380.500016
 20
19.0
 30
0.0
 11
440.491836
 21
19.0
 31
0.0
  0
LINE
  8
LY_1
  6
CONTINUOUS
 62
   251
  5
41
 10
380.500016
 20
-19.0
 30
0.0
 11
440.491836
 21
-19.0
 31
0.0
  0
LINE
  8
LY_1
  6
CONTINUOUS
 62
   251
  5
42
 10
380.500016
 20
-22.0
 30
0.0
 11
440.491836
 21
-22.0
 31
0.0
  0
LINE
  8
LY_1
  6
CONTINUOUS
 62
   251
  5
43
 10
445.000016
 20
-65.0
 30
0.0
 11
445.000016
 21
65.0
 31
0.0
  0
LINE
  8
LY_1
  6
CONTINUOUS
 62
   251
  5
44
 10
445.950026
 20
62.19998
 30
0.0
 11
484.050036
 21
62.19998
 31
0.0
  0
LINE
  8
LY_1
  6
CONTINUOUS
 62
   251
  5
45
 10
484.050036
 20
62.19998
 30
0.0
 11
484.050036
 21
58.39999
 31
0.0
  0
LINE
  8
LY_1
  6
CONTINUOUS
 62
   251
  5
46
 10
484.500046
 20
58.39999
 30
0.0
 11
445.500016
 21
58.39999
 31
0.0
  0
LINE
  8
LY_1
  6
CONTINUOUS
 62
   251
  5
47
 10
484.500136
 20
34.34738
 30
0.0
 11
458.000016
 21
34.34738
 31
0.0
  0
LINE
  8
LY_1
  6
CONTINUOUS
 62
   251
  5
48
 10
458.000016
 20
42.5
 30
0.0
 11
376.500016
 21
42.5
 31
0.0
  0
LINE
  8
LY_1
  6
CONTINUOUS
 62
   251
  5
49
 10
458.000016
 20
27.50345
 30
0.0
 11
445.000016
 21
27.50345
 31
0.0
  0
LINE
  8
LY_1
  6
CONTINUOUS
 62
   251
  5
4A
 10
383.500016
 20
65.78406
 30
0.0
 11
383.500016
 21
64.93396
 31
0.0
  0
LINE
  8
LY_1
  6
CONTINUOUS
 62
   251
  5
4B
 10
484.500136
 20
-29.99307
 30
0.0
 11
484.500136
 21
58.39999
 31
0.0
  0
LINE
  8
LY_1
  6
CONTINUOUS
 62
   251
  5
4C
 10
457.999986
 20
-40.00003
 30
0.0
 11
482.355916
 21
-39.18433
 31
0.0
  0
LINE
  8
LY_1
  6
CONTINUOUS
 62
   251
  5
4D
 10
440.500016
 20
-65.0
 30
0.0
 11
440.500016
 21
65.0
 31
0.0
  0
LINE
  8
LY_1
  6
CONTINUOUS
 62
   251
  5
4E
 10
380.500016
 20
-25.0
 30
0.0
 11
440.491836
 21
-25.0
 31
0.0
  0
LINE
  8
LY_1
  6
CONTINUOUS
 62
   251
  5
4F
 10
380.500016
 20
-28.0
 30
0.0
 11
440.491836
 21
-28.0
 31
0.0
  0
LINE
  8
LY_1
  6
CONTINUOUS
 62
   251
  5
50
 10
445.000016
 20
-27.50369
 30
0.0
 11
458.000016
 21
-27.50369
 31
0.0
  0
LINE
  8
LY_1
  6
CONTINUOUS
 62
   251
  5
51
 10
458.000016
 20
-42.5
 30
0.0
 11
458.000016
 21
42.5
 31
0.0
  0
LINE
  8
LY_1
  6
CONTINUOUS
 62
   251
  5
52
 10
458.000016
 20
-42.5
 30
0.0
 11
376.500016
 21
-42.5
 31
0.0
  0
LINE
  8
LY_1
  6
CONTINUOUS
 62
   251
  5
53
 10
380.500016
 20
-65.0
 30
0.0
 11
380.500016
 21
65.0
 31
0.0
  0
LINE
  8
LY_1
  6
CONTINUOUS
 62
   251
  5
54
 10
445.500016
 20
42.5
 30
0.0
 11
445.500016
 21
58.39999
 31
0.0
  0
LINE
  8
LY_1
  6
CENTER
 62
     7
  5
55
 10
416.000016
 20
117.94021
 30
0.0
 11
416.000016
 21
81.06566
 31
0.0
  0
LINE
  8
LY_1
  6
CONTINUOUS
 62
   251
  5
56
 10
445.949996
 20
62.19998
 30
0.0
 11
445.949996
 21
58.39999
 31
0.0
  0
ARC
  8
LY_1
  6
CONTINUOUS
 62
   251
  5
57
 10
482.320876
 20
-38.18475
 30
0.0
 40
1.00016
 50
272.007395
 51
343.59498
  0
ARC
  8
LY_1
  6
CONTINUOUS
 62
   251
  5
58
 10
454.452076
 20
-29.99307
 30
0.0
 40
30.047937
 50
343.61918
 51
359.98682
  0
ARC
  8
LY_1
  6
CONTINUOUS
 62
   251
  5
59
 10
442.135946
 20
53.0629
 30
0.0
 40
60.0
 50
144.15427
 51
167.75929
  0
LINE
  8
LY_1
  6
CONTINUOUS
 62
   251
  5
5A
 10
376.500016
 20
-50.806
 30
0.0
 11
364.500016
 21
-50.806
 31
0.0
  0
LINE
  8
LY_1
  6
CONTINUOUS
 62
   251
  5
5B
 10
364.500016
 20
65.0
 30
0.0
 11
445.000016
 21
65.0
 31
0.0
  0
LINE
  8
LY_1
  6
CONTINUOUS
 62
   251
  5
5C
 10
445.000016
 20
-65.0
 30
0.0
 11
364.500016
 21
-65.0
 31
0.0
  0
LINE
  8
LY_1
  6
CONTINUOUS
 62
   251
  5
5D
 10
376.500016
 20
50.806
 30
0.0
 11
364.500016
 21
50.806
 31
0.0
  0
LINE
  8
LY_1
  6
CONTINUOUS
 62
   251
  5
5E
 10
275.090228
 20
76.257433
 30
0.0
 11
274.500009
 21
72.910137
 31
0.0
  0
LINE
  8
LY_1
  6
CONTINUOUS
 62
   251
  5
5F
 10
303.530012
 20
92.283687
 30
0.0
 11
310.530025
 21
92.283693
 31
0.0
  0
LINE
  8
LY_1
  6
CONTINUOUS
 62
   251
  5
60
 10
214.999999
 20
94.57817
 30
0.0
 11
215.000005
 21
87.329524
 31
0.0
  0
POLYLINE
  8
LY_1
  6
CONTINUOUS
 62
   251
  5
61
 66
     1
 10
0.0
 20
0.0
 30
0.0
  0
VERTEX
  8
LY_1
  6
CONTINUOUS
 62
   251
  5
11C
 10
224.500012
 20
80.33663
 30
0.0
  0
VERTEX
  8
LY_1
  6
CONTINUOUS
 62
   251
  5
11D
 10
224.418738
 20
80.760734
 30
0.0
  0
VERTEX
  8
LY_1
  6
CONTINUOUS
 62
   251
  5
11E
 10
224.176307
 20
81.177583
 30
0.0
  0
VERTEX
  8
LY_1
  6
CONTINUOUS
 62
   251
  5
11F
 10
223.776867
 20
81.580042
 30
0.0
  0
VERTEX
  8
LY_1
  6
CONTINUOUS
 62
   251
  5
120
 10
223.227252
 20
81.961226
 30
0.0
  0
VERTEX
  8
LY_1
  6
CONTINUOUS
 62
   251
  5
121
 10
222.536866
 20
82.314613
 30
0.0
  0
VERTEX
  8
LY_1
  6
CONTINUOUS
 62
   251
  5
122
 10
221.717523
 20
82.634156
 30
0.0
  0
VERTEX
  8
LY_1
  6
CONTINUOUS
 62
   251
  5
123
 10
220.783241
 20
82.914388
 30
0.0
  0
VERTEX
  8
LY_1
  6
CONTINUOUS
 62
   251
  5
124
 10
219.750006
 20
83.150513
 30
0.0
  0
VERTEX
  8
LY_1
  6
CONTINUOUS
 62
   251
  5
125
 10
218.635498
 20
83.338492
 30
0.0
  0
VERTEX
  8
LY_1
  6
CONTINUOUS
 62
   251
  5
126
 10
217.458785
 20
83.475108
 30
0.0
  0
VERTEX
  8
LY_1
  6
CONTINUOUS
 62
   251
  5
127
 10
216.240001
 20
83.558024
 30
0.0
  0
VERTEX
  8
LY_1
  6
CONTINUOUS
 62
   251
  5
128
 10
215.000002
 20
83.585821
 30
0.0
  0
VERTEX
  8
LY_1
  6
CONTINUOUS
 62
   251
  5
129
 10
213.760002
 20
83.558023
 30
0.0
  0
VERTEX
  8
LY_1
  6
CONTINUOUS
 62
   251
  5
12A
 10
212.541219
 20
83.475107
 30
0.0
  0
VERTEX
  8
LY_1
  6
CONTINUOUS
 62
   251
  5
12B
 10
211.364507
 20
83.33849
 30
0.0
  0
VERTEX
  8
LY_1
  6
CONTINUOUS
 62
   251
  5
12C
 10
210.25
 20
83.15051
 30
0.0
  0
VERTEX
  8
LY_1
  6
CONTINUOUS
 62
   251
  5
12D
 10
209.216766
 20
82.914384
 30
0.0
  0
VERTEX
  8
LY_1
  6
CONTINUOUS
 62
   251
  5
12E
 10
208.282486
 20
82.634151
 30
0.0
  0
VERTEX
  8
LY_1
  6
CONTINUOUS
 62
   251
  5
12F
 10
207.463144
 20
82.314608
 30
0.0
  0
VERTEX
  8
LY_1
  6
CONTINUOUS
 62
   251
  5
130
 10
206.772761
 20
81.961221
 30
0.0
  0
VERTEX
  8
LY_1
  6
CONTINUOUS
 62
   251
  5
131
 10
206.223148
 20
81.580036
 30
0.0
  0
VERTEX
  8
LY_1
  6
CONTINUOUS
 62
   251
  5
132
 10
205.82371
 20
81.177577
 30
0.0
  0
VERTEX
  8
LY_1
  6
CONTINUOUS
 62
   251
  5
133
 10
205.581281
 20
80.760728
 30
0.0
  0
VERTEX
  8
LY_1
  6
CONTINUOUS
 62
   251
  5
134
 10
205.50001
 20
80.336623
 30
0.0
  0
SEQEND
  8
LY_1
  6
CONTINUOUS
 62
   251
  5
135
  0
POLYLINE
  8
LY_1
  6
CONTINUOUS
 62
   251
  5
62
 66
     1
 10
0.0
 20
0.0
 30
0.0
  0
VERTEX
  8
LY_1
  6
CONTINUOUS
 62
   251
  5
136
 10
221.973613
 20
59.050779
 30
0.0
  0
VERTEX
  8
LY_1
  6
CONTINUOUS
 62
   251
  5
137
 10
221.018491
 20
59.358288
 30
0.0
  0
VERTEX
  8
LY_1
  6
CONTINUOUS
 62
   251
  5
138
 10
219.948625
 20
59.617869
 30
0.0
  0
VERTEX
  8
LY_1
  6
CONTINUOUS
 62
   251
  5
139
 10
218.784413
 20
59.824571
 30
0.0
  0
VERTEX
  8
LY_1
  6
CONTINUOUS
 62
   251
  5
13A
 10
217.548051
 20
59.974454
 30
0.0
  0
VERTEX
  8
LY_1
  6
CONTINUOUS
 62
   251
  5
13B
 10
216.263109
 20
60.06466
 30
0.0
  0
VERTEX
  8
LY_1
  6
CONTINUOUS
 62
   251
  5
13C
 10
214.954086
 20
60.09347
 30
0.0
  0
VERTEX
  8
LY_1
  6
CONTINUOUS
 62
   251
  5
13D
 10
213.645939
 20
60.060334
 30
0.0
  0
VERTEX
  8
LY_1
  6
CONTINUOUS
 62
   251
  5
13E
 10
212.363607
 20
59.965883
 30
0.0
  0
VERTEX
  8
LY_1
  6
CONTINUOUS
 62
   251
  5
13F
 10
211.131538
 20
59.81192
 30
0.0
  0
VERTEX
  8
LY_1
  6
CONTINUOUS
 62
   251
  5
140
 10
209.973223
 20
59.601378
 30
0.0
  0
VERTEX
  8
LY_1
  6
CONTINUOUS
 62
   251
  5
141
 10
208.910744
 20
59.338272
 30
0.0
  0
VERTEX
  8
LY_1
  6
CONTINUOUS
 62
   251
  5
142
 10
207.964359
 20
59.027619
 30
0.0
  0
VERTEX
  8
LY_1
  6
CONTINUOUS
 62
   251
  5
143
 10
207.152109
 20
58.67534
 30
0.0
  0
VERTEX
  8
LY_1
  6
CONTINUOUS
 62
   251
  5
144
 10
206.489482
 20
58.288153
 30
0.0
  0
VERTEX
  8
LY_1
  6
CONTINUOUS
 62
   251
  5
145
 10
205.989109
 20
57.873438
 30
0.0
  0
VERTEX
  8
LY_1
  6
CONTINUOUS
 62
   251
  5
146
 10
205.660531
 20
57.439103
 30
0.0
  0
VERTEX
  8
LY_1
  6
CONTINUOUS
 62
   251
  5
147
 10
205.510012
 20
56.993428
 30
0.0
  0
VERTEX
  8
LY_1
  6
CONTINUOUS
 62
   251
  5
148
 10
205.540422
 20
56.544911
 30
0.0
  0
VERTEX
  8
LY_1
  6
CONTINUOUS
 62
   251
  5
149
 10
205.751182
 20
56.102101
 30
0.0
  0
VERTEX
  8
LY_1
  6
CONTINUOUS
 62
   251
  5
14A
 10
206.138271
 20
55.673443
 30
0.0
  0
SEQEND
  8
LY_1
  6
CONTINUOUS
 62
   251
  5
14B
  0
POLYLINE
  8
LY_1
  6
CONTINUOUS
 62
   251
  5
63
 66
     1
 10
0.0
 20
0.0
 30
0.0
  0
VERTEX
  8
LY_1
  6
CONTINUOUS
 62
   251
  5
14C
 10
221.518191
 20
57.618458
 30
0.0
  0
VERTEX
  8
LY_1
  6
CONTINUOUS
 62
   251
  5
14D
 10
221.137409
 20
57.922748
 30
0.0
  0
VERTEX
  8
LY_1
  6
CONTINUOUS
 62
   251
  5
14E
 10
220.635898
 20
58.205825
 30
0.0
  0
VERTEX
  8
LY_1
  6
CONTINUOUS
 62
   251
  5
14F
 10
220.023523
 20
58.462119
 30
0.0
  0
VERTEX
  8
LY_1
  6
CONTINUOUS
 62
   251
  5
150
 10
219.312331
 20
58.68659
 30
0.0
  0
VERTEX
  8
LY_1
  6
CONTINUOUS
 62
   251
  5
151
 10
218.516311
 20
58.874821
 30
0.0
  0
VERTEX
  8
LY_1
  6
CONTINUOUS
 62
   251
  5
152
 10
217.651121
 20
59.02311
 30
0.0
  0
VERTEX
  8
LY_1
  6
CONTINUOUS
 62
   251
  5
153
 10
216.733782
 20
59.12854
 30
0.0
  0
VERTEX
  8
LY_1
  6
CONTINUOUS
 62
   251
  5
154
 10
215.782337
 20
59.189038
 30
0.0
  0
VERTEX
  8
LY_1
  6
CONTINUOUS
 62
   251
  5
155
 10
214.815503
 20
59.203412
 30
0.0
  0
VERTEX
  8
LY_1
  6
CONTINUOUS
 62
   251
  5
156
 10
213.852299
 20
59.17138
 30
0.0
  0
VERTEX
  8
LY_1
  6
CONTINUOUS
 62
   251
  5
157
 10
212.911671
 20
59.093573
 30
0.0
  0
VERTEX
  8
LY_1
  6
CONTINUOUS
 62
   251
  5
158
 10
212.012122
 20
58.971521
 30
0.0
  0
VERTEX
  8
LY_1
  6
CONTINUOUS
 62
   251
  5
159
 10
211.171349
 20
58.807624
 30
0.0
  0
VERTEX
  8
LY_1
  6
CONTINUOUS
 62
   251
  5
15A
 10
210.405888
 20
58.605108
 30
0.0
  0
VERTEX
  8
LY_1
  6
CONTINUOUS
 62
   251
  5
15B
 10
209.730799
 20
58.367954
 30
0.0
  0
VERTEX
  8
LY_1
  6
CONTINUOUS
 62
   251
  5
15C
 10
209.15936
 20
58.10083
 30
0.0
  0
VERTEX
  8
LY_1
  6
CONTINUOUS
 62
   251
  5
15D
 10
208.702812
 20
57.808988
 30
0.0
  0
VERTEX
  8
LY_1
  6
CONTINUOUS
 62
   251
  5
15E
 10
208.370136
 20
57.49817
 30
0.0
  0
VERTEX
  8
LY_1
  6
CONTINUOUS
 62
   251
  5
15F
 10
208.167877
 20
57.174491
 30
0.0
  0
VERTEX
  8
LY_1
  6
CONTINUOUS
 62
   251
  5
160
 10
208.100012
 20
56.844316
 30
0.0
  0
VERTEX
  8
LY_1
  6
CONTINUOUS
 62
   251
  5
161
 10
208.100012
 20
56.844316
 30
0.0
  0
SEQEND
  8
LY_1
  6
CONTINUOUS
 62
   251
  5
162
  0
POLYLINE
  8
LY_1
  6
CONTINUOUS
 62
   251
  5
64
 66
     1
 10
0.0
 20
0.0
 30
0.0
  0
VERTEX
  8
LY_1
  6
CONTINUOUS
 62
   251
  5
163
 10
221.750003
 20
85.025698
 30
0.0
  0
VERTEX
  8
LY_1
  6
CONTINUOUS
 62
   251
  5
164
 10
221.692256
 20
85.326408
 30
0.0
  0
VERTEX
  8
LY_1
  6
CONTINUOUS
 62
   251
  5
165
 10
221.520003
 20
85.621972
 30
0.0
  0
VERTEX
  8
LY_1
  6
CONTINUOUS
 62
   251
  5
166
 10
221.23619
 20
85.907334
 30
0.0
  0
VERTEX
  8
LY_1
  6
CONTINUOUS
 62
   251
  5
167
 10
220.845675
 20
86.177611
 30
0.0
  0
VERTEX
  8
LY_1
  6
CONTINUOUS
 62
   251
  5
168
 10
220.355139
 20
86.428179
 30
0.0
  0
VERTEX
  8
LY_1
  6
CONTINUOUS
 62
   251
  5
169
 10
219.772974
 20
86.654749
 30
0.0
  0
VERTEX
  8
LY_1
  6
CONTINUOUS
 62
   251
  5
16A
 10
219.109143
 20
86.853446
 30
0.0
  0
VERTEX
  8
LY_1
  6
CONTINUOUS
 62
   251
  5
16B
 10
218.375004
 20
87.02087
 30
0.0
  0
VERTEX
  8
LY_1
  6
CONTINUOUS
 62
   251
  5
16C
 10
217.583117
 20
87.154156
 30
0.0
  0
VERTEX
  8
LY_1
  6
CONTINUOUS
 62
   251
  5
16D
 10
216.747033
 20
87.251023
 30
0.0
  0
VERTEX
  8
LY_1
  6
CONTINUOUS
 62
   251
  5
16E
 10
215.881056
 20
87.309815
 30
0.0
  0
VERTEX
  8
LY_1
  6
CONTINUOUS
 62
   251
  5
16F
 10
215.000005
 20
87.329524
 30
0.0
  0
VERTEX
  8
LY_1
  6
CONTINUOUS
 62
   251
  5
170
 10
214.118953
 20
87.309815
 30
0.0
  0
VERTEX
  8
LY_1
  6
CONTINUOUS
 62
   251
  5
171
 10
213.252976
 20
87.251023
 30
0.0
  0
VERTEX
  8
LY_1
  6
CONTINUOUS
 62
   251
  5
172
 10
212.416892
 20
87.154156
 30
0.0
  0
VERTEX
  8
LY_1
  6
CONTINUOUS
 62
   251
  5
173
 10
211.625005
 20
87.02087
 30
0.0
  0
VERTEX
  8
LY_1
  6
CONTINUOUS
 62
   251
  5
174
 10
210.890866
 20
86.853446
 30
0.0
  0
VERTEX
  8
LY_1
  6
CONTINUOUS
 62
   251
  5
175
 10
210.227035
 20
86.654749
 30
0.0
  0
VERTEX
  8
LY_1
  6
CONTINUOUS
 62
   251
  5
176
 10
209.644871
 20
86.428179
 30
0.0
  0
VERTEX
  8
LY_1
  6
CONTINUOUS
 62
   251
  5
177
 10
209.154334
 20
86.177611
 30
0.0
  0
VERTEX
  8
LY_1
  6
CONTINUOUS
 62
   251
  5
178
 10
208.763819
 20
85.907334
 30
0.0
  0
VERTEX
  8
LY_1
  6
CONTINUOUS
 62
   251
  5
179
 10
208.480006
 20
85.621972
 30
0.0
  0
VERTEX
  8
LY_1
  6
CONTINUOUS
 62
   251
  5
17A
 10
208.307753
 20
85.326408
 30
0.0
  0
VERTEX
  8
LY_1
  6
CONTINUOUS
 62
   251
  5
17B
 10
208.250006
 20
85.025698
 30
0.0
  0
SEQEND
  8
LY_1
  6
CONTINUOUS
 62
   251
  5
17C
  0
POLYLINE
  8
LY_1
  6
CONTINUOUS
 62
     7
  5
65
 66
     1
 10
0.0
 20
0.0
 30
0.0
  0
VERTEX
  8
LY_1
  6
CONTINUOUS
 62
     7
  5
17D
 10
176.000363
 20
41.585253
 30
0.0
  0
VERTEX
  8
LY_1
  6
CONTINUOUS
 62
     7
  5
17E
 10
176.432639
 20
41.380078
 30
0.0
  0
VERTEX
  8
LY_1
  6
CONTINUOUS
 62
     7
  5
17F
 10
176.86025
 20
41.163713
 30
0.0
  0
VERTEX
  8
LY_1
  6
CONTINUOUS
 62
     7
  5
180
 10
177.282062
 20
40.936194
 30
0.0
  0
VERTEX
  8
LY_1
  6
CONTINUOUS
 62
     7
  5
181
 10
177.696939
 20
40.697556
 30
0.0
  0
VERTEX
  8
LY_1
  6
CONTINUOUS
 62
     7
  5
182
 10
178.103746
 20
40.447833
 30
0.0
  0
VERTEX
  8
LY_1
  6
CONTINUOUS
 62
     7
  5
183
 10
178.501349
 20
40.18706
 30
0.0
  0
VERTEX
  8
LY_1
  6
CONTINUOUS
 62
     7
  5
184
 10
178.888614
 20
39.915271
 30
0.0
  0
VERTEX
  8
LY_1
  6
CONTINUOUS
 62
     7
  5
185
 10
179.264404
 20
39.632502
 30
0.0
  0
VERTEX
  8
LY_1
  6
CONTINUOUS
 62
     7
  5
186
 10
179.627585
 20
39.338786
 30
0.0
  0
VERTEX
  8
LY_1
  6
CONTINUOUS
 62
     7
  5
187
 10
179.977022
 20
39.03416
 30
0.0
  0
VERTEX
  8
LY_1
  6
CONTINUOUS
 62
     7
  5
188
 10
180.311581
 20
38.718657
 30
0.0
  0
VERTEX
  8
LY_1
  6
CONTINUOUS
 62
     7
  5
189
 10
180.630127
 20
38.392312
 30
0.0
  0
VERTEX
  8
LY_1
  6
CONTINUOUS
 62
     7
  5
18A
 10
180.931524
 20
38.055161
 30
0.0
  0
VERTEX
  8
LY_1
  6
CONTINUOUS
 62
     7
  5
18B
 10
181.214637
 20
37.707237
 30
0.0
  0
VERTEX
  8
LY_1
  6
CONTINUOUS
 62
     7
  5
18C
 10
181.478333
 20
37.348575
 30
0.0
  0
VERTEX
  8
LY_1
  6
CONTINUOUS
 62
     7
  5
18D
 10
181.721476
 20
36.979211
 30
0.0
  0
VERTEX
  8
LY_1
  6
CONTINUOUS
 62
     7
  5
18E
 10
182.059806
 20
36.379107
 30
0.0
  0
VERTEX
  8
LY_1
  6
CONTINUOUS
 62
     7
  5
18F
 10
182.348209
 20
35.754776
 30
0.0
  0
VERTEX
  8
LY_1
  6
CONTINUOUS
 62
     7
  5
190
 10
182.590043
 20
35.108202
 30
0.0
  0
VERTEX
  8
LY_1
  6
CONTINUOUS
 62
     7
  5
191
 10
182.788667
 20
34.44137
 30
0.0
  0
VERTEX
  8
LY_1
  6
CONTINUOUS
 62
     7
  5
192
 10
182.947437
 20
33.756264
 30
0.0
  0
VERTEX
  8
LY_1
  6
CONTINUOUS
 62
     7
  5
193
 10
183.069714
 20
33.054867
 30
0.0
  0
VERTEX
  8
LY_1
  6
CONTINUOUS
 62
     7
  5
194
 10
183.158854
 20
32.339164
 30
0.0
  0
VERTEX
  8
LY_1
  6
CONTINUOUS
 62
     7
  5
195
 10
183.218216
 20
31.611138
 30
0.0
  0
VERTEX
  8
LY_1
  6
CONTINUOUS
 62
     7
  5
196
 10
183.251158
 20
30.872773
 30
0.0
  0
VERTEX
  8
LY_1
  6
CONTINUOUS
 62
     7
  5
197
 10
183.261038
 20
30.126054
 30
0.0
  0
VERTEX
  8
LY_1
  6
CONTINUOUS
 62
     7
  5
198
 10
183.251214
 20
29.372963
 30
0.0
  0
VERTEX
  8
LY_1
  6
CONTINUOUS
 62
     7
  5
199
 10
183.225046
 20
28.615486
 30
0.0
  0
VERTEX
  8
LY_1
  6
CONTINUOUS
 62
     7
  5
19A
 10
183.18589
 20
27.855605
 30
0.0
  0
VERTEX
  8
LY_1
  6
CONTINUOUS
 62
     7
  5
19B
 10
183.137105
 20
27.095306
 30
0.0
  0
VERTEX
  8
LY_1
  6
CONTINUOUS
 62
     7
  5
19C
 10
183.082049
 20
26.336571
 30
0.0
  0
VERTEX
  8
LY_1
  6
CONTINUOUS
 62
     7
  5
19D
 10
183.02408
 20
25.581385
 30
0.0
  0
VERTEX
  8
LY_1
  6
CONTINUOUS
 62
     7
  5
19E
 10
182.948201
 20
24.600998
 30
0.0
  0
VERTEX
  8
LY_1
  6
CONTINUOUS
 62
     7
  5
19F
 10
182.873298
 20
23.629451
 30
0.0
  0
VERTEX
  8
LY_1
  6
CONTINUOUS
 62
     7
  5
1A0
 10
182.799587
 20
22.666111
 30
0.0
  0
VERTEX
  8
LY_1
  6
CONTINUOUS
 62
     7
  5
1A1
 10
182.72728
 20
21.710346
 30
0.0
  0
VERTEX
  8
LY_1
  6
CONTINUOUS
 62
     7
  5
1A2
 10
182.656592
 20
20.761521
 30
0.0
  0
VERTEX
  8
LY_1
  6
CONTINUOUS
 62
     7
  5
1A3
 10
182.587737
 20
19.819003
 30
0.0
  0
VERTEX
  8
LY_1
  6
CONTINUOUS
 62
     7
  5
1A4
 10
182.52093
 20
18.88216
 30
0.0
  0
VERTEX
  8
LY_1
  6
CONTINUOUS
 62
     7
  5
1A5
 10
182.456384
 20
17.950356
 30
0.0
  0
VERTEX
  8
LY_1
  6
CONTINUOUS
 62
     7
  5
1A6
 10
182.394314
 20
17.02296
 30
0.0
  0
VERTEX
  8
LY_1
  6
CONTINUOUS
 62
     7
  5
1A7
 10
182.334933
 20
16.099337
 30
0.0
  0
VERTEX
  8
LY_1
  6
CONTINUOUS
 62
     7
  5
1A8
 10
182.278456
 20
15.178855
 30
0.0
  0
VERTEX
  8
LY_1
  6
CONTINUOUS
 62
     7
  5
1A9
 10
182.225098
 20
14.260879
 30
0.0
  0
VERTEX
  8
LY_1
  6
CONTINUOUS
 62
     7
  5
1AA
 10
182.175071
 20
13.344776
 30
0.0
  0
VERTEX
  8
LY_1
  6
CONTINUOUS
 62
     7
  5
1AB
 10
182.12859
 20
12.429913
 30
0.0
  0
VERTEX
  8
LY_1
  6
CONTINUOUS
 62
     7
  5
1AC
 10
182.08587
 20
11.515657
 30
0.0
  0
VERTEX
  8
LY_1
  6
CONTINUOUS
 62
     7
  5
1AD
 10
182.047124
 20
10.601374
 30
0.0
  0
VERTEX
  8
LY_1
  6
CONTINUOUS
 62
     7
  5
1AE
 10
182.021202
 20
9.926602
 30
0.0
  0
VERTEX
  8
LY_1
  6
CONTINUOUS
 62
     7
  5
1AF
 10
181.997563
 20
9.251403
 30
0.0
  0
VERTEX
  8
LY_1
  6
CONTINUOUS
 62
     7
  5
1B0
 10
181.976213
 20
8.575707
 30
0.0
  0
VERTEX
  8
LY_1
  6
CONTINUOUS
 62
     7
  5
1B1
 10
181.957156
 20
7.899446
 30
0.0
  0
VERTEX
  8
LY_1
  6
CONTINUOUS
 62
     7
  5
1B2
 10
181.940395
 20
7.222553
 30
0.0
  0
VERTEX
  8
LY_1
  6
CONTINUOUS
 62
     7
  5
1B3
 10
181.925937
 20
6.544957
 30
0.0
  0
VERTEX
  8
LY_1
  6
CONTINUOUS
 62
     7
  5
1B4
 10
181.913784
 20
5.866592
 30
0.0
  0
VERTEX
  8
LY_1
  6
CONTINUOUS
 62
     7
  5
1B5
 10
181.903943
 20
5.187388
 30
0.0
  0
VERTEX
  8
LY_1
  6
CONTINUOUS
 62
     7
  5
1B6
 10
181.896416
 20
4.507278
 30
0.0
  0
VERTEX
  8
LY_1
  6
CONTINUOUS
 62
     7
  5
1B7
 10
181.89121
 20
3.826192
 30
0.0
  0
VERTEX
  8
LY_1
  6
CONTINUOUS
 62
     7
  5
1B8
 10
181.888328
 20
3.144062
 30
0.0
  0
VERTEX
  8
LY_1
  6
CONTINUOUS
 62
     7
  5
1B9
 10
181.887775
 20
2.46082
 30
0.0
  0
VERTEX
  8
LY_1
  6
CONTINUOUS
 62
     7
  5
1BA
 10
181.889555
 20
1.776397
 30
0.0
  0
VERTEX
  8
LY_1
  6
CONTINUOUS
 62
     7
  5
1BB
 10
181.893674
 20
1.090725
 30
0.0
  0
VERTEX
  8
LY_1
  6
CONTINUOUS
 62
     7
  5
1BC
 10
181.900134
 20
0.403735
 30
0.0
  0
VERTEX
  8
LY_1
  6
CONTINUOUS
 62
     7
  5
1BD
 10
181.908942
 20
-0.28464
 30
0.0
  0
VERTEX
  8
LY_1
  6
CONTINUOUS
 62
     7
  5
1BE
 10
181.920102
 20
-0.97447
 30
0.0
  0
VERTEX
  8
LY_1
  6
CONTINUOUS
 62
     7
  5
1BF
 10
181.933618
 20
-1.665823
 30
0.0
  0
VERTEX
  8
LY_1
  6
CONTINUOUS
 62
     7
  5
1C0
 10
181.949494
 20
-2.358768
 30
0.0
  0
VERTEX
  8
LY_1
  6
CONTINUOUS
 62
     7
  5
1C1
 10
181.967736
 20
-3.053372
 30
0.0
  0
VERTEX
  8
LY_1
  6
CONTINUOUS
 62
     7
  5
1C2
 10
181.988347
 20
-3.749704
 30
0.0
  0
VERTEX
  8
LY_1
  6
CONTINUOUS
 62
     7
  5
1C3
 10
182.011333
 20
-4.447833
 30
0.0
  0
VERTEX
  8
LY_1
  6
CONTINUOUS
 62
     7
  5
1C4
 10
182.036697
 20
-5.147828
 30
0.0
  0
VERTEX
  8
LY_1
  6
CONTINUOUS
 62
     7
  5
1C5
 10
182.064445
 20
-5.849755
 30
0.0
  0
VERTEX
  8
LY_1
  6
CONTINUOUS
 62
     7
  5
1C6
 10
182.094581
 20
-6.553685
 30
0.0
  0
VERTEX
  8
LY_1
  6
CONTINUOUS
 62
     7
  5
1C7
 10
182.127109
 20
-7.259686
 30
0.0
  0
VERTEX
  8
LY_1
  6
CONTINUOUS
 62
     7
  5
1C8
 10
182.162034
 20
-7.967825
 30
0.0
  0
VERTEX
  8
LY_1
  6
CONTINUOUS
 62
     7
  5
1C9
 10
182.19936
 20
-8.678171
 30
0.0
  0
VERTEX
  8
LY_1
  6
CONTINUOUS
 62
     7
  5
1CA
 10
182.239093
 20
-9.390794
 30
0.0
  0
VERTEX
  8
LY_1
  6
CONTINUOUS
 62
     7
  5
1CB
 10
182.281236
 20
-10.105761
 30
0.0
  0
VERTEX
  8
LY_1
  6
CONTINUOUS
 62
     7
  5
1CC
 10
182.325794
 20
-10.82314
 30
0.0
  0
VERTEX
  8
LY_1
  6
CONTINUOUS
 62
     7
  5
1CD
 10
182.372772
 20
-11.543001
 30
0.0
  0
VERTEX
  8
LY_1
  6
CONTINUOUS
 62
     7
  5
1CE
 10
182.423335
 20
-12.289125
 30
0.0
  0
VERTEX
  8
LY_1
  6
CONTINUOUS
 62
     7
  5
1CF
 10
182.473402
 20
-13.036697
 30
0.0
  0
VERTEX
  8
LY_1
  6
CONTINUOUS
 62
     7
  5
1D0
 10
182.51989
 20
-13.784441
 30
0.0
  0
VERTEX
  8
LY_1
  6
CONTINUOUS
 62
     7
  5
1D1
 10
182.559717
 20
-14.531083
 30
0.0
  0
VERTEX
  8
LY_1
  6
CONTINUOUS
 62
     7
  5
1D2
 10
182.589799
 20
-15.275349
 30
0.0
  0
VERTEX
  8
LY_1
  6
CONTINUOUS
 62
     7
  5
1D3
 10
182.607053
 20
-16.015962
 30
0.0
  0
VERTEX
  8
LY_1
  6
CONTINUOUS
 62
     7
  5
1D4
 10
182.608397
 20
-16.75165
 30
0.0
  0
VERTEX
  8
LY_1
  6
CONTINUOUS
 62
     7
  5
1D5
 10
182.590747
 20
-17.481138
 30
0.0
  0
VERTEX
  8
LY_1
  6
CONTINUOUS
 62
     7
  5
1D6
 10
182.55102
 20
-18.20315
 30
0.0
  0
VERTEX
  8
LY_1
  6
CONTINUOUS
 62
     7
  5
1D7
 10
182.486134
 20
-18.916412
 30
0.0
  0
VERTEX
  8
LY_1
  6
CONTINUOUS
 62
     7
  5
1D8
 10
182.393005
 20
-19.61965
 30
0.0
  0
VERTEX
  8
LY_1
  6
CONTINUOUS
 62
     7
  5
1D9
 10
182.26855
 20
-20.311589
 30
0.0
  0
VERTEX
  8
LY_1
  6
CONTINUOUS
 62
     7
  5
1DA
 10
182.109687
 20
-20.990955
 30
0.0
  0
VERTEX
  8
LY_1
  6
CONTINUOUS
 62
     7
  5
1DB
 10
181.913332
 20
-21.656472
 30
0.0
  0
VERTEX
  8
LY_1
  6
CONTINUOUS
 62
     7
  5
1DC
 10
181.676402
 20
-22.306867
 30
0.0
  0
VERTEX
  8
LY_1
  6
CONTINUOUS
 62
     7
  5
1DD
 10
181.395815
 20
-22.940865
 30
0.0
  0
VERTEX
  8
LY_1
  6
CONTINUOUS
 62
     7
  5
1DE
 10
181.178716
 20
-23.36222
 30
0.0
  0
VERTEX
  8
LY_1
  6
CONTINUOUS
 62
     7
  5
1DF
 10
180.940977
 20
-23.77524
 30
0.0
  0
VERTEX
  8
LY_1
  6
CONTINUOUS
 62
     7
  5
1E0
 10
180.683594
 20
-24.179767
 30
0.0
  0
VERTEX
  8
LY_1
  6
CONTINUOUS
 62
     7
  5
1E1
 10
180.407561
 20
-24.575645
 30
0.0
  0
VERTEX
  8
LY_1
  6
CONTINUOUS
 62
     7
  5
1E2
 10
180.113873
 20
-24.962719
 30
0.0
  0
VERTEX
  8
LY_1
  6
CONTINUOUS
 62
     7
  5
1E3
 10
179.803527
 20
-25.340831
 30
0.0
  0
VERTEX
  8
LY_1
  6
CONTINUOUS
 62
     7
  5
1E4
 10
179.477517
 20
-25.709827
 30
0.0
  0
VERTEX
  8
LY_1
  6
CONTINUOUS
 62
     7
  5
1E5
 10
179.136839
 20
-26.06955
 30
0.0
  0
VERTEX
  8
LY_1
  6
CONTINUOUS
 62
     7
  5
1E6
 10
178.782487
 20
-26.419843
 30
0.0
  0
VERTEX
  8
LY_1
  6
CONTINUOUS
 62
     7
  5
1E7
 10
178.415458
 20
-26.760551
 30
0.0
  0
VERTEX
  8
LY_1
  6
CONTINUOUS
 62
     7
  5
1E8
 10
178.036745
 20
-27.091518
 30
0.0
  0
VERTEX
  8
LY_1
  6
CONTINUOUS
 62
     7
  5
1E9
 10
177.647345
 20
-27.412586
 30
0.0
  0
VERTEX
  8
LY_1
  6
CONTINUOUS
 62
     7
  5
1EA
 10
177.248252
 20
-27.723601
 30
0.0
  0
VERTEX
  8
LY_1
  6
CONTINUOUS
 62
     7
  5
1EB
 10
176.840463
 20
-28.024406
 30
0.0
  0
VERTEX
  8
LY_1
  6
CONTINUOUS
 62
     7
  5
1EC
 10
176.424971
 20
-28.314844
 30
0.0
  0
VERTEX
  8
LY_1
  6
CONTINUOUS
 62
     7
  5
1ED
 10
176.002773
 20
-28.594761
 30
0.0
  0
SEQEND
  8
LY_1
  6
CONTINUOUS
 62
     7
  5
1EE
  0
POLYLINE
  8
LY_1
  6
CONTINUOUS
 62
   251
  5
66
 66
     1
 10
0.0
 20
0.0
 30
0.0
  0
VERTEX
  8
LY_1
  6
CONTINUOUS
 62
   251
  5
1EF
 10
237.000012
 20
67.991968
 30
0.0
  0
VERTEX
  8
LY_1
  6
CONTINUOUS
 62
   251
  5
1F0
 10
234.865288
 20
67.891388
 30
0.0
  0
VERTEX
  8
LY_1
  6
CONTINUOUS
 62
   251
  5
1F1
 10
232.77402
 20
67.591697
 30
0.0
  0
VERTEX
  8
LY_1
  6
CONTINUOUS
 62
   251
  5
1F2
 10
230.768782
 20
67.098996
 30
0.0
  0
VERTEX
  8
LY_1
  6
CONTINUOUS
 62
   251
  5
1F3
 10
228.890393
 20
66.423315
 30
0.0
  0
VERTEX
  8
LY_1
  6
CONTINUOUS
 62
   251
  5
1F4
 10
227.177093
 20
65.578407
 30
0.0
  0
VERTEX
  8
LY_1
  6
CONTINUOUS
 62
   251
  5
1F5
 10
225.663759
 20
64.581474
 30
0.0
  0
VERTEX
  8
LY_1
  6
CONTINUOUS
 62
   251
  5
1F6
 10
224.381199
 20
63.45281
 30
0.0
  0
VERTEX
  8
LY_1
  6
CONTINUOUS
 62
   251
  5
1F7
 10
223.355521
 20
62.215392
 30
0.0
  0
VERTEX
  8
LY_1
  6
CONTINUOUS
 62
   251
  5
1F8
 10
222.607606
 20
60.894409
 30
0.0
  0
VERTEX
  8
LY_1
  6
CONTINUOUS
 62
   251
  5
1F9
 10
222.152678
 20
59.516753
 30
0.0
  0
VERTEX
  8
LY_1
  6
CONTINUOUS
 62
   251
  5
1FA
 10
221.999999
 20
58.110469
 30
0.0
  0
VERTEX
  8
LY_1
  6
CONTINUOUS
 62
   251
  5
1FB
 10
222.152678
 20
56.704185
 30
0.0
  0
VERTEX
  8
LY_1
  6
CONTINUOUS
 62
   251
  5
1FC
 10
222.607605
 20
55.326529
 30
0.0
  0
VERTEX
  8
LY_1
  6
CONTINUOUS
 62
   251
  5
1FD
 10
223.35552
 20
54.005546
 30
0.0
  0
VERTEX
  8
LY_1
  6
CONTINUOUS
 62
   251
  5
1FE
 10
224.381198
 20
52.768127
 30
0.0
  0
VERTEX
  8
LY_1
  6
CONTINUOUS
 62
   251
  5
1FF
 10
225.663759
 20
51.639463
 30
0.0
  0
VERTEX
  8
LY_1
  6
CONTINUOUS
 62
   251
  5
200
 10
227.177092
 20
50.64253
 30
0.0
  0
VERTEX
  8
LY_1
  6
CONTINUOUS
 62
   251
  5
201
 10
228.890392
 20
49.797623
 30
0.0
  0
VERTEX
  8
LY_1
  6
CONTINUOUS
 62
   251
  5
202
 10
230.768781
 20
49.121941
 30
0.0
  0
VERTEX
  8
LY_1
  6
CONTINUOUS
 62
   251
  5
203
 10
232.774019
 20
48.62924
 30
0.0
  0
VERTEX
  8
LY_1
  6
CONTINUOUS
 62
   251
  5
204
 10
234.865287
 20
48.329549
 30
0.0
  0
VERTEX
  8
LY_1
  6
CONTINUOUS
 62
   251
  5
205
 10
237.000011
 20
48.22897
 30
0.0
  0
VERTEX
  8
LY_1
  6
CONTINUOUS
 62
   251
  5
206
 10
237.000013
 20
48.22897
 30
0.0
  0
SEQEND
  8
LY_1
  6
CONTINUOUS
 62
   251
  5
207
  0
ARC
  8
LY_1
  6
CONTINUOUS
 62
   251
  5
67
 10
0.0
 20
0.0
 30
0.0
 40
82.500003
 50
128.01228
 51
141.98772
  0
ARC
  8
LY_1
  6
CONTINUOUS
 62
   251
  5
68
 10
0.0
 20
0.0
 30
0.0
 40
82.500003
 50
218.01228
 51
231.98772
  0
ARC
  8
LY_1
  6
CONTINUOUS
 62
   251
  5
69
 10
0.0
 20
0.0
 30
0.0
 40
82.500003
 50
308.01228
 51
321.98772
  0
ARC
  8
LY_1
  6
CONTINUOUS
 62
   251
  5
6A
 10
0.0
 20
0.0
 30
0.0
 40
82.500003
 50
38.01228
 51
51.98772
  0
ARC
  8
LY_1
  6
CONTINUOUS
 62
   251
  5
6B
 10
282.500013
 20
89.910137
 30
0.0
 40
16.3
 50
306.086414
 51
233.913543
  0
CIRCLE
  8
LY_1
  6
CONTINUOUS
 62
   251
  5
6C
 10
282.500013
 20
89.910137
 30
0.0
 40
10.0
  0
ARC
  8
LY_1
  6
CONTINUOUS
 62
   251
  5
6D
 10
277.059857
 20
75.910136
 30
0.0
 40
2.0
 50
89.999982
 51
170.000021
  0
ARC
  8
LY_1
  6
CONTINUOUS
 62
   251
  5
6E
 10
287.940168
 20
75.910136
 30
0.0
 40
2.0
 50
10.000004
 51
89.999982
  0
ARC
  8
LY_1
  6
CONTINUOUS
 62
   251
  5
6F
 10
270.543225
 20
73.505107
 30
0.0
 40
4.0
 50
351.445928
 51
53.913579
  0
ARC
  8
LY_1
  6
CONTINUOUS
 62
   251
  5
70
 10
294.4568
 20
73.505107
 30
0.0
 40
4.0
 50
126.08644
 51
188.554038
  0
ARC
  8
LY_1
  6
CONTINUOUS
 62
   251
  5
71
 10
291.000013
 20
83.783676
 30
0.0
 40
17.000001
 50
111.221045
 51
177.213836
  0
ARC
  8
LY_1
  6
CONTINUOUS
 62
   251
  5
72
 10
294.500013
 20
-52.000002
 30
0.0
 40
5.0
 50
90.000003
 51
180.000005
  0
ARC
  8
LY_1
  6
CONTINUOUS
 62
   251
  5
73
 10
345.500015
 20
-52.000002
 30
0.0
 40
5.0
 50
0.0
 51
90.000003
  0
ARC
  8
LY_1
  6
CONTINUOUS
 62
   251
  5
74
 10
294.500013
 20
52.000002
 30
0.0
 40
5.0
 50
179.999991
 51
270.000001
  0
ARC
  8
LY_1
  6
CONTINUOUS
 62
   251
  5
75
 10
345.500015
 20
52.000002
 30
0.0
 40
5.0
 50
269.999997
 51
0.0
  0
ARC
  8
LY_1
  6
CONTINUOUS
 62
   251
  5
76
 10
-53.280055
 20
92.283672
 30
0.0
 40
8.500001
 50
30.000001
 51
209.999999
  0
ARC
  8
LY_1
  6
CONTINUOUS
 62
   251
  5
77
 10
-18.172302
 20
103.060137
 30
0.0
 40
3.15
 50
10.0
 51
189.999962
  0
CIRCLE
  8
LY_1
  6
CONTINUOUS
 62
   251
  5
78
 10
263.250012
 20
0.0
 30
0.0
 40
4.990937
  0
ARC
  8
LY_1
  6
CONTINUOUS
 62
   251
  5
79
 10
175.629998
 20
0.0
 30
0.0
 40
2.37
 50
269.999997
 51
90.000003
  0
ARC
  8
LY_1
  6
CONTINUOUS
 62
   251
  5
7A
 10
0.0
 20
0.0
 30
0.0
 40
11.0
 50
15.826613
 51
344.173352
  0
ARC
  8
LY_1
  6
CONTINUOUS
 62
   251
  5
7B
 10
226.043032
 20
31.307796
 30
0.0
 40
5.0
 50
269.999997
 51
329.999999
  0
ARC
  8
LY_1
  6
CONTINUOUS
 62
   251
  5
7C
 10
236.886792
 20
30.089747
 30
0.0
 40
5.0
 50
90.000003
 51
149.999997
  0
ARC
  8
LY_1
  6
CONTINUOUS
 62
   251
  5
7D
 10
236.886792
 20
-30.08976
 30
0.0
 40
5.0
 50
210.000003
 51
269.999997
  0
ARC
  8
LY_1
  6
CONTINUOUS
 62
   251
  5
7E
 10
226.043032
 20
-31.307805
 30
0.0
 40
5.0
 50
30.000001
 51
90.000003
  0
ARC
  8
LY_1
  6
CENTER
 62
     7
  5
7F
 10
0.0
 20
0.0
 30
0.0
 40
65.0
 50
261.150115
 51
278.84988
  0
CIRCLE
  8
LY_1
  6
CONTINUOUS
 62
   251
  5
80
 10
0.0
 20
-65.0
 30
0.0
 40
6.0
  0
ARC
  8
LY_1
  6
CENTER
 62
     7
  5
81
 10
0.0
 20
0.0
 30
0.0
 40
65.0
 50
170.451289
 51
190.076761
  0
CIRCLE
  8
LY_1
  6
CONTINUOUS
 62
   251
  5
82
 10
-65.0
 20
0.0
 30
0.0
 40
6.0
  0
ARC
  8
LY_1
  6
CENTER
 62
     7
  5
83
 10
0.0
 20
0.0
 30
0.0
 40
65.0
 50
81.15012
 51
98.849885
  0
CIRCLE
  8
LY_1
  6
CONTINUOUS
 62
   251
  5
84
 10
0.0
 20
64.999994
 30
0.0
 40
6.0
  0
ARC
  8
LY_1
  6
CONTINUOUS
 62
   251
  5
85
 10
65.0
 20
0.0
 30
0.0
 40
6.0
 50
265.575059
 51
257.022532
  0
ARC
  8
LY_1
  6
CENTER
 62
     7
  5
86
 10
0.0
 20
0.0
 30
0.0
 40
65.0
 50
349.661088
 51
8.469512
  0
CIRCLE
  8
LY_1
  6
CONTINUOUS
 62
   251
  5
87
 10
0.0
 20
0.0
 30
0.0
 40
50.0
  0
CIRCLE
  8
LY_1
  6
CONTINUOUS
 62
   251
  5
88
 10
0.0
 20
0.0
 30
0.0
 40
55.0
  0
CIRCLE
  8
LY_1
  6
CONTINUOUS
 62
   251
  5
89
 10
0.0
 20
0.0
 30
0.0
 40
80.0
  0
ARC
  8
LY_1
  6
CONTINUOUS
 62
   251
  5
8A
 10
218.836001
 20
55.783715
 30
0.0
 40
2.0
 50
261.435671
 51
342.361494
  0
ARC
  8
LY_1
  6
CONTINUOUS
 62
   251
  5
8B
 10
199.000007
 20
-31.307805
 30
0.0
 40
5.0
 50
90.000003
 51
180.000005
  0
ARC
  8
LY_1
  6
CONTINUOUS
 62
   251
  5
8C
 10
199.000007
 20
31.307796
 30
0.0
 40
5.0
 50
179.999991
 51
270.000001
  0
LINE
  8
LY_1
  6
CONTINUOUS
 62
   251
  5
8D
 10
46.636892
 20
-65.000003
 30
0.0
 11
50.806006
 21
-65.000003
 31
0.0
  0
LINE
  8
LY_1
  6
CONTINUOUS
 62
   251
  5
8E
 10
65.000003
 20
-46.636892
 30
0.0
 11
65.000003
 21
-50.806006
 31
0.0
  0
LINE
  8
LY_1
  6
CONTINUOUS
 62
   251
  5
8F
 10
46.636892
 20
65.000003
 30
0.0
 11
50.806006
 21
65.000003
 31
0.0
  0
LINE
  8
LY_1
  6
CONTINUOUS
 62
   251
  5
90
 10
-65.000003
 20
-46.636892
 30
0.0
 11
-65.000003
 21
-50.806006
 31
0.0
  0
LINE
  8
LY_1
  6
CONTINUOUS
 62
   251
  5
91
 10
-50.806006
 20
-65.000003
 30
0.0
 11
-46.636892
 21
-65.000003
 31
0.0
  0
LINE
  8
LY_1
  6
CONTINUOUS
 62
   251
  5
92
 10
-50.806006
 20
65.000003
 30
0.0
 11
-46.636892
 21
65.000003
 31
0.0
  0
LINE
  8
LY_1
  6
CONTINUOUS
 62
   251
  5
93
 10
65.000003
 20
50.806006
 30
0.0
 11
65.000003
 21
46.636892
 31
0.0
  0
LINE
  8
LY_1
  6
CONTINUOUS
 62
   251
  5
94
 10
-65.000003
 20
50.806006
 30
0.0
 11
-65.000003
 21
46.636892
 31
0.0
  0
LINE
  8
LY_1
  6
CENTER
 62
     7
  5
95
 10
282.500013
 20
109.202153
 30
0.0
 11
282.500013
 21
64.763163
 31
0.0
  0
LINE
  8
LY_1
  6
CENTER
 62
     7
  5
96
 10
263.07864
 20
89.910137
 30
0.0
 11
301.925734
 21
89.910137
 31
0.0
  0
LINE
  8
LY_1
  6
CONTINUOUS
 62
   251
  5
97
 10
289.909797
 20
76.257433
 30
0.0
 11
290.500016
 21
72.910137
 31
0.0
  0
LINE
  8
LY_1
  6
CONTINUOUS
 62
   251
  5
98
 10
277.059857
 20
77.910136
 30
0.0
 11
287.940168
 21
77.910136
 31
0.0
  0
LINE
  8
LY_1
  6
CONTINUOUS
 62
   251
  5
99
 10
276.369732
 20
77.787299
 30
0.0
 11
282.159764
 21
79.915923
 31
0.0
  0
LINE
  8
LY_1
  6
CONTINUOUS
 62
   251
  5
9A
 10
282.840245
 20
79.915925
 30
0.0
 11
288.630292
 21
77.787297
 31
0.0
  0
LINE
  8
LY_1
  6
CONTINUOUS
 62
   251
  5
9B
 10
274.49873
 20
72.910136
 30
0.0
 11
290.500013
 21
72.910136
 31
0.0
  0
LINE
  8
LY_1
  6
CONTINUOUS
 62
   251
  5
9C
 10
290.200025
 20
72.910136
 30
0.0
 11
290.200025
 21
70.910136
 31
0.0
  0
LINE
  8
LY_1
  6
CONTINUOUS
 62
   251
  5
9D
 10
289.500013
 20
70.910136
 30
0.0
 11
290.200025
 21
70.910136
 31
0.0
  0
LINE
  8
LY_1
  6
CENTER
 62
     7
  5
9E
 10
315.76219
 20
92.283676
 30
0.0
 11
273.304761
 21
92.283676
 31
0.0
  0
LINE
  8
LY_1
  6
CONTINUOUS
 62
   251
  5
9F
 10
303.529998
 20
87.292742
 30
0.0
 11
299.500013
 21
87.418679
 31
0.0
  0
LINE
  8
LY_1
  6
CONTINUOUS
 62
   251
  5
A0
 10
310.530012
 20
87.748146
 30
0.0
 11
303.530012
 21
87.748146
 31
0.0
  0
LINE
  8
LY_1
  6
CONTINUOUS
 62
   251
  5
A1
 10
310.530012
 20
96.819214
 30
0.0
 11
303.530012
 21
96.819214
 31
0.0
  0
LINE
  8
LY_1
  6
CONTINUOUS
 62
   251
  5
A2
 10
303.530007
 20
97.274613
 30
0.0
 11
299.500022
 21
97.148677
 31
0.0
  0
LINE
  8
LY_1
  6
CONTINUOUS
 62
   251
  5
A3
 10
310.530012
 20
87.748146
 30
0.0
 11
310.530012
 21
96.819214
 31
0.0
  0
LINE
  8
LY_1
  6
CONTINUOUS
 62
   251
  5
A4
 10
303.530012
 20
87.29274
 30
0.0
 11
303.530012
 21
97.274612
 31
0.0
  0
LINE
  8
LY_1
  6
CONTINUOUS
 62
   251
  5
A5
 10
299.500013
 20
100.783676
 30
0.0
 11
294.643171
 21
100.783676
 31
0.0
  0
LINE
  8
LY_1
  6
CONTINUOUS
 62
   251
  5
A6
 10
299.500013
 20
83.783676
 30
0.0
 11
297.604862
 21
83.783676
 31
0.0
  0
LINE
  8
LY_1
  6
CONTINUOUS
 62
   251
  5
A7
 10
299.500013
 20
83.783676
 30
0.0
 11
299.500013
 21
100.783676
 31
0.0
  0
LINE
  8
LY_1
  6
CONTINUOUS
 62
     7
  5
A8
 10
303.530012
 20
87.748151
 30
0.0
 11
310.530025
 21
92.283693
 31
0.0
  0
LINE
  8
LY_1
  6
CONTINUOUS
 62
     7
  5
A9
 10
303.530008
 20
92.283679
 30
0.0
 11
310.530008
 21
87.748146
 31
0.0
  0
LINE
  8
LY_1
  6
CONTINUOUS
 62
     7
  5
AA
 10
310.530011
 20
92.28368
 30
0.0
 11
303.530011
 21
96.819213
 31
0.0
  0
LINE
  8
LY_1
  6
CONTINUOUS
 62
     7
  5
AB
 10
310.530022
 20
96.819227
 30
0.0
 11
303.530009
 21
92.283684
 31
0.0
  0
LINE
  8
LY_1
  6
CONTINUOUS
 62
   251
  5
AC
 10
289.500013
 20
72.500003
 30
0.0
 11
289.500013
 21
-72.500003
 31
0.0
  0
LINE
  8
LY_1
  6
CONTINUOUS
 62
   251
  5
AD
 10
350.500015
 20
-65.000003
 30
0.0
 11
364.500016
 21
-65.000003
 31
0.0
  0
LINE
  8
LY_1
  6
CONTINUOUS
 62
   251
  5
AE
 10
274.500012
 20
-72.500003
 30
0.0
 11
289.500013
 21
-72.500003
 31
0.0
  0
LINE
  8
LY_1
  6
CONTINUOUS
 62
   251
  5
AF
 10
364.500016
 20
-65.000003
 30
0.0
 11
364.500016
 21
65.000003
 31
0.0
  0
LINE
  8
LY_1
  6
CONTINUOUS
 62
   251
  5
B0
 10
350.500015
 20
-65.000003
 30
0.0
 11
350.500015
 21
65.000003
 31
0.0
  0
LINE
  8
LY_1
  6
CONTINUOUS
 62
   251
  5
B1
 10
294.500013
 20
47.000002
 30
0.0
 11
345.500015
 21
47.000002
 31
0.0
  0
LINE
  8
LY_1
  6
CONTINUOUS
 62
   251
  5
B2
 10
294.500013
 20
-47.000002
 30
0.0
 11
345.500015
 21
-47.000002
 31
0.0
  0
LINE
  8
LY_1
  6
CONTINUOUS
 62
   251
  5
B3
 10
274.500012
 20
72.500003
 30
0.0
 11
274.500012
 21
-72.500003
 31
0.0
  0
LINE
  8
LY_1
  6
CONTINUOUS
 62
   251
  5
B4
 10
274.500012
 20
72.500003
 30
0.0
 11
289.500013
 21
72.500003
 31
0.0
  0
LINE
  8
LY_1
  6
CONTINUOUS
 62
   251
  5
B5
 10
350.500015
 20
65.000003
 30
0.0
 11
364.500016
 21
65.000003
 31
0.0
  0
LINE
  8
LY_1
  6
CONTINUOUS
 62
   251
  5
B6
 10
13.5
 20
2.999999
 30
0.0
 11
13.5
 21
-3.000005
 31
0.0
  0
LINE
  8
LY_1
  6
CONTINUOUS
 62
   251
  5
B7
 10
175.000001
 20
2.370001
 30
0.0
 11
175.000001
 21
-2.370001
 31
0.0
  0
LINE
  8
LY_1
  6
CONTINUOUS
 62
   251
  5
B8
 10
274.500012
 20
72.5
 30
0.0
 11
274.500012
 21
-72.5
 31
0.0
  0
LINE
  8
LY_1
  6
CONTINUOUS
 62
     7
  5
B9
 10
-36.501347
 20
82.990751
 30
0.0
 11
-33.646575
 21
92.543227
 31
0.0
  0
LINE
  8
LY_1
  6
CONTINUOUS
 62
     7
  5
BA
 10
-30.910408
 20
85.025692
 30
0.0
 11
-39.237501
 21
90.508299
 31
0.0
  0
LINE
  8
LY_1
  6
CONTINUOUS
 62
     7
  5
BB
 10
-33.646568
 20
92.543221
 30
0.0
 11
-25.319475
 21
87.060614
 31
0.0
  0
LINE
  8
LY_1
  6
CONTINUOUS
 62
     7
  5
BC
 10
-28.055626
 20
94.578155
 30
0.0
 11
-30.910399
 21
85.025679
 31
0.0
  0
LINE
  8
LY_1
  6
CONTINUOUS
 62
   251
  5
BD
 10
-33.646571
 20
92.543225
 30
0.0
 11
-30.910408
 21
85.025679
 31
0.0
  0
LINE
  8
LY_1
  6
CONTINUOUS
 62
   251
  5
BE
 10
-39.237502
 20
90.508292
 30
0.0
 11
-36.501339
 21
82.990746
 31
0.0
  0
LINE
  8
LY_1
  6
CONTINUOUS
 62
   251
  5
BF
 10
-28.055639
 20
94.578158
 30
0.0
 11
-25.319476
 21
87.060612
 31
0.0
  0
LINE
  8
LY_1
  6
CONTINUOUS
 62
   251
  5
C0
 10
-37.240119
 20
82.721861
 30
0.0
 11
-35.386906
 21
78.08613
 31
0.0
  0
LINE
  8
LY_1
  6
CONTINUOUS
 62
   251
  5
C1
 10
-24.580702
 20
87.329504
 30
0.0
 11
-23.020556
 21
82.587105
 31
0.0
  0
LINE
  8
LY_1
  6
CONTINUOUS
 62
   251
  5
C2
 10
-24.580693
 20
87.329507
 30
0.0
 11
-37.24011
 21
82.721856
 31
0.0
  0
LINE
  8
LY_1
  6
CONTINUOUS
 62
   251
  5
C3
 10
-28.055639
 20
94.578158
 30
0.0
 11
-39.237502
 21
90.508292
 31
0.0
  0
LINE
  8
LY_1
  6
CONTINUOUS
 62
   251
  5
C4
 10
-20.276652
 20
83.585804
 30
0.0
 11
-38.130814
 21
77.08742
 31
0.0
  0
LINE
  8
LY_1
  6
CONTINUOUS
 62
   251
  5
C5
 10
-38.130814
 20
77.08742
 30
0.0
 11
-36.064338
 21
71.409823
 31
0.0
  0
LINE
  8
LY_1
  6
CONTINUOUS
 62
   251
  5
C6
 10
-20.276652
 20
83.585804
 30
0.0
 11
-18.207377
 21
77.900518
 31
0.0
  0
LINE
  8
LY_1
  6
CENTER
 62
     7
  5
C7
 10
-34.357351
 20
94.496079
 30
0.0
 11
-25.682246
 21
70.661424
 31
0.0
  0
LINE
  8
LY_1
  6
CENTER
 62
     7
  5
C8
 10
215.000005
 20
100.84761
 30
0.0
 11
215.000005
 21
44.028381
 31
0.0
  0
LINE
  8
LY_1
  6
CONTINUOUS
 62
   251
  5
C9
 10
205.50001
 20
80.33663
 30
0.0
 11
205.50001
 21
56.844317
 31
0.0
  0
LINE
  8
LY_1
  6
CONTINUOUS
 62
   251
  5
CA
 10
224.500012
 20
80.33663
 30
0.0
 11
224.500012
 21
63.572675
 31
0.0
  0
LINE
  8
LY_1
  6
CONTINUOUS
 62
   251
  5
CB
 10
220.949762
 20
92.543243
 30
0.0
 11
220.949762
 21
86.113249
 31
0.0
  0
LINE
  8
LY_1
  6
CONTINUOUS
 62
   251
  5
CC
 10
209.050272
 20
92.543243
 30
0.0
 11
209.050272
 21
86.113698
 31
0.0
  0
LINE
  8
LY_1
  6
CONTINUOUS
 62
   251
  5
CD
 10
208.100018
 20
56.844317
 30
0.0
 11
208.100018
 21
55.378005
 31
0.0
  0
LINE
  8
LY_1
  6
CONTINUOUS
 62
   251
  5
CE
 10
208.250012
 20
85.025698
 30
0.0
 11
208.250012
 21
82.622916
 31
0.0
  0
LINE
  8
LY_1
  6
CONTINUOUS
 62
   251
  5
CF
 10
221.75001
 20
85.025698
 30
0.0
 11
221.75001
 21
82.623037
 31
0.0
  0
LINE
  8
LY_1
  6
CONTINUOUS
 62
   251
  5
D0
 10
209.050249
 20
92.543239
 30
0.0
 11
214.999999
 21
94.57817
 31
0.0
  0
LINE
  8
LY_1
  6
CONTINUOUS
 62
   251
  5
D1
 10
215.000006
 20
94.578158
 30
0.0
 11
220.949756
 21
92.543227
 31
0.0
  0
LINE
  8
LY_1
  6
CONTINUOUS
 62
     7
  5
D2
 10
215.000015
 20
94.578149
 30
0.0
 11
210.018568
 21
86.580309
 31
0.0
  0
LINE
  8
LY_1
  6
CONTINUOUS
 62
     7
  5
D3
 10
214.710439
 20
87.327472
 30
0.0
 11
209.050263
 21
92.543247
 31
0.0
  0
LINE
  8
LY_1
  6
CONTINUOUS
 62
     7
  5
D4
 10
215.28951
 20
87.327406
 30
0.0
 11
220.949743
 21
92.543233
 31
0.0
  0
LINE
  8
LY_1
  6
CONTINUOUS
 62
     7
  5
D5
 10
215.000006
 20
94.57817
 30
0.0
 11
219.981435
 21
86.580357
 31
0.0
  0
LINE
  8
LY_1
  6
CONTINUOUS
 62
   251
  5
D6
 10
-37.596051
 20
75.618195
 30
0.0
 11
-40.233399
 21
80.186216
 31
0.0
  0
LINE
  8
LY_1
  6
CONTINUOUS
 62
   251
  5
D7
 10
-44.460423
 20
66.507677
 30
0.0
 11
-49.326648
 21
74.936226
 31
0.0
  0
LINE
  8
LY_1
  6
CONTINUOUS
 62
   251
  5
D8
 10
-37.418799
 20
81.811226
 30
0.0
 11
-45.918803
 21
96.533664
 31
0.0
  0
LINE
  8
LY_1
  6
CONTINUOUS
 62
   251
  5
D9
 10
-52.141248
 20
73.311216
 30
0.0
 11
-60.641252
 21
88.033654
 31
0.0
  0
LINE
  8
LY_1
  6
CONTINUOUS
 62
   251
  5
DA
 10
-52.141248
 20
73.311216
 30
0.0
 11
-37.418799
 21
81.811226
 31
0.0
  0
LINE
  8
LY_1
  6
CENTER
 62
     7
  5
DB
 10
-43.826595
 20
97.741601
 30
0.0
 11
-63.847971
 21
86.182254
 31
0.0
  0
LINE
  8
LY_1
  6
CENTER
 62
     7
  5
DC
 10
-37.732606
 20
65.354735
 30
0.0
 11
-59.143612
 21
102.439684
 31
0.0
  0
LINE
  8
LY_1
  6
CONTINUOUS
 62
     7
  5
DD
 10
84.530603
 20
-0.000005
 30
0.0
 11
79.944794
 21
2.971294
 31
0.0
  0
LINE
  8
LY_1
  6
CONTINUOUS
 62
     7
  5
DE
 10
79.984193
 20
1.589759
 30
0.0
 11
84.530605
 21
4.535531
 31
0.0
  0
LINE
  8
LY_1
  6
CONTINUOUS
 62
     7
  5
DF
 10
84.530608
 20
-0.000002
 30
0.0
 11
79.944797
 21
-2.971302
 31
0.0
  0
LINE
  8
LY_1
  6
CONTINUOUS
 62
     7
  5
E0
 10
84.5306
 20
-4.535538
 30
0.0
 11
79.984201
 21
-1.589775
 31
0.0
  0
LINE
  8
LY_1
  6
CONTINUOUS
 62
   251
  5
E1
 10
84.530614
 20
-4.535535
 30
0.0
 11
84.530614
 21
4.535535
 31
0.0
  0
LINE
  8
LY_1
  6
CONTINUOUS
 62
   251
  5
E2
 10
84.530614
 20
4.535535
 30
0.0
 11
79.871318
 21
4.535535
 31
0.0
  0
LINE
  8
LY_1
  6
CONTINUOUS
 62
   251
  5
E3
 10
84.530614
 20
-4.535535
 30
0.0
 11
79.871318
 21
-4.535535
 31
0.0
  0
LINE
  8
LY_1
  6
CENTER
 62
     7
  5
E4
 10
-90.079279
 20
0.0
 30
0.0
 11
96.083221
 21
0.0
 31
0.0
  0
LINE
  8
LY_1
  6
CONTINUOUS
 62
   251
  5
E5
 10
-21.274455
 20
102.513142
 30
0.0
 11
-16.983253
 21
78.176522
 31
0.0
  0
LINE
  8
LY_1
  6
CONTINUOUS
 62
   251
  5
E6
 10
-17.088841
 20
78.775552
 30
0.0
 11
-18.295594
 21
78.142876
 31
0.0
  0
LINE
  8
LY_1
  6
CONTINUOUS
 62
   251
  5
E7
 10
-15.070169
 20
103.607125
 30
0.0
 11
-10.778967
 21
79.270512
 31
0.0
  0
LINE
  8
LY_1
  6
CONTINUOUS
 62
   251
  5
E8
 10
-10.884568
 20
79.869514
 30
0.0
 11
-8.494426
 21
79.547751
 31
0.0
  0
LINE
  8
LY_1
  6
CENTER
 62
     7
  5
E9
 10
-13.047803
 20
73.997748
 30
0.0
 11
-19.501726
 21
110.599759
 31
0.0
  0
LINE
  8
LY_1
  6
CENTER
 62
     7
  5
EA
 10
263.250012
 20
6.990941
 30
0.0
 11
263.250012
 21
-6.990941
 31
0.0
  0
LINE
  8
LY_1
  6
CONTINUOUS
 62
   251
  5
EB
 10
268.199755
 20
-0.000008
 30
0.0
 11
263.250011
 21
4.949736
 31
0.0
  0
LINE
  8
LY_1
  6
CONTINUOUS
 62
   251
  5
EC
 10
263.249991
 20
-4.949744
 30
0.0
 11
268.199736
 21
0.0
 31
0.0
  0
LINE
  8
LY_1
  6
CONTINUOUS
 62
   251
  5
ED
 10
258.300255
 20
-0.000006
 30
0.0
 11
263.25
 21
-4.949749
 31
0.0
  0
LINE
  8
LY_1
  6
CONTINUOUS
 62
   251
  5
EE
 10
263.249993
 20
4.949744
 30
0.0
 11
258.300248
 21
0.000001
 31
0.0
  0
LINE
  8
LY_1
  6
CONTINUOUS
 62
   251
  5
EF
 10
150.0
 20
-2.370001
 30
0.0
 11
175.629998
 21
-2.370001
 31
0.0
  0
LINE
  8
LY_1
  6
CONTINUOUS
 62
   251
  5
F0
 10
150.0
 20
2.370001
 30
0.0
 11
175.629998
 21
2.370001
 31
0.0
  0
LINE
  8
LY_1
  6
CONTINUOUS
 62
   251
  5
F1
 10
150.0
 20
-11.112499
 30
0.0
 11
180.000005
 21
-11.112499
 31
0.0
  0
LINE
  8
LY_1
  6
CONTINUOUS
 62
   251
  5
F2
 10
150.0
 20
11.112499
 30
0.0
 11
180.000005
 21
11.112499
 31
0.0
  0
LINE
  8
LY_1
  6
CONTINUOUS
 62
   251
  5
F3
 10
150.0
 20
11.112499
 30
0.0
 11
150.0
 21
-11.112499
 31
0.0
  0
LINE
  8
LY_1
  6
CENTER
 62
     7
  5
F4
 10
141.247686
 20
0.0
 30
0.0
 11
494.572395
 21
0.0
 31
0.0
  0
LINE
  8
LY_1
  6
CONTINUOUS
 62
   251
  5
F5
 10
7.5
 20
2.999999
 30
0.0
 11
7.5
 21
-3.000005
 31
0.0
  0
LINE
  8
LY_1
  6
CONTINUOUS
 62
   251
  5
F6
 10
13.5
 20
2.999999
 30
0.0
 11
7.5
 21
2.999999
 31
0.0
  0
LINE
  8
LY_1
  6
CONTINUOUS
 62
   251
  5
F7
 10
13.5
 20
-3.000005
 30
0.0
 11
7.5
 21
-3.000005
 31
0.0
  0
LINE
  8
LY_1
  6
CENTER
 62
     7
  5
F8
 10
0.0
 20
118.800378
 30
0.0
 11
0.0
 21
-88.91378
 31
0.0
  0
LINE
  8
LY_1
  6
CONTINUOUS
 62
   251
  5
F9
 10
233.999982
 20
30.338984
 30
0.0
 11
233.999982
 21
-29.606635
 31
0.0
  0
LINE
  8
LY_1
  6
CONTINUOUS
 62
   251
  5
FA
 10
232.556613
 20
32.589752
 30
0.0
 11
230.373112
 21
28.807817
 31
0.0
  0
LINE
  8
LY_1
  6
CONTINUOUS
 62
   251
  5
FB
 10
232.556648
 20
-32.58976
 30
0.0
 11
230.373147
 21
-28.807825
 31
0.0
  0
LINE
  8
LY_1
  6
CONTINUOUS
 62
   251
  5
FC
 10
236.886792
 20
35.089747
 30
0.0
 11
242.000012
 21
35.089747
 31
0.0
  0
LINE
  8
LY_1
  6
CONTINUOUS
 62
   251
  5
FD
 10
236.886792
 20
-35.08976
 30
0.0
 11
242.000012
 21
-35.08976
 31
0.0
  0
LINE
  8
LY_1
  6
CONTINUOUS
 62
   251
  5
FE
 10
220.742124
 20
55.177657
 30
0.0
 11
222.318744
 21
60.136228
 31
0.0
  0
LINE
  8
LY_1
  6
CONTINUOUS
 62
   251
  5
FF
 10
242.000012
 20
48.228785
 30
0.0
 11
242.000012
 21
-72.5
 31
0.0
  0
LINE
  8
LY_1
  6
CONTINUOUS
 62
   251
  5
100
 10
242.000012
 20
72.499993
 30
0.0
 11
242.000012
 21
67.992181
 31
0.0
  0
LINE
  8
LY_1
  6
CONTINUOUS
 62
   251
  5
101
 10
237.000012
 20
67.992181
 30
0.0
 11
242.000012
 21
67.992181
 31
0.0
  0
LINE
  8
LY_1
  6
CONTINUOUS
 62
   251
  5
102
 10
180.000005
 20
14.999994
 30
0.0
 11
182.267791
 21
14.999994
 31
0.0
  0
LINE
  8
LY_1
  6
CONTINUOUS
 62
   251
  5
103
 10
180.000005
 20
-15.000006
 30
0.0
 11
182.579986
 21
-15.000006
 31
0.0
  0
LINE
  8
LY_1
  6
CONTINUOUS
 62
   251
  5
104
 10
180.000005
 20
-25.099309
 30
0.0
 11
180.000005
 21
-80.0
 31
0.0
  0
LINE
  8
LY_1
  6
CONTINUOUS
 62
   251
  5
105
 10
180.000005
 20
14.999994
 30
0.0
 11
180.000005
 21
-15.000006
 31
0.0
  0
LINE
  8
LY_1
  6
CONTINUOUS
 62
   251
  5
106
 10
176.000002
 20
-28.595676
 30
0.0
 11
176.000002
 21
-55.0
 31
0.0
  0
LINE
  8
LY_1
  6
CONTINUOUS
 62
   251
  5
107
 10
176.000002
 20
-55.0
 30
0.0
 11
180.000005
 21
-55.0
 31
0.0
  0
LINE
  8
LY_1
  6
CONTINUOUS
 62
   251
  5
108
 10
176.000002
 20
54.999994
 30
0.0
 11
180.000005
 21
54.999994
 31
0.0
  0
LINE
  8
LY_1
  6
CONTINUOUS
 62
   251
  5
109
 10
176.000002
 20
54.999994
 30
0.0
 11
176.000002
 21
41.585321
 31
0.0
  0
LINE
  8
LY_1
  6
CONTINUOUS
 62
   251
  5
10A
 10
194.000043
 20
52.045406
 30
0.0
 11
221.999962
 21
48.228749
 31
0.0
  0
LINE
  8
LY_1
  6
CONTINUOUS
 62
   251
  5
10B
 10
194.000002
 20
57.501453
 30
0.0
 11
218.538158
 21
53.80603
 31
0.0
  0
LINE
  8
LY_1
  6
CONTINUOUS
 62
   251
  5
10C
 10
242.000012
 20
48.228785
 30
0.0
 11
221.999999
 21
48.228785
 31
0.0
  0
LINE
  8
LY_1
  6
CONTINUOUS
 62
   251
  5
10D
 10
194.000005
 20
-57.501468
 30
0.0
 11
242.000031
 21
-53.284692
 31
0.0
  0
LINE
  8
LY_1
  6
CONTINUOUS
 62
   251
  5
10E
 10
242.000048
 20
-48.228803
 30
0.0
 11
194.000011
 21
-52.045474
 31
0.0
  0
LINE
  8
LY_1
  6
CONTINUOUS
 62
   251
  5
10F
 10
199.000007
 20
26.307796
 30
0.0
 11
226.043032
 21
26.307796
 31
0.0
  0
LINE
  8
LY_1
  6
CONTINUOUS
 62
   251
  5
110
 10
199.000007
 20
-26.307805
 30
0.0
 11
226.043032
 21
-26.307805
 31
0.0
  0
LINE
  8
LY_1
  6
CONTINUOUS
 62
   251
  5
111
 10
242.000012
 20
-72.5
 30
0.0
 11
252.000012
 21
-72.5
 31
0.0
  0
LINE
  8
LY_1
  6
CONTINUOUS
 62
   251
  5
112
 10
242.000012
 20
72.499993
 30
0.0
 11
252.000012
 21
72.499993
 31
0.0
  0
LINE
  8
LY_1
  6
CONTINUOUS
 62
   251
  5
113
 10
194.000007
 20
79.999993
 30
0.0
 11
194.000007
 21
-80.0
 31
0.0
  0
LINE
  8
LY_1
  6
CONTINUOUS
 62
   251
  5
114
 10
180.000005
 20
-80.0
 30
0.0
 11
194.000007
 21
-80.0
 31
0.0
  0
LINE
  8
LY_1
  6
CONTINUOUS
 62
   251
  5
115
 10
180.000005
 20
79.999993
 30
0.0
 11
194.000007
 21
79.999993
 31
0.0
  0
LINE
  8
LY_1
  6
CONTINUOUS
 62
   251
  5
116
 10
180.000005
 20
79.999993
 30
0.0
 11
180.000005
 21
39.01324
 31
0.0
  0
LINE
  8
LY_1
  6
CONTINUOUS
 62
   251
  5
117
 10
274.500012
 20
73.499994
 30
0.0
 11
274.500012
 21
-73.50001
 31
0.0
  0
LINE
  8
LY_1
  6
CONTINUOUS
 62
   251
  5
118
 10
252.000012
 20
73.499994
 30
0.0
 11
252.000012
 21
-73.50001
 31
0.0
  0
LINE
  8
LY_1
  6
CONTINUOUS
 62
   251
  5
119
 10
252.000012
 20
-73.50001
 30
0.0
 11
274.500012
 21
-73.50001
 31
0.0
  0
LINE
  8
LY_1
  6
CONTINUOUS
 62
   251
  5
11A
 10
252.000012
 20
73.499994
 30
0.0
 11
274.500012
 21
73.499994
 31
0.0
  0
ENDSEC
  0
EOF
