  0
SECTION
  2
HEADER
  9
$ACADVER
  1
AC1009
  9
$DWGCODEPAGE
  3
dos932
  9
$INSBASE
 10
0.0
 20
0.0
 30
0.0
  9
$EXTMIN
 10
-245.0
 20
-250.74693
 30
0.0
  9
$EXTMAX
 10
1249.941702
 20
279.466435
 30
0.0
  9
$LIMMIN
 10
-245.0
 20
-250.74693
  9
$LIMMAX
 10
1249.941702
 20
279.466435
  9
$ORTHOMODE
 70
     0
  9
$REGENMODE
 70
     1
  9
$FILLMODE
 70
     1
  9
$QTEXTMODE
 70
     0
  9
$MIRRTEXT
 70
     1
  9
$DRAGMODE
 70
     2
  9
$LTSCALE
 40
1.0
  9
$OSMODE
 70
     0
  9
$ATTMODE
 70
     1
  9
$TEXTSIZE
 40
3.15
  9
$TRACEWID
 40
0.05
  9
$TEXTSTYLE
  7
MX_NOTE_STANDARD
  9
$CLAYER
  8
LY_1
  9
$CELTYPE
  6
CONTINUOUS
  9
$CECOLOR
 62
   256
  9
$DIMSCALE
 40
1.0
  9
$DIMASZ
 40
2.5
  9
$DIMEXO
 40
1.0
  9
$DIMDLI
 40
3.75
  9
$DIMRND
 40
0.0
  9
$DIMDLE
 40
0.0
  9
$DIMEXE
 40
1.5
  9
$DIMTP
 40
0.0
  9
$DIMTM
 40
0.0
  9
$DIMTXT
 40
3.15
  9
$DIMCEN
 40
2.5
  9
$DIMTSZ
 40
0.0
  9
$DIMTOL
 70
     0
  9
$DIMLIM
 70
     0
  9
$DIMTIH
 70
     0
  9
$DIMTOH
 70
     0
  9
$DIMSE1
 70
     0
  9
$DIMSE2
 70
     0
  9
$DIMTAD
 70
     1
  9
$DIMZIN
 70
     8
  9
$DIMBLK
  1

  9
$DIMASO
 70
     1
  9
$DIMSHO
 70
     1
  9
$DIMPOST
  1

  9
$DIMAPOST
  1

  9
$DIMALT
 70
     0
  9
$DIMALTD
 70
     4
  9
$DIMALTF
 40
0.03937
  9
$DIMLFAC
 40
1.0
  9
$DIMTOFL
 70
     1
  9
$DIMTVP
 40
0.0
  9
$DIMTIX
 70
     0
  9
$DIMSOXD
 70
     0
  9
$DIMSAH
 70
     0
  9
$DIMBLK1
  1

  9
$DIMBLK2
  1

  9
$DIMSTYLE
  2
MXDIMSTYLE
  9
$DIMCLRD
 70
     0
  9
$DIMCLRE
 70
     0
  9
$DIMCLRT
 70
     0
  9
$DIMTFAC
 40
1.0
  9
$DIMGAP
 40
1.0
  9
$LUNITS
 70
     2
  9
$LUPREC
 70
     4
  9
$AXISMODE
 70
     0
  9
$AXISUNIT
 10
0.0
 20
0.0
  9
$SKETCHINC
 40
0.1
  9
$FILLETRAD
 40
0.0
  9
$AUNITS
 70
     0
  9
$AUPREC
 70
     0
  9
$MENU
  1
acad
  9
$ELEVATION
 40
0.0
  9
$PELEVATION
 40
0.0
  9
$THICKNESS
 40
0.0
  9
$LIMCHECK
 70
     0
  9
$BLIPMODE
 70
     1
  9
$CHAMFERA
 40
0.0
  9
$CHAMFERB
 40
0.0
  9
$SKPOLY
 70
     0
  9
$TDCREATE
 40
2453665.670150463
  9
$TDUPDATE
 40
2453665.670150463
  9
$TDINDWG
 40
0.0000000000
  9
$TDUSRTIMER
 40
0.0000000000
  9
$USRTIMER
 70
     1
  9
$ANGBASE
 50
0.0
  9
$ANGDIR
 70
     0
  9
$PDMODE
 70
     0
  9
$PDSIZE
 40
0.0
  9
$PLINEWID
 40
0.0
  9
$COORDS
 70
     1
  9
$SPLFRAME
 70
     0
  9
$SPLINETYPE
 70
     6
  9
$SPLINESEGS
 70
     8
  9
$ATTDIA
 70
     0
  9
$ATTREQ
 70
     1
  9
$HANDLING
 70
     1
  9
$HANDSEED
  5
1FA
  9
$SURFTAB1
 70
     6
  9
$SURFTAB2
 70
     6
  9
$SURFTYPE
 70
     6
  9
$SURFU
 70
     6
  9
$SURFV
 70
     6
  9
$UCSNAME
  2

  9
$UCSORG
 10
0.0
 20
0.0
 30
0.0
  9
$UCSXDIR
 10
1.0
 20
0.0
 30
0.0
  9
$UCSYDIR
 10
0.0
 20
1.0
 30
0.0
  9
$PUCSNAME
  2

  9
$PUCSORG
 10
0.0
 20
0.0
 30
0.0
  9
$PUCSXDIR
 10
1.0
 20
0.0
 30
0.0
  9
$PUCSYDIR
 10
0.0
 20
1.0
 30
0.0
  9
$USERI1
 70
     0
  9
$USERI2
 70
     0
  9
$USERI3
 70
     0
  9
$USERI4
 70
     0
  9
$USERI5
 70
     0
  9
$USERR1
 40
0.0
  9
$USERR2
 40
0.0
  9
$USERR3
 40
0.0
  9
$USERR4
 40
0.0
  9
$USERR5
 40
0.0
  9
$WORLDVIEW
 70
     1
  9
$SHADEDGE
 70
     3
  9
$SHADEDIF
 70
    70
  9
$TILEMODE
 70
     1
  9
$MAXACTVP
 70
    16
  9
$PINSBASE
 10
0.0
 20
0.0
 30
0.0
  9
$PLIMCHECK
 70
     0
  9
$PEXTMIN
 10
1.000000E+20
 20
1.000000E+20
 30
1.000000E+20
  9
$PEXTMAX
 10
-1.000000E+20
 20
-1.000000E+20
 30
-1.000000E+20
  9
$PLIMMIN
 10
0.0
 20
0.0
  9
$PLIMMAX
 10
12.0
 20
9.0
  9
$UNITMODE
 70
     0
  9
$VISRETAIN
 70
     0
  9
$PLINEGEN
 70
     1
  9
$PSLTSCALE
 70
     0
  9
$TREEDEPTH
 70
  3020
  9
$DWGCODEPAGE
  3
dos932
  0
ENDSEC
  0
SECTION
  2
TABLES
  0
TABLE
  2
VPORT
 70
     1
  0
VPORT
  2
*ACTIVE
 70
     0
 10
0.0
 20
0.0
 11
1.0
 21
1.0
 12
502.470851
 22
14.359752
 13
0.0
 23
0.0
 14
1.0
 24
1.0
 15
0.0
 25
0.0
 16
0.0
 26
0.0
 36
1.0
 17
0.0
 27
0.0
 37
0.0
 40
535.515499
 41
1.732051
 42
50.0
 43
0.0
 44
0.0
 50
0.0
 51
0.0
 71
     0
 72
   100
 73
     1
 74
     1
 75
     0
 76
     0
 77
     0
 78
     0
  0
ENDTAB
  0
TABLE
  2
LTYPE
 70
     2
  0
LTYPE
  2
CONTINUOUS
 70
    64
  3
Solid line
 72
    65
 73
     0
 40
0.0
  0
LTYPE
  2
CENTER
 70
    64
  3
Center ____ _ ____ _ ____ _ ____ _ ____ _ ____
 72
    65
 73
     4
 40
50.8
 49
31.75
 49
-6.35
 49
6.35
 49
-6.35
  0
ENDTAB
  0
TABLE
  2
LAYER
 70
     3
  0
LAYER
  2
0
 70
     0
 62
     7
  6
CONTINUOUS
  0
LAYER
  2
LY_1
 70
     0
 62
     7
  6
CONTINUOUS
  0
LAYER
  2
DEFPOINTS
 70
     0
 62
     7
  6
CONTINUOUS
  0
ENDTAB
  0
TABLE
  2
STYLE
 70
     1
  0
STYLE
  2
MX_NOTE_STANDARD
 70
     0
 40
0.0
 41
1.0
 50
0.0
 71
     0
 42
3.15
  3
txt.shx
  4
extfont.shx
  0
ENDTAB
  0
TABLE
  2
VIEW
 70
     0
  0
ENDTAB
  0
TABLE
  2
UCS
 70
     0
  0
ENDTAB
  0
TABLE
  2
APPID
 70
     1
  0
APPID
  2
ACAD
 70
     0
  0
ENDTAB
  0
TABLE
  2
DIMSTYLE
 70
     1
  0
DIMSTYLE
  2
MXDIMSTYLE
 70
     0
  3

  4

  5

  6

  7

 40
1.0
 41
2.5
 42
1.0
 43
3.75
 44
1.5
 45
0.0
 46
0.0
 47
0.0
 48
0.0
 71
     0
 72
     0
 73
     0
 74
     0
 75
     0
 76
     0
 77
     1
 78
     8
140
3.15
141
2.5
142
0.0
143
0.03937
144
1.0
145
0.0
146
1.0
147
1.0
170
     0
171
     4
172
     1
173
     0
174
     0
175
     0
176
     0
177
     0
178
     0
  0
ENDTAB
  0
ENDSEC
  0
SECTION
  2
BLOCKS
  0
ENDSEC
  0
SECTION
  2
ENTITIES
  0
LINE
  8
LY_1
  6
CENTER
 62
     7
  5
20
 10
1151.499959
 20
154.92001
 30
0.0
 11
1151.499959
 21
85.0
 31
0.0
  0
LINE
  8
LY_1
  6
CONTINUOUS
 62
   251
  5
21
 10
1127.499959
 20
150.0
 30
0.0
 11
1126.499959
 21
149.0
 31
0.0
  0
LINE
  8
LY_1
  6
CONTINUOUS
 62
   251
  5
22
 10
1123.049969
 20
125.85
 30
0.0
 11
1123.049969
 21
122.0
 31
0.0
  0
LINE
  8
LY_1
  6
CONTINUOUS
 62
   251
  5
23
 10
1126.499959
 20
149.0
 30
0.0
 11
1126.499959
 21
125.85
 31
0.0
  0
LINE
  8
LY_1
  6
CONTINUOUS
 62
   251
  5
24
 10
1105.499959
 20
89.0
 30
0.0
 11
1105.499959
 21
88.04362
 31
0.0
  0
LINE
  8
LY_1
  6
CONTINUOUS
 62
   251
  5
25
 10
1175.499962
 20
150.0
 30
0.0
 11
1176.499962
 21
149.0
 31
0.0
  0
LINE
  8
LY_1
  6
CONTINUOUS
 62
   251
  5
26
 10
1175.499962
 20
150.0
 30
0.0
 11
1127.499959
 21
150.0
 31
0.0
  0
LINE
  8
LY_1
  6
CONTINUOUS
 62
   251
  5
27
 10
1179.949959
 20
125.85
 30
0.0
 11
1179.949959
 21
122.0
 31
0.0
  0
LINE
  8
LY_1
  6
CONTINUOUS
 62
   251
  5
28
 10
1176.499962
 20
149.0
 30
0.0
 11
1176.499962
 21
125.85
 31
0.0
  0
LINE
  8
LY_1
  6
CONTINUOUS
 62
   251
  5
29
 10
1180.499962
 20
122.0
 30
0.0
 11
1112.623359
 21
122.0
 31
0.0
  0
LINE
  8
LY_1
  6
CONTINUOUS
 62
   251
  5
2A
 10
1179.949959
 20
125.85
 30
0.0
 11
1125.389959
 21
125.85
 31
0.0
  0
LINE
  8
LY_1
  6
CONTINUOUS
 62
   251
  5
2B
 10
1180.049965
 20
125.85
 30
0.0
 11
1124.269969
 21
125.85
 31
0.0
  0
LINE
  8
LY_1
  6
CONTINUOUS
 62
   251
  5
2C
 10
1180.049965
 20
125.85
 30
0.0
 11
1123.049969
 21
125.85
 31
0.0
  0
LINE
  8
LY_1
  6
CONTINUOUS
 62
   251
  5
2D
 10
1180.499962
 20
122.0
 30
0.0
 11
1180.499962
 21
88.0
 31
0.0
  0
LINE
  8
LY_1
  6
CONTINUOUS
 62
   251
  5
2E
 10
958.999929
 20
-58.0001
 30
0.0
 11
1193.499947
 21
-58.0001
 31
0.0
  0
LINE
  8
LY_1
  6
CONTINUOUS
 62
   251
  5
2F
 10
1181.999947
 20
-42.000001
 30
0.0
 11
1032.999949
 21
-42.000001
 31
0.0
  0
LINE
  8
LY_1
  6
CONTINUOUS
 62
   251
  5
30
 10
1181.999947
 20
42.0
 30
0.0
 11
1032.999949
 21
42.0
 31
0.0
  0
LINE
  8
LY_1
  6
CONTINUOUS
 62
   251
  5
31
 10
1181.999947
 20
45.0
 30
0.0
 11
1032.999949
 21
45.0
 31
0.0
  0
LINE
  8
LY_1
  6
CONTINUOUS
 62
   251
  5
32
 10
1181.999947
 20
48.0
 30
0.0
 11
1032.999949
 21
48.0
 31
0.0
  0
LINE
  8
LY_1
  6
CONTINUOUS
 62
   251
  5
33
 10
1181.999947
 20
51.0
 30
0.0
 11
1032.999949
 21
51.0
 31
0.0
  0
LINE
  8
LY_1
  6
CONTINUOUS
 62
   251
  5
34
 10
1181.999947
 20
-45.000001
 30
0.0
 11
1032.999949
 21
-45.000001
 31
0.0
  0
LINE
  8
LY_1
  6
CONTINUOUS
 62
   251
  5
35
 10
1181.999947
 20
-48.000001
 30
0.0
 11
1032.999949
 21
-48.000001
 31
0.0
  0
LINE
  8
LY_1
  6
CONTINUOUS
 62
   251
  5
36
 10
1181.999947
 20
-51.000001
 30
0.0
 11
1032.999949
 21
-51.000001
 31
0.0
  0
LINE
  8
LY_1
  6
CONTINUOUS
 62
   251
  5
37
 10
958.999929
 20
88.0
 30
0.0
 11
958.999929
 21
-88.000001
 31
0.0
  0
LINE
  8
LY_1
  6
CONTINUOUS
 62
   251
  5
38
 10
960.999929
 20
88.0
 30
0.0
 11
960.999929
 21
-88.000001
 31
0.0
  0
LINE
  8
LY_1
  6
CONTINUOUS
 62
   251
  5
39
 10
1181.999947
 20
88.0
 30
0.0
 11
1181.999947
 21
-88.000001
 31
0.0
  0
LINE
  8
LY_1
  6
CONTINUOUS
 62
   251
  5
3A
 10
1032.999949
 20
-51.000001
 30
0.0
 11
960.999929
 21
-51.000001
 31
0.0
  0
LINE
  8
LY_1
  6
CONTINUOUS
 62
   251
  5
3B
 10
1032.999949
 20
-48.000001
 30
0.0
 11
960.999929
 21
-48.000001
 31
0.0
  0
LINE
  8
LY_1
  6
CONTINUOUS
 62
   251
  5
3C
 10
1032.999949
 20
-45.000001
 30
0.0
 11
960.999929
 21
-45.000001
 31
0.0
  0
LINE
  8
LY_1
  6
CONTINUOUS
 62
   251
  5
3D
 10
1032.999949
 20
-42.000001
 30
0.0
 11
960.999929
 21
-42.000001
 31
0.0
  0
LINE
  8
LY_1
  6
CONTINUOUS
 62
   251
  5
3E
 10
1032.999949
 20
42.0
 30
0.0
 11
960.999929
 21
42.0
 31
0.0
  0
LINE
  8
LY_1
  6
CONTINUOUS
 62
   251
  5
3F
 10
1032.999949
 20
45.0
 30
0.0
 11
960.999929
 21
45.0
 31
0.0
  0
LINE
  8
LY_1
  6
CONTINUOUS
 62
   251
  5
40
 10
1032.999949
 20
48.0
 30
0.0
 11
960.999929
 21
48.0
 31
0.0
  0
LINE
  8
LY_1
  6
CONTINUOUS
 62
   251
  5
41
 10
1032.999949
 20
51.0
 30
0.0
 11
960.999929
 21
51.0
 31
0.0
  0
LINE
  8
LY_1
  6
CONTINUOUS
 62
   251
  5
42
 10
958.999929
 20
57.99989
 30
0.0
 11
1193.499947
 21
57.99989
 31
0.0
  0
LINE
  8
LY_1
  6
CONTINUOUS
 62
   251
  5
43
 10
1227.299946
 20
81.09999
 30
0.0
 11
1199.69994
 21
81.09999
 31
0.0
  0
LINE
  8
LY_1
  6
CONTINUOUS
 62
   251
  5
44
 10
1198.699944
 20
80.099994
 30
0.0
 11
1198.699944
 21
61.8
 31
0.0
  0
LINE
  8
LY_1
  6
CONTINUOUS
 62
   251
  5
45
 10
1200.499947
 20
42.5
 30
0.0
 11
1193.499947
 21
42.5
 31
0.0
  0
LINE
  8
LY_1
  6
CONTINUOUS
 62
   251
  5
46
 10
1232.999943
 20
58.0
 30
0.0
 11
1193.999947
 21
58.0
 31
0.0
  0
LINE
  8
LY_1
  6
CONTINUOUS
 62
   251
  5
47
 10
1232.549946
 20
61.8
 30
0.0
 11
1232.549946
 21
58.0
 31
0.0
  0
LINE
  8
LY_1
  6
CONTINUOUS
 62
   251
  5
48
 10
1232.549946
 20
61.8
 30
0.0
 11
1194.449944
 21
61.8
 31
0.0
  0
LINE
  8
LY_1
  6
CONTINUOUS
 62
   251
  5
49
 10
1228.299946
 20
80.09999
 30
0.0
 11
1227.299946
 21
81.09999
 31
0.0
  0
LINE
  8
LY_1
  6
CONTINUOUS
 62
   251
  5
4A
 10
1228.299946
 20
80.09999
 30
0.0
 11
1228.299946
 21
61.8
 31
0.0
  0
LINE
  8
LY_1
  6
CONTINUOUS
 62
   251
  5
4B
 10
1206.499943
 20
42.5
 30
0.0
 11
1200.499947
 21
42.5
 31
0.0
  0
LINE
  8
LY_1
  6
CENTER
 62
     7
  5
4C
 10
1213.499943
 20
87.84274
 30
0.0
 11
1213.499943
 21
54.5408
 31
0.0
  0
LINE
  8
LY_1
  6
CONTINUOUS
 62
   251
  5
4D
 10
1232.999943
 20
33.48497
 30
0.0
 11
1231.499943
 21
34.34738
 31
0.0
  0
LINE
  8
LY_1
  6
CONTINUOUS
 62
   251
  5
4E
 10
1231.499943
 20
34.34738
 30
0.0
 11
1206.499943
 21
34.34738
 31
0.0
  0
LINE
  8
LY_1
  6
CONTINUOUS
 62
   251
  5
4F
 10
1206.499943
 20
27.50346
 30
0.0
 11
1193.499947
 21
27.50346
 31
0.0
  0
LINE
  8
LY_1
  6
CONTINUOUS
 62
   251
  5
50
 10
1200.499947
 20
42.5
 30
0.0
 11
1200.499947
 21
-42.500001
 31
0.0
  0
LINE
  8
LY_1
  6
CONTINUOUS
 62
   251
  5
51
 10
1232.999943
 20
58.0
 30
0.0
 11
1232.999943
 21
-30.0
 31
0.0
  0
LINE
  8
LY_1
  6
CONTINUOUS
 62
   251
  5
52
 10
1206.499943
 20
42.5
 30
0.0
 11
1206.499943
 21
-42.500001
 31
0.0
  0
LINE
  8
LY_1
  6
CONTINUOUS
 62
   251
  5
53
 10
1230.855835
 20
-39.184289
 30
0.0
 11
1206.499943
 21
-40.034814
 31
0.0
  0
LINE
  8
LY_1
  6
CONTINUOUS
 62
   251
  5
54
 10
1206.499943
 20
-27.50368
 30
0.0
 11
1193.499947
 21
-27.50368
 31
0.0
  0
LINE
  8
LY_1
  6
CONTINUOUS
 62
   251
  5
55
 10
1206.499943
 20
-42.500001
 30
0.0
 11
1193.499947
 21
-42.500001
 31
0.0
  0
LINE
  8
LY_1
  6
CONTINUOUS
 62
   251
  5
56
 10
1193.499947
 20
88.0
 30
0.0
 11
1193.499947
 21
-88.000001
 31
0.0
  0
LINE
  8
LY_1
  6
CONTINUOUS
 62
   251
  5
57
 10
1193.999947
 20
58.0
 30
0.0
 11
1193.999947
 21
42.5
 31
0.0
  0
LINE
  8
LY_1
  6
CONTINUOUS
 62
   251
  5
58
 10
1194.449944
 20
61.8
 30
0.0
 11
1194.449944
 21
58.0
 31
0.0
  0
LINE
  8
LY_1
  6
CONTINUOUS
 62
   251
  5
59
 10
1198.69994
 20
80.09999
 30
0.0
 11
1199.69994
 21
81.09999
 31
0.0
  0
ARC
  8
LY_1
  6
CONTINUOUS
 62
   251
  5
5A
 10
1185.499962
 20
89.0
 30
0.0
 40
80.0
 50
155.63802
 51
180.0
  0
ARC
  8
LY_1
  6
CONTINUOUS
 62
   251
  5
5B
 10
1202.999947
 20
-30.0
 30
0.0
 40
30.0
 50
343.6062
 51
0.00001
  0
ARC
  8
LY_1
  6
CONTINUOUS
 62
   251
  5
5C
 10
1230.820935
 20
-38.1849
 30
0.0
 40
1.0
 50
271.999998
 51
343.6062
  0
LINE
  8
LY_1
  6
CONTINUOUS
 62
   251
  5
5D
 10
940.999929
 20
-88.000001
 30
0.0
 11
1193.499947
 21
-88.000001
 31
0.0
  0
LINE
  8
LY_1
  6
CONTINUOUS
 62
   251
  5
5E
 10
940.999929
 20
88.0
 30
0.0
 11
1193.499947
 21
88.0
 31
0.0
  0
LINE
  8
LY_1
  6
CONTINUOUS
 62
   251
  5
5F
 10
958.999929
 20
73.806
 30
0.0
 11
940.999929
 21
73.806
 31
0.0
  0
LINE
  8
LY_1
  6
CONTINUOUS
 62
   251
  5
60
 10
958.999929
 20
-73.806005
 30
0.0
 11
940.999929
 21
-73.806005
 31
0.0
  0
LINE
  8
LY_1
  6
CONTINUOUS
 62
   251
  5
61
 10
799.999943
 20
240.440024
 30
0.0
 11
810.99998
 21
240.440013
 31
0.0
  0
POLYLINE
  8
LY_1
  6
CONTINUOUS
 62
     7
  5
62
 66
     1
 10
0.0
 20
0.0
 30
0.0
  0
VERTEX
  8
LY_1
  6
CONTINUOUS
 62
     7
  5
127
 10
481.999488
 20
144.493095
 30
0.0
  0
VERTEX
  8
LY_1
  6
CONTINUOUS
 62
     7
  5
128
 10
482.483055
 20
144.271121
 30
0.0
  0
VERTEX
  8
LY_1
  6
CONTINUOUS
 62
     7
  5
129
 10
482.963884
 20
144.043734
 30
0.0
  0
VERTEX
  8
LY_1
  6
CONTINUOUS
 62
     7
  5
12A
 10
483.441707
 20
143.810935
 30
0.0
  0
VERTEX
  8
LY_1
  6
CONTINUOUS
 62
     7
  5
12B
 10
483.916261
 20
143.572723
 30
0.0
  0
VERTEX
  8
LY_1
  6
CONTINUOUS
 62
     7
  5
12C
 10
484.387278
 20
143.329098
 30
0.0
  0
VERTEX
  8
LY_1
  6
CONTINUOUS
 62
     7
  5
12D
 10
484.854493
 20
143.08006
 30
0.0
  0
VERTEX
  8
LY_1
  6
CONTINUOUS
 62
     7
  5
12E
 10
485.31764
 20
142.825609
 30
0.0
  0
VERTEX
  8
LY_1
  6
CONTINUOUS
 62
     7
  5
12F
 10
485.776455
 20
142.565745
 30
0.0
  0
VERTEX
  8
LY_1
  6
CONTINUOUS
 62
     7
  5
130
 10
486.23067
 20
142.300468
 30
0.0
  0
VERTEX
  8
LY_1
  6
CONTINUOUS
 62
     7
  5
131
 10
486.68002
 20
142.029778
 30
0.0
  0
VERTEX
  8
LY_1
  6
CONTINUOUS
 62
     7
  5
132
 10
487.12424
 20
141.753675
 30
0.0
  0
VERTEX
  8
LY_1
  6
CONTINUOUS
 62
     7
  5
133
 10
487.563064
 20
141.472159
 30
0.0
  0
VERTEX
  8
LY_1
  6
CONTINUOUS
 62
     7
  5
134
 10
487.996226
 20
141.185229
 30
0.0
  0
VERTEX
  8
LY_1
  6
CONTINUOUS
 62
     7
  5
135
 10
488.42346
 20
140.892886
 30
0.0
  0
VERTEX
  8
LY_1
  6
CONTINUOUS
 62
     7
  5
136
 10
488.8445
 20
140.59513
 30
0.0
  0
VERTEX
  8
LY_1
  6
CONTINUOUS
 62
     7
  5
137
 10
489.259082
 20
140.29196
 30
0.0
  0
VERTEX
  8
LY_1
  6
CONTINUOUS
 62
     7
  5
138
 10
489.666939
 20
139.983376
 30
0.0
  0
VERTEX
  8
LY_1
  6
CONTINUOUS
 62
     7
  5
139
 10
490.067805
 20
139.66938
 30
0.0
  0
VERTEX
  8
LY_1
  6
CONTINUOUS
 62
     7
  5
13A
 10
490.461415
 20
139.349969
 30
0.0
  0
VERTEX
  8
LY_1
  6
CONTINUOUS
 62
     7
  5
13B
 10
490.847503
 20
139.025145
 30
0.0
  0
VERTEX
  8
LY_1
  6
CONTINUOUS
 62
     7
  5
13C
 10
491.225803
 20
138.694907
 30
0.0
  0
VERTEX
  8
LY_1
  6
CONTINUOUS
 62
     7
  5
13D
 10
491.596049
 20
138.359256
 30
0.0
  0
VERTEX
  8
LY_1
  6
CONTINUOUS
 62
     7
  5
13E
 10
491.957977
 20
138.018191
 30
0.0
  0
VERTEX
  8
LY_1
  6
CONTINUOUS
 62
     7
  5
13F
 10
492.31132
 20
137.671712
 30
0.0
  0
VERTEX
  8
LY_1
  6
CONTINUOUS
 62
     7
  5
140
 10
492.655812
 20
137.319819
 30
0.0
  0
VERTEX
  8
LY_1
  6
CONTINUOUS
 62
     7
  5
141
 10
492.991187
 20
136.962512
 30
0.0
  0
VERTEX
  8
LY_1
  6
CONTINUOUS
 62
     7
  5
142
 10
493.317181
 20
136.599791
 30
0.0
  0
VERTEX
  8
LY_1
  6
CONTINUOUS
 62
     7
  5
143
 10
493.633526
 20
136.231656
 30
0.0
  0
VERTEX
  8
LY_1
  6
CONTINUOUS
 62
     7
  5
144
 10
493.939959
 20
135.858107
 30
0.0
  0
VERTEX
  8
LY_1
  6
CONTINUOUS
 62
     7
  5
145
 10
494.236212
 20
135.479144
 30
0.0
  0
VERTEX
  8
LY_1
  6
CONTINUOUS
 62
     7
  5
146
 10
494.52202
 20
135.094766
 30
0.0
  0
VERTEX
  8
LY_1
  6
CONTINUOUS
 62
     7
  5
147
 10
494.797117
 20
134.704974
 30
0.0
  0
VERTEX
  8
LY_1
  6
CONTINUOUS
 62
     7
  5
148
 10
495.329789
 20
133.884728
 30
0.0
  0
VERTEX
  8
LY_1
  6
CONTINUOUS
 62
     7
  5
149
 10
495.817425
 20
133.042311
 30
0.0
  0
VERTEX
  8
LY_1
  6
CONTINUOUS
 62
     7
  5
14A
 10
496.261604
 20
132.178546
 30
0.0
  0
VERTEX
  8
LY_1
  6
CONTINUOUS
 62
     7
  5
14B
 10
496.663909
 20
131.294257
 30
0.0
  0
VERTEX
  8
LY_1
  6
CONTINUOUS
 62
     7
  5
14C
 10
497.025921
 20
130.390269
 30
0.0
  0
VERTEX
  8
LY_1
  6
CONTINUOUS
 62
     7
  5
14D
 10
497.349221
 20
129.467405
 30
0.0
  0
VERTEX
  8
LY_1
  6
CONTINUOUS
 62
     7
  5
14E
 10
497.635391
 20
128.52649
 30
0.0
  0
VERTEX
  8
LY_1
  6
CONTINUOUS
 62
     7
  5
14F
 10
497.886012
 20
127.568346
 30
0.0
  0
VERTEX
  8
LY_1
  6
CONTINUOUS
 62
     7
  5
150
 10
498.102665
 20
126.593798
 30
0.0
  0
VERTEX
  8
LY_1
  6
CONTINUOUS
 62
     7
  5
151
 10
498.286932
 20
125.603671
 30
0.0
  0
VERTEX
  8
LY_1
  6
CONTINUOUS
 62
     7
  5
152
 10
498.440394
 20
124.598787
 30
0.0
  0
VERTEX
  8
LY_1
  6
CONTINUOUS
 62
     7
  5
153
 10
498.564633
 20
123.579972
 30
0.0
  0
VERTEX
  8
LY_1
  6
CONTINUOUS
 62
     7
  5
154
 10
498.661229
 20
122.548048
 30
0.0
  0
VERTEX
  8
LY_1
  6
CONTINUOUS
 62
     7
  5
155
 10
498.731765
 20
121.50384
 30
0.0
  0
VERTEX
  8
LY_1
  6
CONTINUOUS
 62
     7
  5
156
 10
498.777821
 20
120.448171
 30
0.0
  0
VERTEX
  8
LY_1
  6
CONTINUOUS
 62
     7
  5
157
 10
498.800979
 20
119.381866
 30
0.0
  0
VERTEX
  8
LY_1
  6
CONTINUOUS
 62
     7
  5
158
 10
498.802821
 20
118.305749
 30
0.0
  0
VERTEX
  8
LY_1
  6
CONTINUOUS
 62
     7
  5
159
 10
498.784927
 20
117.220643
 30
0.0
  0
VERTEX
  8
LY_1
  6
CONTINUOUS
 62
     7
  5
15A
 10
498.748879
 20
116.127373
 30
0.0
  0
VERTEX
  8
LY_1
  6
CONTINUOUS
 62
     7
  5
15B
 10
498.696259
 20
115.026761
 30
0.0
  0
VERTEX
  8
LY_1
  6
CONTINUOUS
 62
     7
  5
15C
 10
498.628648
 20
113.919633
 30
0.0
  0
VERTEX
  8
LY_1
  6
CONTINUOUS
 62
     7
  5
15D
 10
498.547626
 20
112.806813
 30
0.0
  0
VERTEX
  8
LY_1
  6
CONTINUOUS
 62
     7
  5
15E
 10
498.454777
 20
111.689123
 30
0.0
  0
VERTEX
  8
LY_1
  6
CONTINUOUS
 62
     7
  5
15F
 10
498.35168
 20
110.567388
 30
0.0
  0
VERTEX
  8
LY_1
  6
CONTINUOUS
 62
     7
  5
160
 10
498.239918
 20
109.442433
 30
0.0
  0
VERTEX
  8
LY_1
  6
CONTINUOUS
 62
     7
  5
161
 10
498.121071
 20
108.31508
 30
0.0
  0
VERTEX
  8
LY_1
  6
CONTINUOUS
 62
     7
  5
162
 10
497.996721
 20
107.186154
 30
0.0
  0
VERTEX
  8
LY_1
  6
CONTINUOUS
 62
     7
  5
163
 10
497.86845
 20
106.056479
 30
0.0
  0
VERTEX
  8
LY_1
  6
CONTINUOUS
 62
     7
  5
164
 10
497.737838
 20
104.926878
 30
0.0
  0
VERTEX
  8
LY_1
  6
CONTINUOUS
 62
     7
  5
165
 10
497.606468
 20
103.798177
 30
0.0
  0
VERTEX
  8
LY_1
  6
CONTINUOUS
 62
     7
  5
166
 10
497.47592
 20
102.671197
 30
0.0
  0
VERTEX
  8
LY_1
  6
CONTINUOUS
 62
     7
  5
167
 10
497.347776
 20
101.546764
 30
0.0
  0
VERTEX
  8
LY_1
  6
CONTINUOUS
 62
     7
  5
168
 10
496.992968
 20
98.258682
 30
0.0
  0
VERTEX
  8
LY_1
  6
CONTINUOUS
 62
     7
  5
169
 10
496.671112
 20
94.998468
 30
0.0
  0
VERTEX
  8
LY_1
  6
CONTINUOUS
 62
     7
  5
16A
 10
496.380688
 20
91.764834
 30
0.0
  0
VERTEX
  8
LY_1
  6
CONTINUOUS
 62
     7
  5
16B
 10
496.120174
 20
88.556496
 30
0.0
  0
VERTEX
  8
LY_1
  6
CONTINUOUS
 62
     7
  5
16C
 10
495.888052
 20
85.372167
 30
0.0
  0
VERTEX
  8
LY_1
  6
CONTINUOUS
 62
     7
  5
16D
 10
495.6828
 20
82.210562
 30
0.0
  0
VERTEX
  8
LY_1
  6
CONTINUOUS
 62
     7
  5
16E
 10
495.502898
 20
79.070395
 30
0.0
  0
VERTEX
  8
LY_1
  6
CONTINUOUS
 62
     7
  5
16F
 10
495.346826
 20
75.95038
 30
0.0
  0
VERTEX
  8
LY_1
  6
CONTINUOUS
 62
     7
  5
170
 10
495.213063
 20
72.849231
 30
0.0
  0
VERTEX
  8
LY_1
  6
CONTINUOUS
 62
     7
  5
171
 10
495.100089
 20
69.765662
 30
0.0
  0
VERTEX
  8
LY_1
  6
CONTINUOUS
 62
     7
  5
172
 10
495.006384
 20
66.698388
 30
0.0
  0
VERTEX
  8
LY_1
  6
CONTINUOUS
 62
     7
  5
173
 10
494.930428
 20
63.646123
 30
0.0
  0
VERTEX
  8
LY_1
  6
CONTINUOUS
 62
     7
  5
174
 10
494.870699
 20
60.607581
 30
0.0
  0
VERTEX
  8
LY_1
  6
CONTINUOUS
 62
     7
  5
175
 10
494.825678
 20
57.581475
 30
0.0
  0
VERTEX
  8
LY_1
  6
CONTINUOUS
 62
     7
  5
176
 10
494.793845
 20
54.566521
 30
0.0
  0
VERTEX
  8
LY_1
  6
CONTINUOUS
 62
     7
  5
177
 10
494.773678
 20
51.561433
 30
0.0
  0
VERTEX
  8
LY_1
  6
CONTINUOUS
 62
     7
  5
178
 10
494.763658
 20
48.564924
 30
0.0
  0
VERTEX
  8
LY_1
  6
CONTINUOUS
 62
     7
  5
179
 10
494.762265
 20
45.575708
 30
0.0
  0
VERTEX
  8
LY_1
  6
CONTINUOUS
 62
     7
  5
17A
 10
494.767977
 20
42.592501
 30
0.0
  0
VERTEX
  8
LY_1
  6
CONTINUOUS
 62
     7
  5
17B
 10
494.779275
 20
39.614015
 30
0.0
  0
VERTEX
  8
LY_1
  6
CONTINUOUS
 62
     7
  5
17C
 10
494.794638
 20
36.638966
 30
0.0
  0
VERTEX
  8
LY_1
  6
CONTINUOUS
 62
     7
  5
17D
 10
494.812546
 20
33.666067
 30
0.0
  0
VERTEX
  8
LY_1
  6
CONTINUOUS
 62
     7
  5
17E
 10
494.831478
 20
30.694033
 30
0.0
  0
VERTEX
  8
LY_1
  6
CONTINUOUS
 62
     7
  5
17F
 10
494.849915
 20
27.721578
 30
0.0
  0
VERTEX
  8
LY_1
  6
CONTINUOUS
 62
     7
  5
180
 10
494.866336
 20
24.747415
 30
0.0
  0
VERTEX
  8
LY_1
  6
CONTINUOUS
 62
     7
  5
181
 10
494.87922
 20
21.77026
 30
0.0
  0
VERTEX
  8
LY_1
  6
CONTINUOUS
 62
     7
  5
182
 10
494.887047
 20
18.788825
 30
0.0
  0
VERTEX
  8
LY_1
  6
CONTINUOUS
 62
     7
  5
183
 10
494.888297
 20
15.801826
 30
0.0
  0
VERTEX
  8
LY_1
  6
CONTINUOUS
 62
     7
  5
184
 10
494.881449
 20
12.807977
 30
0.0
  0
VERTEX
  8
LY_1
  6
CONTINUOUS
 62
     7
  5
185
 10
494.864983
 20
9.805992
 30
0.0
  0
VERTEX
  8
LY_1
  6
CONTINUOUS
 62
     7
  5
186
 10
494.837379
 20
6.794584
 30
0.0
  0
VERTEX
  8
LY_1
  6
CONTINUOUS
 62
     7
  5
187
 10
494.797117
 20
3.772469
 30
0.0
  0
VERTEX
  8
LY_1
  6
CONTINUOUS
 62
     7
  5
188
 10
494.770708
 20
2.191637
 30
0.0
  0
VERTEX
  8
LY_1
  6
CONTINUOUS
 62
     7
  5
189
 10
494.740947
 20
0.607761
 30
0.0
  0
VERTEX
  8
LY_1
  6
CONTINUOUS
 62
     7
  5
18A
 10
494.70834
 20
-0.97894
 30
0.0
  0
VERTEX
  8
LY_1
  6
CONTINUOUS
 62
     7
  5
18B
 10
494.673393
 20
-2.568249
 30
0.0
  0
VERTEX
  8
LY_1
  6
CONTINUOUS
 62
     7
  5
18C
 10
494.636611
 20
-4.159946
 30
0.0
  0
VERTEX
  8
LY_1
  6
CONTINUOUS
 62
     7
  5
18D
 10
494.598499
 20
-5.753814
 30
0.0
  0
VERTEX
  8
LY_1
  6
CONTINUOUS
 62
     7
  5
18E
 10
494.559564
 20
-7.349634
 30
0.0
  0
VERTEX
  8
LY_1
  6
CONTINUOUS
 62
     7
  5
18F
 10
494.52031
 20
-8.947186
 30
0.0
  0
VERTEX
  8
LY_1
  6
CONTINUOUS
 62
     7
  5
190
 10
494.481244
 20
-10.546253
 30
0.0
  0
VERTEX
  8
LY_1
  6
CONTINUOUS
 62
     7
  5
191
 10
494.44287
 20
-12.146617
 30
0.0
  0
VERTEX
  8
LY_1
  6
CONTINUOUS
 62
     7
  5
192
 10
494.405694
 20
-13.748058
 30
0.0
  0
VERTEX
  8
LY_1
  6
CONTINUOUS
 62
     7
  5
193
 10
494.370222
 20
-15.350358
 30
0.0
  0
VERTEX
  8
LY_1
  6
CONTINUOUS
 62
     7
  5
194
 10
494.33696
 20
-16.953298
 30
0.0
  0
VERTEX
  8
LY_1
  6
CONTINUOUS
 62
     7
  5
195
 10
494.306413
 20
-18.556661
 30
0.0
  0
VERTEX
  8
LY_1
  6
CONTINUOUS
 62
     7
  5
196
 10
494.279085
 20
-20.160227
 30
0.0
  0
VERTEX
  8
LY_1
  6
CONTINUOUS
 62
     7
  5
197
 10
494.255484
 20
-21.763778
 30
0.0
  0
VERTEX
  8
LY_1
  6
CONTINUOUS
 62
     7
  5
198
 10
494.236115
 20
-23.367095
 30
0.0
  0
VERTEX
  8
LY_1
  6
CONTINUOUS
 62
     7
  5
199
 10
494.221482
 20
-24.969961
 30
0.0
  0
VERTEX
  8
LY_1
  6
CONTINUOUS
 62
     7
  5
19A
 10
494.212092
 20
-26.572155
 30
0.0
  0
VERTEX
  8
LY_1
  6
CONTINUOUS
 62
     7
  5
19B
 10
494.20845
 20
-28.173461
 30
0.0
  0
VERTEX
  8
LY_1
  6
CONTINUOUS
 62
     7
  5
19C
 10
494.211062
 20
-29.773659
 30
0.0
  0
VERTEX
  8
LY_1
  6
CONTINUOUS
 62
     7
  5
19D
 10
494.220433
 20
-31.372531
 30
0.0
  0
VERTEX
  8
LY_1
  6
CONTINUOUS
 62
     7
  5
19E
 10
494.237069
 20
-32.969858
 30
0.0
  0
VERTEX
  8
LY_1
  6
CONTINUOUS
 62
     7
  5
19F
 10
494.261475
 20
-34.565421
 30
0.0
  0
VERTEX
  8
LY_1
  6
CONTINUOUS
 62
     7
  5
1A0
 10
494.294157
 20
-36.159003
 30
0.0
  0
VERTEX
  8
LY_1
  6
CONTINUOUS
 62
     7
  5
1A1
 10
494.33562
 20
-37.750385
 30
0.0
  0
VERTEX
  8
LY_1
  6
CONTINUOUS
 62
     7
  5
1A2
 10
494.38637
 20
-39.339348
 30
0.0
  0
VERTEX
  8
LY_1
  6
CONTINUOUS
 62
     7
  5
1A3
 10
494.446912
 20
-40.925674
 30
0.0
  0
VERTEX
  8
LY_1
  6
CONTINUOUS
 62
     7
  5
1A4
 10
494.517753
 20
-42.509143
 30
0.0
  0
VERTEX
  8
LY_1
  6
CONTINUOUS
 62
     7
  5
1A5
 10
494.599396
 20
-44.089539
 30
0.0
  0
VERTEX
  8
LY_1
  6
CONTINUOUS
 62
     7
  5
1A6
 10
494.692349
 20
-45.666641
 30
0.0
  0
VERTEX
  8
LY_1
  6
CONTINUOUS
 62
     7
  5
1A7
 10
494.797117
 20
-47.240232
 30
0.0
  0
VERTEX
  8
LY_1
  6
CONTINUOUS
 62
     7
  5
1A8
 10
494.852411
 20
-48.003551
 30
0.0
  0
VERTEX
  8
LY_1
  6
CONTINUOUS
 62
     7
  5
1A9
 10
494.910494
 20
-48.766111
 30
0.0
  0
VERTEX
  8
LY_1
  6
CONTINUOUS
 62
     7
  5
1AA
 10
494.971242
 20
-49.528035
 30
0.0
  0
VERTEX
  8
LY_1
  6
CONTINUOUS
 62
     7
  5
1AB
 10
495.034536
 20
-50.289445
 30
0.0
  0
VERTEX
  8
LY_1
  6
CONTINUOUS
 62
     7
  5
1AC
 10
495.100254
 20
-51.050463
 30
0.0
  0
VERTEX
  8
LY_1
  6
CONTINUOUS
 62
     7
  5
1AD
 10
495.168275
 20
-51.811212
 30
0.0
  0
VERTEX
  8
LY_1
  6
CONTINUOUS
 62
     7
  5
1AE
 10
495.238477
 20
-52.571813
 30
0.0
  0
VERTEX
  8
LY_1
  6
CONTINUOUS
 62
     7
  5
1AF
 10
495.31074
 20
-53.332388
 30
0.0
  0
VERTEX
  8
LY_1
  6
CONTINUOUS
 62
     7
  5
1B0
 10
495.384941
 20
-54.093061
 30
0.0
  0
VERTEX
  8
LY_1
  6
CONTINUOUS
 62
     7
  5
1B1
 10
495.46096
 20
-54.853953
 30
0.0
  0
VERTEX
  8
LY_1
  6
CONTINUOUS
 62
     7
  5
1B2
 10
495.538675
 20
-55.615186
 30
0.0
  0
VERTEX
  8
LY_1
  6
CONTINUOUS
 62
     7
  5
1B3
 10
495.617965
 20
-56.376883
 30
0.0
  0
VERTEX
  8
LY_1
  6
CONTINUOUS
 62
     7
  5
1B4
 10
495.698709
 20
-57.139166
 30
0.0
  0
VERTEX
  8
LY_1
  6
CONTINUOUS
 62
     7
  5
1B5
 10
495.780786
 20
-57.902156
 30
0.0
  0
VERTEX
  8
LY_1
  6
CONTINUOUS
 62
     7
  5
1B6
 10
495.864074
 20
-58.665977
 30
0.0
  0
VERTEX
  8
LY_1
  6
CONTINUOUS
 62
     7
  5
1B7
 10
495.948451
 20
-59.43075
 30
0.0
  0
VERTEX
  8
LY_1
  6
CONTINUOUS
 62
     7
  5
1B8
 10
496.033798
 20
-60.196598
 30
0.0
  0
VERTEX
  8
LY_1
  6
CONTINUOUS
 62
     7
  5
1B9
 10
496.119992
 20
-60.963642
 30
0.0
  0
VERTEX
  8
LY_1
  6
CONTINUOUS
 62
     7
  5
1BA
 10
496.206912
 20
-61.732005
 30
0.0
  0
VERTEX
  8
LY_1
  6
CONTINUOUS
 62
     7
  5
1BB
 10
496.294437
 20
-62.501809
 30
0.0
  0
VERTEX
  8
LY_1
  6
CONTINUOUS
 62
     7
  5
1BC
 10
496.382446
 20
-63.273177
 30
0.0
  0
VERTEX
  8
LY_1
  6
CONTINUOUS
 62
     7
  5
1BD
 10
496.470817
 20
-64.04623
 30
0.0
  0
VERTEX
  8
LY_1
  6
CONTINUOUS
 62
     7
  5
1BE
 10
496.559429
 20
-64.821091
 30
0.0
  0
VERTEX
  8
LY_1
  6
CONTINUOUS
 62
     7
  5
1BF
 10
496.648161
 20
-65.597882
 30
0.0
  0
VERTEX
  8
LY_1
  6
CONTINUOUS
 62
     7
  5
1C0
 10
496.736891
 20
-66.376725
 30
0.0
  0
VERTEX
  8
LY_1
  6
CONTINUOUS
 62
     7
  5
1C1
 10
496.825499
 20
-67.157742
 30
0.0
  0
VERTEX
  8
LY_1
  6
CONTINUOUS
 62
     7
  5
1C2
 10
496.913862
 20
-67.941056
 30
0.0
  0
VERTEX
  8
LY_1
  6
CONTINUOUS
 62
     7
  5
1C3
 10
497.001861
 20
-68.726788
 30
0.0
  0
VERTEX
  8
LY_1
  6
CONTINUOUS
 62
     7
  5
1C4
 10
497.089373
 20
-69.515062
 30
0.0
  0
VERTEX
  8
LY_1
  6
CONTINUOUS
 62
     7
  5
1C5
 10
497.176277
 20
-70.305998
 30
0.0
  0
VERTEX
  8
LY_1
  6
CONTINUOUS
 62
     7
  5
1C6
 10
497.262452
 20
-71.09972
 30
0.0
  0
VERTEX
  8
LY_1
  6
CONTINUOUS
 62
     7
  5
1C7
 10
497.347776
 20
-71.89635
 30
0.0
  0
VERTEX
  8
LY_1
  6
CONTINUOUS
 62
     7
  5
1C8
 10
497.489818
 20
-73.251925
 30
0.0
  0
VERTEX
  8
LY_1
  6
CONTINUOUS
 62
     7
  5
1C9
 10
497.627559
 20
-74.615082
 30
0.0
  0
VERTEX
  8
LY_1
  6
CONTINUOUS
 62
     7
  5
1CA
 10
497.759485
 20
-75.984717
 30
0.0
  0
VERTEX
  8
LY_1
  6
CONTINUOUS
 62
     7
  5
1CB
 10
497.884081
 20
-77.359725
 30
0.0
  0
VERTEX
  8
LY_1
  6
CONTINUOUS
 62
     7
  5
1CC
 10
497.999832
 20
-78.739001
 30
0.0
  0
VERTEX
  8
LY_1
  6
CONTINUOUS
 62
     7
  5
1CD
 10
498.105223
 20
-80.12144
 30
0.0
  0
VERTEX
  8
LY_1
  6
CONTINUOUS
 62
     7
  5
1CE
 10
498.19874
 20
-81.505939
 30
0.0
  0
VERTEX
  8
LY_1
  6
CONTINUOUS
 62
     7
  5
1CF
 10
498.278868
 20
-82.891392
 30
0.0
  0
VERTEX
  8
LY_1
  6
CONTINUOUS
 62
     7
  5
1D0
 10
498.344091
 20
-84.276695
 30
0.0
  0
VERTEX
  8
LY_1
  6
CONTINUOUS
 62
     7
  5
1D1
 10
498.392895
 20
-85.660744
 30
0.0
  0
VERTEX
  8
LY_1
  6
CONTINUOUS
 62
     7
  5
1D2
 10
498.423765
 20
-87.042434
 30
0.0
  0
VERTEX
  8
LY_1
  6
CONTINUOUS
 62
     7
  5
1D3
 10
498.435186
 20
-88.420659
 30
0.0
  0
VERTEX
  8
LY_1
  6
CONTINUOUS
 62
     7
  5
1D4
 10
498.425643
 20
-89.794317
 30
0.0
  0
VERTEX
  8
LY_1
  6
CONTINUOUS
 62
     7
  5
1D5
 10
498.393622
 20
-91.162301
 30
0.0
  0
VERTEX
  8
LY_1
  6
CONTINUOUS
 62
     7
  5
1D6
 10
498.337607
 20
-92.523508
 30
0.0
  0
VERTEX
  8
LY_1
  6
CONTINUOUS
 62
     7
  5
1D7
 10
498.256084
 20
-93.876833
 30
0.0
  0
VERTEX
  8
LY_1
  6
CONTINUOUS
 62
     7
  5
1D8
 10
498.147538
 20
-95.221171
 30
0.0
  0
VERTEX
  8
LY_1
  6
CONTINUOUS
 62
     7
  5
1D9
 10
498.010454
 20
-96.555418
 30
0.0
  0
VERTEX
  8
LY_1
  6
CONTINUOUS
 62
     7
  5
1DA
 10
497.843317
 20
-97.878469
 30
0.0
  0
VERTEX
  8
LY_1
  6
CONTINUOUS
 62
     7
  5
1DB
 10
497.644612
 20
-99.18922
 30
0.0
  0
VERTEX
  8
LY_1
  6
CONTINUOUS
 62
     7
  5
1DC
 10
497.412824
 20
-100.486566
 30
0.0
  0
VERTEX
  8
LY_1
  6
CONTINUOUS
 62
     7
  5
1DD
 10
497.146439
 20
-101.769403
 30
0.0
  0
VERTEX
  8
LY_1
  6
CONTINUOUS
 62
     7
  5
1DE
 10
496.843942
 20
-103.036625
 30
0.0
  0
VERTEX
  8
LY_1
  6
CONTINUOUS
 62
     7
  5
1DF
 10
496.503817
 20
-104.287128
 30
0.0
  0
VERTEX
  8
LY_1
  6
CONTINUOUS
 62
     7
  5
1E0
 10
496.124551
 20
-105.519809
 30
0.0
  0
VERTEX
  8
LY_1
  6
CONTINUOUS
 62
     7
  5
1E1
 10
495.704627
 20
-106.733561
 30
0.0
  0
VERTEX
  8
LY_1
  6
CONTINUOUS
 62
     7
  5
1E2
 10
495.242532
 20
-107.927281
 30
0.0
  0
VERTEX
  8
LY_1
  6
CONTINUOUS
 62
     7
  5
1E3
 10
494.73675
 20
-109.099864
 30
0.0
  0
VERTEX
  8
LY_1
  6
CONTINUOUS
 62
     7
  5
1E4
 10
494.185766
 20
-110.250206
 30
0.0
  0
VERTEX
  8
LY_1
  6
CONTINUOUS
 62
     7
  5
1E5
 10
493.588066
 20
-111.377201
 30
0.0
  0
VERTEX
  8
LY_1
  6
CONTINUOUS
 62
     7
  5
1E6
 10
492.942135
 20
-112.479745
 30
0.0
  0
VERTEX
  8
LY_1
  6
CONTINUOUS
 62
     7
  5
1E7
 10
492.246458
 20
-113.556735
 30
0.0
  0
VERTEX
  8
LY_1
  6
CONTINUOUS
 62
     7
  5
1E8
 10
491.74378
 20
-114.274902
 30
0.0
  0
VERTEX
  8
LY_1
  6
CONTINUOUS
 62
     7
  5
1E9
 10
491.21829
 20
-114.980677
 30
0.0
  0
VERTEX
  8
LY_1
  6
CONTINUOUS
 62
     7
  5
1EA
 10
490.670942
 20
-115.674028
 30
0.0
  0
VERTEX
  8
LY_1
  6
CONTINUOUS
 62
     7
  5
1EB
 10
490.102689
 20
-116.354923
 30
0.0
  0
VERTEX
  8
LY_1
  6
CONTINUOUS
 62
     7
  5
1EC
 10
489.514484
 20
-117.02333
 30
0.0
  0
VERTEX
  8
LY_1
  6
CONTINUOUS
 62
     7
  5
1ED
 10
488.907279
 20
-117.679218
 30
0.0
  0
VERTEX
  8
LY_1
  6
CONTINUOUS
 62
     7
  5
1EE
 10
488.282029
 20
-118.322555
 30
0.0
  0
VERTEX
  8
LY_1
  6
CONTINUOUS
 62
     7
  5
1EF
 10
487.639687
 20
-118.95331
 30
0.0
  0
VERTEX
  8
LY_1
  6
CONTINUOUS
 62
     7
  5
1F0
 10
486.981205
 20
-119.57145
 30
0.0
  0
VERTEX
  8
LY_1
  6
CONTINUOUS
 62
     7
  5
1F1
 10
486.307536
 20
-120.176944
 30
0.0
  0
VERTEX
  8
LY_1
  6
CONTINUOUS
 62
     7
  5
1F2
 10
485.619635
 20
-120.76976
 30
0.0
  0
VERTEX
  8
LY_1
  6
CONTINUOUS
 62
     7
  5
1F3
 10
484.918454
 20
-121.349866
 30
0.0
  0
VERTEX
  8
LY_1
  6
CONTINUOUS
 62
     7
  5
1F4
 10
484.204945
 20
-121.917232
 30
0.0
  0
VERTEX
  8
LY_1
  6
CONTINUOUS
 62
     7
  5
1F5
 10
483.480064
 20
-122.471824
 30
0.0
  0
VERTEX
  8
LY_1
  6
CONTINUOUS
 62
     7
  5
1F6
 10
482.744761
 20
-123.013612
 30
0.0
  0
VERTEX
  8
LY_1
  6
CONTINUOUS
 62
     7
  5
1F7
 10
481.999991
 20
-123.542564
 30
0.0
  0
SEQEND
  8
LY_1
  6
CONTINUOUS
 62
     7
  5
1F8
  0
CIRCLE
  8
LY_1
  6
CONTINUOUS
 62
   251
  5
63
 10
684.99997
 20
0.0
 30
0.0
 40
8.50755
  0
ARC
  8
LY_1
  6
CONTINUOUS
 62
   251
  5
64
 10
759.00001
 20
-125.000013
 30
0.0
 40
5.0
 50
90.000003
 51
180.000005
  0
ARC
  8
LY_1
  6
CONTINUOUS
 62
   251
  5
65
 10
732.000092
 20
-153.500023
 30
0.0
 40
5.0
 50
90.000003
 51
180.000005
  0
ARC
  8
LY_1
  6
CONTINUOUS
 62
   251
  5
66
 10
789.99997
 20
125.0
 30
0.0
 40
5.0
 50
179.999991
 51
270.000001
  0
ARC
  8
LY_1
  6
CONTINUOUS
 62
   251
  5
67
 10
834.99997
 20
125.0
 30
0.0
 40
5.0
 50
269.999997
 51
0.0
  0
ARC
  8
LY_1
  6
CONTINUOUS
 62
   251
  5
68
 10
834.99997
 20
-125.000013
 30
0.0
 40
5.0
 50
0.0
 51
90.000003
  0
ARC
  8
LY_1
  6
CONTINUOUS
 62
   251
  5
69
 10
700.406337
 20
184.055794
 30
0.0
 40
6.0
 50
126.423865
 51
189.999962
  0
ARC
  8
LY_1
  6
CONTINUOUS
 62
   251
  5
6A
 10
663.593593
 20
184.055794
 30
0.0
 40
6.0
 50
349.863635
 51
53.576154
  0
ARC
  8
LY_1
  6
CONTINUOUS
 62
   251
  5
6B
 10
691.234838
 20
189.999886
 30
0.0
 40
2.0
 50
9.999995
 51
89.999982
  0
ARC
  8
LY_1
  6
CONTINUOUS
 62
   251
  5
6C
 10
672.765117
 20
189.999886
 30
0.0
 40
2.0
 50
89.999982
 51
170.000021
  0
CIRCLE
  8
LY_1
  6
CONTINUOUS
 62
   251
  5
6D
 10
681.999965
 20
208.999885
 30
0.0
 40
15.0
  0
ARC
  8
LY_1
  6
CONTINUOUS
 62
   251
  5
6E
 10
681.999965
 20
208.999885
 30
0.0
 40
25.000002
 50
306.423846
 51
233.576132
  0
ARC
  8
LY_1
  6
CONTINUOUS
 62
   251
  5
6F
 10
0.0
 20
240.440026
 30
0.0
 40
16.000001
 50
120.294162
 51
180.000005
  0
ARC
  8
LY_1
  6
CONTINUOUS
 62
   251
  5
70
 10
0.0
 20
240.440026
 30
0.0
 40
16.000001
 50
0.0
 51
59.705838
  0
ARC
  8
LY_1
  6
CONTINUOUS
 62
   251
  5
71
 10
467.499995
 20
0.0
 30
0.0
 40
12.5
 50
269.999997
 51
90.000003
  0
CIRCLE
  8
LY_1
  6
CONTINUOUS
 62
   251
  5
72
 10
0.0
 20
0.0
 30
0.0
 40
165.0
  0
CIRCLE
  8
LY_1
  6
CONTINUOUS
 62
   251
  5
73
 10
0.0
 20
0.0
 30
0.0
 40
175.0
  0
CIRCLE
  8
LY_1
  6
CONTINUOUS
 62
   251
  5
74
 10
0.0
 20
0.0
 30
0.0
 40
7.0
  0
CIRCLE
  8
LY_1
  6
CONTINUOUS
 62
     7
  5
75
 10
0.0
 20
0.0
 30
0.0
 40
8.0
  0
CIRCLE
  8
LY_1
  6
CONTINUOUS
 62
   251
  5
76
 10
0.0
 20
0.0
 30
0.0
 40
132.5
  0
CIRCLE
  8
LY_1
  6
CONTINUOUS
 62
   251
  5
77
 10
0.0
 20
0.0
 30
0.0
 40
90.0
  0
ARC
  8
LY_1
  6
CENTER
 62
     7
  5
78
 10
0.0
 20
0.0
 30
0.0
 40
200.0
 50
288.570708
 51
296.459256
  0
CIRCLE
  8
LY_1
  6
CONTINUOUS
 62
   251
  5
79
 10
76.53656
 20
-184.775988
 30
0.0
 40
9.5
  0
ARC
  8
LY_1
  6
CENTER
 62
     7
  5
7A
 10
0.0
 20
0.0
 30
0.0
 40
200.0
 50
243.57071
 51
251.459258
  0
CIRCLE
  8
LY_1
  6
CONTINUOUS
 62
   251
  5
7B
 10
-76.536865
 20
-184.775861
 30
0.0
 40
9.5
  0
ARC
  8
LY_1
  6
CENTER
 62
     7
  5
7C
 10
0.0
 20
0.0
 30
0.0
 40
200.0
 50
198.570719
 51
206.45926
  0
CIRCLE
  8
LY_1
  6
CONTINUOUS
 62
   251
  5
7D
 10
-184.776001
 20
-76.536598
 30
0.0
 40
9.5
  0
ARC
  8
LY_1
  6
CENTER
 62
     7
  5
7E
 10
0.0
 20
0.0
 30
0.0
 40
200.0
 50
153.570711
 51
162.88508
  0
CIRCLE
  8
LY_1
  6
CONTINUOUS
 62
   251
  5
7F
 10
-184.775899
 20
76.536757
 30
0.0
 40
9.5
  0
ARC
  8
LY_1
  6
CENTER
 62
     7
  5
80
 10
0.0
 20
0.0
 30
0.0
 40
200.0
 50
108.570713
 51
116.459261
  0
CIRCLE
  8
LY_1
  6
CONTINUOUS
 62
   251
  5
81
 10
-76.536611
 20
184.776017
 30
0.0
 40
9.5
  0
ARC
  8
LY_1
  6
CENTER
 62
     7
  5
82
 10
0.0
 20
0.0
 30
0.0
 40
200.0
 50
63.570715
 51
71.459256
  0
CIRCLE
  8
LY_1
  6
CONTINUOUS
 62
   251
  5
83
 10
76.536764
 20
184.77589
 30
0.0
 40
9.5
  0
ARC
  8
LY_1
  6
CENTER
 62
     7
  5
84
 10
0.0
 20
0.0
 30
0.0
 40
200.0
 50
18.570719
 51
26.45926
  0
CIRCLE
  8
LY_1
  6
CONTINUOUS
 62
   251
  5
85
 10
184.77595
 20
76.53663
 30
0.0
 40
9.5
  0
CIRCLE
  8
LY_1
  6
CONTINUOUS
 62
   251
  5
86
 10
184.77595
 20
-76.536853
 30
0.0
 40
9.5
  0
ARC
  8
LY_1
  6
CENTER
 62
     7
  5
87
 10
0.0
 20
0.0
 30
0.0
 40
200.0
 50
333.570706
 51
342.498363
  0
ARC
  8
LY_1
  6
CONTINUOUS
 62
   251
  5
88
 10
0.0
 20
0.0
 30
0.0
 40
47.5
 50
15.257523
 51
344.742477
  0
CIRCLE
  8
LY_1
  6
CONTINUOUS
 62
   251
  5
89
 10
0.0
 20
0.0
 30
0.0
 40
225.0
  0
ARC
  8
LY_1
  6
CONTINUOUS
 62
   251
  5
8A
 10
594.999995
 20
118.267228
 30
0.0
 40
5.0
 50
248.380359
 51
0.0
  0
ARC
  8
LY_1
  6
CONTINUOUS
 62
   251
  5
8B
 10
594.999995
 20
139.48048
 30
0.0
 40
5.0
 50
248.380359
 51
0.0
  0
ARC
  8
LY_1
  6
CONTINUOUS
 62
   251
  5
8C
 10
519.999995
 20
147.99159
 30
0.0
 40
5.0
 50
179.999991
 51
248.380348
  0
ARC
  8
LY_1
  6
CONTINUOUS
 62
   251
  5
8D
 10
519.999995
 20
169.204841
 30
0.0
 40
5.0
 50
179.999991
 51
248.380348
  0
ARC
  8
LY_1
  6
CONTINUOUS
 62
   251
  5
8E
 10
519.999995
 20
-147.991549
 30
0.0
 40
5.0
 50
111.619641
 51
180.000005
  0
ARC
  8
LY_1
  6
CONTINUOUS
 62
   251
  5
8F
 10
519.999995
 20
-169.204826
 30
0.0
 40
5.0
 50
111.619641
 51
180.000005
  0
ARC
  8
LY_1
  6
CONTINUOUS
 62
   251
  5
90
 10
594.999995
 20
-139.480451
 30
0.0
 40
5.0
 50
0.0
 51
111.619641
  0
ARC
  8
LY_1
  6
CONTINUOUS
 62
   251
  5
91
 10
594.999995
 20
-118.267199
 30
0.0
 40
5.0
 50
0.0
 51
111.619641
  0
ARC
  8
LY_1
  6
CONTINUOUS
 62
   251
  5
92
 10
555.706045
 20
-90.006701
 30
0.0
 40
10.0
 50
89.999982
 51
125.552059
  0
ARC
  8
LY_1
  6
CONTINUOUS
 62
   251
  5
93
 10
555.706045
 20
90.006727
 30
0.0
 40
10.0
 50
234.44775
 51
270.000018
  0
ARC
  8
LY_1
  6
CONTINUOUS
 62
   251
  5
94
 10
524.999995
 20
187.500016
 30
0.0
 40
10.0
 50
179.999978
 51
270.000028
  0
ARC
  8
LY_1
  6
CONTINUOUS
 62
   251
  5
95
 10
780.99998
 20
219.440006
 30
0.0
 40
5.0
 50
90.000003
 51
180.000005
  0
ARC
  8
LY_1
  6
CONTINUOUS
 62
   251
  5
96
 10
775.99998
 20
224.440003
 30
0.0
 40
32.000001
 50
90.000003
 51
180.000005
  0
LINE
  8
LY_1
  6
CONTINUOUS
 62
   251
  5
97
 10
693.485256
 20
0.000003
 30
0.0
 11
684.99997
 21
-8.485281
 31
0.0
  0
LINE
  8
LY_1
  6
CONTINUOUS
 62
   251
  5
98
 10
684.99997
 20
-8.485281
 30
0.0
 11
676.51469
 21
0.0
 31
0.0
  0
LINE
  8
LY_1
  6
CONTINUOUS
 62
   251
  5
99
 10
684.999975
 20
8.485283
 30
0.0
 11
676.51469
 21
0.0
 31
0.0
  0
LINE
  8
LY_1
  6
CONTINUOUS
 62
   251
  5
9A
 10
693.485256
 20
0.000003
 30
0.0
 11
684.999975
 21
8.485283
 31
0.0
  0
LINE
  8
LY_1
  6
CONTINUOUS
 62
   251
  5
9B
 10
465.000005
 20
12.019382
 30
0.0
 11
465.000005
 21
-12.5
 31
0.0
  0
LINE
  8
LY_1
  6
CONTINUOUS
 62
   251
  5
9C
 10
52.500011
 20
12.5
 30
0.0
 11
52.500011
 21
-12.5
 31
0.0
  0
LINE
  8
LY_1
  6
CONTINUOUS
 62
   251
  5
9D
 10
919.00001
 20
-115.000013
 30
0.0
 11
940.999929
 21
-115.000013
 31
0.0
  0
LINE
  8
LY_1
  6
CONTINUOUS
 62
   251
  5
9E
 10
882.000092
 20
80.0
 30
0.0
 11
919.00001
 21
80.0
 31
0.0
  0
LINE
  8
LY_1
  6
CONTINUOUS
 62
   251
  5
9F
 10
882.000092
 20
-80.000013
 30
0.0
 11
919.00001
 21
-80.000013
 31
0.0
  0
LINE
  8
LY_1
  6
CONTINUOUS
 62
   251
  5
A0
 10
919.00001
 20
115.0
 30
0.0
 11
919.00001
 21
80.0
 31
0.0
  0
LINE
  8
LY_1
  6
CONTINUOUS
 62
   251
  5
A1
 10
882.000092
 20
-150.000013
 30
0.0
 11
882.000092
 21
-80.000013
 31
0.0
  0
LINE
  8
LY_1
  6
CONTINUOUS
 62
   251
  5
A2
 10
839.99997
 20
-150.000013
 30
0.0
 11
882.000092
 21
-150.000013
 31
0.0
  0
LINE
  8
LY_1
  6
CONTINUOUS
 62
   251
  5
A3
 10
919.00001
 20
80.0
 30
0.0
 11
919.00001
 21
-115.000013
 31
0.0
  0
LINE
  8
LY_1
  6
CONTINUOUS
 62
   251
  5
A4
 10
882.000092
 20
150.000011
 30
0.0
 11
882.000092
 21
-80.000013
 31
0.0
  0
LINE
  8
LY_1
  6
CONTINUOUS
 62
   251
  5
A5
 10
940.999929
 20
115.0
 30
0.0
 11
940.999929
 21
-115.000013
 31
0.0
  0
LINE
  8
LY_1
  6
CONTINUOUS
 62
   251
  5
A6
 10
919.00001
 20
115.0
 30
0.0
 11
940.999929
 21
115.0
 31
0.0
  0
LINE
  8
LY_1
  6
CONTINUOUS
 62
   251
  5
A7
 10
839.99997
 20
150.000011
 30
0.0
 11
882.000092
 21
150.000011
 31
0.0
  0
LINE
  8
LY_1
  6
CONTINUOUS
 62
   251
  5
A8
 10
761.013764
 20
144.214247
 30
0.0
 11
778.574392
 21
144.214247
 31
0.0
  0
LINE
  8
LY_1
  6
CONTINUOUS
 62
   251
  5
A9
 10
732.000092
 20
-148.500023
 30
0.0
 11
754.00001
 21
-148.500023
 31
0.0
  0
LINE
  8
LY_1
  6
CONTINUOUS
 62
   251
  5
AA
 10
754.00001
 20
139.431903
 30
0.0
 11
754.00001
 21
-148.500023
 31
0.0
  0
LINE
  8
LY_1
  6
CONTINUOUS
 62
   251
  5
AB
 10
784.99997
 20
177.500011
 30
0.0
 11
784.99997
 21
112.79335
 31
0.0
  0
LINE
  8
LY_1
  6
CONTINUOUS
 62
   251
  5
AC
 10
789.99997
 20
120.0
 30
0.0
 11
834.99997
 21
120.0
 31
0.0
  0
LINE
  8
LY_1
  6
CONTINUOUS
 62
   251
  5
AD
 10
759.00001
 20
-120.000013
 30
0.0
 11
834.99997
 21
-120.000013
 31
0.0
  0
LINE
  8
LY_1
  6
CONTINUOUS
 62
   251
  5
AE
 10
839.99997
 20
150.000011
 30
0.0
 11
839.99997
 21
-150.000013
 31
0.0
  0
LINE
  8
LY_1
  6
CONTINUOUS
 62
   251
  5
AF
 10
862.000092
 20
150.000011
 30
0.0
 11
862.000092
 21
-150.000013
 31
0.0
  0
LINE
  8
LY_1
  6
CONTINUOUS
 62
   251
  5
B0
 10
704.99997
 20
-177.500013
 30
0.0
 11
727.000092
 21
-177.500013
 31
0.0
  0
LINE
  8
LY_1
  6
CONTINUOUS
 62
   251
  5
B1
 10
727.000092
 20
171.626356
 30
0.0
 11
727.000092
 21
-177.500013
 31
0.0
  0
LINE
  8
LY_1
  6
CONTINUOUS
 62
   251
  5
B2
 10
681.999958
 20
182.999884
 30
0.0
 11
684.999986
 21
179.999856
 31
0.0
  0
LINE
  8
LY_1
  6
CONTINUOUS
 62
   251
  5
B3
 10
681.999958
 20
179.999874
 30
0.0
 11
678.999947
 21
182.999884
 31
0.0
  0
LINE
  8
LY_1
  6
CONTINUOUS
 62
   251
  5
B4
 10
671.24997
 20
182.999886
 30
0.0
 11
671.24997
 21
179.999886
 31
0.0
  0
LINE
  8
LY_1
  6
CONTINUOUS
 62
   251
  5
B5
 10
692.749985
 20
182.999886
 30
0.0
 11
692.749985
 21
179.999886
 31
0.0
  0
LINE
  8
LY_1
  6
CONTINUOUS
 62
   251
  5
B6
 10
669.499965
 20
182.999886
 30
0.0
 11
694.499965
 21
182.999886
 31
0.0
  0
LINE
  8
LY_1
  6
CONTINUOUS
 62
   251
  5
B7
 10
682.423196
 20
193.954582
 30
0.0
 11
691.658086
 21
191.954575
 31
0.0
  0
LINE
  8
LY_1
  6
CONTINUOUS
 62
   251
  5
B8
 10
672.341758
 20
191.954627
 30
0.0
 11
681.576648
 21
193.954634
 31
0.0
  0
LINE
  8
LY_1
  6
CONTINUOUS
 62
   251
  5
B9
 10
672.765117
 20
191.999885
 30
0.0
 11
691.234838
 21
191.999885
 31
0.0
  0
LINE
  8
LY_1
  6
CONTINUOUS
 62
   251
  5
BA
 10
693.20441
 20
190.34719
 30
0.0
 11
694.499947
 21
182.999839
 31
0.0
  0
LINE
  8
LY_1
  6
CONTINUOUS
 62
   251
  5
BB
 10
669.499986
 20
182.999866
 30
0.0
 11
670.795522
 21
190.347211
 31
0.0
  0
LINE
  8
LY_1
  6
CENTER
 62
     7
  5
BC
 10
684.99997
 20
10.507571
 30
0.0
 11
684.99997
 21
-10.507571
 31
0.0
  0
LINE
  8
LY_1
  6
CONTINUOUS
 62
   251
  5
BD
 10
624.99997
 20
-180.000013
 30
0.0
 11
704.99997
 21
-180.000013
 31
0.0
  0
LINE
  8
LY_1
  6
CONTINUOUS
 62
   251
  5
BE
 10
624.99997
 20
179.999886
 30
0.0
 11
704.99997
 21
179.999886
 31
0.0
  0
LINE
  8
LY_1
  6
CONTINUOUS
 62
   251
  5
BF
 10
658.99996
 20
179.999886
 30
0.0
 11
658.99996
 21
-180.000013
 31
0.0
  0
LINE
  8
LY_1
  6
CENTER
 62
     7
  5
C0
 10
646.999965
 20
208.999885
 30
0.0
 11
716.999965
 21
208.999885
 31
0.0
  0
LINE
  8
LY_1
  6
CENTER
 62
     7
  5
C1
 10
681.999965
 20
243.999888
 30
0.0
 11
681.999965
 21
169.168708
 31
0.0
  0
LINE
  8
LY_1
  6
CONTINUOUS
 62
   251
  5
C2
 10
704.99997
 20
177.500011
 30
0.0
 11
784.99997
 21
177.500011
 31
0.0
  0
LINE
  8
LY_1
  6
CONTINUOUS
 62
   251
  5
C3
 10
16.00001
 20
240.440026
 30
0.0
 11
16.00001
 21
224.430389
 31
0.0
  0
LINE
  8
LY_1
  6
CONTINUOUS
 62
   251
  5
C4
 10
-16.00001
 20
240.440026
 30
0.0
 11
-16.00001
 21
224.430389
 31
0.0
  0
LINE
  8
LY_1
  6
CONTINUOUS
 62
     7
  5
C5
 10
-0.000015
 20
261.449961
 30
0.0
 11
8.071028
 21
252.449937
 31
0.0
  0
LINE
  8
LY_1
  6
CONTINUOUS
 62
     7
  5
C6
 10
-0.000006
 20
252.44994
 30
0.0
 11
8.071037
 21
261.449965
 31
0.0
  0
LINE
  8
LY_1
  6
CONTINUOUS
 62
     7
  5
C7
 10
-8.071046
 20
261.449965
 30
0.0
 11
-0.000002
 21
252.44994
 31
0.0
  0
LINE
  8
LY_1
  6
CONTINUOUS
 62
     7
  5
C8
 10
0.000006
 20
261.449962
 30
0.0
 11
-8.071037
 21
252.449937
 31
0.0
  0
LINE
  8
LY_1
  6
CONTINUOUS
 62
     7
  5
C9
 10
581.999998
 20
252.449942
 30
0.0
 11
573.928952
 21
261.449956
 31
0.0
  0
LINE
  8
LY_1
  6
CONTINUOUS
 62
     7
  5
CA
 10
590.071056
 20
252.449952
 30
0.0
 11
582.00001
 21
261.449966
 31
0.0
  0
LINE
  8
LY_1
  6
CONTINUOUS
 62
     7
  5
CB
 10
590.071096
 20
261.449983
 30
0.0
 11
581.999998
 21
252.449939
 31
0.0
  0
LINE
  8
LY_1
  6
CONTINUOUS
 62
     7
  5
CC
 10
573.928958
 20
252.449961
 30
0.0
 11
582.000008
 21
261.449979
 31
0.0
  0
LINE
  8
LY_1
  6
CENTER
 62
     7
  5
CD
 10
581.99999
 20
269.462414
 30
0.0
 11
581.99999
 21
167.202036
 31
0.0
  0
LINE
  8
LY_1
  6
CONTINUOUS
 62
   251
  5
CE
 10
588.999985
 20
214.799932
 30
0.0
 11
588.999985
 21
177.500015
 31
0.0
  0
LINE
  8
LY_1
  6
CONTINUOUS
 62
   251
  5
CF
 10
574.999995
 20
214.799932
 30
0.0
 11
574.999995
 21
177.500015
 31
0.0
  0
LINE
  8
LY_1
  6
CONTINUOUS
 62
   251
  5
D0
 10
593.500005
 20
246.799927
 30
0.0
 11
593.500005
 21
214.799932
 31
0.0
  0
LINE
  8
LY_1
  6
CONTINUOUS
 62
   251
  5
D1
 10
570.5
 20
246.799927
 30
0.0
 11
570.5
 21
214.799932
 31
0.0
  0
LINE
  8
LY_1
  6
CONTINUOUS
 62
   251
  5
D2
 10
581.99999
 20
252.449951
 30
0.0
 11
581.99999
 21
261.449966
 31
0.0
  0
LINE
  8
LY_1
  6
CONTINUOUS
 62
   251
  5
D3
 10
570.5
 20
214.799932
 30
0.0
 11
593.500005
 21
214.799932
 31
0.0
  0
LINE
  8
LY_1
  6
CONTINUOUS
 62
   251
  5
D4
 10
573.928955
 20
261.449966
 30
0.0
 11
573.928955
 21
252.449951
 31
0.0
  0
LINE
  8
LY_1
  6
CONTINUOUS
 62
   251
  5
D5
 10
590.07105
 20
261.449966
 30
0.0
 11
590.07105
 21
252.449951
 31
0.0
  0
LINE
  8
LY_1
  6
CONTINUOUS
 62
   251
  5
D6
 10
573.492748
 20
252.449957
 30
0.0
 11
573.66931
 21
246.800008
 31
0.0
  0
LINE
  8
LY_1
  6
CONTINUOUS
 62
   251
  5
D7
 10
590.507229
 20
252.449979
 30
0.0
 11
590.330669
 21
246.800017
 31
0.0
  0
LINE
  8
LY_1
  6
CONTINUOUS
 62
   251
  5
D8
 10
590.507553
 20
252.449951
 30
0.0
 11
573.492427
 21
252.449951
 31
0.0
  0
LINE
  8
LY_1
  6
CONTINUOUS
 62
   251
  5
D9
 10
590.071076
 20
261.449966
 30
0.0
 11
573.92893
 21
261.449966
 31
0.0
  0
LINE
  8
LY_1
  6
CONTINUOUS
 62
   251
  5
DA
 10
570.5
 20
246.799927
 30
0.0
 11
593.500005
 21
246.799927
 31
0.0
  0
LINE
  8
LY_1
  6
CONTINUOUS
 62
   251
  5
DB
 10
350.0
 20
12.5
 30
0.0
 11
467.499995
 21
12.5
 31
0.0
  0
LINE
  8
LY_1
  6
CONTINUOUS
 62
   251
  5
DC
 10
350.0
 20
-12.5
 30
0.0
 11
467.499995
 21
-12.5
 31
0.0
  0
LINE
  8
LY_1
  6
CONTINUOUS
 62
   251
  5
DD
 10
38.50001
 20
12.5
 30
0.0
 11
38.50001
 21
-12.5
 31
0.0
  0
LINE
  8
LY_1
  6
CENTER
 62
     7
  5
DE
 10
71.416641
 20
-172.416349
 30
0.0
 11
80.964754
 21
-195.467547
 31
0.0
  0
LINE
  8
LY_1
  6
CENTER
 62
     7
  5
DF
 10
-71.417509
 20
-172.415846
 30
0.0
 11
-80.965641
 21
-195.467063
 31
0.0
  0
LINE
  8
LY_1
  6
CENTER
 62
     7
  5
E0
 10
-172.416271
 20
-71.416751
 30
0.0
 11
-195.467491
 21
-80.964876
 31
0.0
  0
LINE
  8
LY_1
  6
CENTER
 62
     7
  5
E1
 10
-172.415994
 20
71.417284
 30
0.0
 11
-195.467165
 21
80.965395
 31
0.0
  0
LINE
  8
LY_1
  6
CENTER
 62
     7
  5
E2
 10
-71.416927
 20
172.416229
 30
0.0
 11
-80.965043
 21
195.467426
 31
0.0
  0
LINE
  8
LY_1
  6
CENTER
 62
     7
  5
E3
 10
71.417279
 20
172.416114
 30
0.0
 11
80.965403
 21
195.467321
 31
0.0
  0
LINE
  8
LY_1
  6
CENTER
 62
     7
  5
E4
 10
172.416082
 20
71.416974
 30
0.0
 11
195.467301
 21
80.965102
 31
0.0
  0
LINE
  8
LY_1
  6
CENTER
 62
     7
  5
E5
 10
172.415899
 20
-71.417744
 30
0.0
 11
195.467115
 21
-80.965878
 31
0.0
  0
LINE
  8
LY_1
  6
CONTINUOUS
 62
   251
  5
E6
 10
52.458723
 20
-12.5
 30
0.0
 11
38.50001
 21
-12.5
 31
0.0
  0
LINE
  8
LY_1
  6
CONTINUOUS
 62
   251
  5
E7
 10
52.458723
 20
12.5
 30
0.0
 11
38.50001
 21
12.5
 31
0.0
  0
LINE
  8
LY_1
  6
CENTER
 62
     7
  5
E8
 10
-245.0
 20
0.0
 30
0.0
 11
245.0
 21
0.0
 31
0.0
  0
LINE
  8
LY_1
  6
CENTER
 62
     7
  5
E9
 10
0.0
 20
279.466435
 30
0.0
 11
0.0
 21
-250.74693
 31
0.0
  0
LINE
  8
LY_1
  6
CONTINUOUS
 62
   251
  5
EA
 10
489.999995
 20
-54.999987
 30
0.0
 11
495.475713
 21
-54.999987
 31
0.0
  0
LINE
  8
LY_1
  6
CONTINUOUS
 62
   251
  5
EB
 10
489.999995
 20
55.000013
 30
0.0
 11
494.797613
 21
55.000013
 31
0.0
  0
LINE
  8
LY_1
  6
CONTINUOUS
 62
   251
  5
EC
 10
489.999995
 20
55.000013
 30
0.0
 11
489.999995
 21
-54.999987
 31
0.0
  0
LINE
  8
LY_1
  6
CONTINUOUS
 62
   251
  5
ED
 10
489.999995
 20
-116.474113
 30
0.0
 11
489.999995
 21
-224.999987
 31
0.0
  0
LINE
  8
LY_1
  6
CONTINUOUS
 62
   251
  5
EE
 10
482.000003
 20
-123.542951
 30
0.0
 11
482.000003
 21
-174.999987
 31
0.0
  0
LINE
  8
LY_1
  6
CONTINUOUS
 62
   251
  5
EF
 10
350.0
 20
47.5
 30
0.0
 11
350.0
 21
-47.499987
 31
0.0
  0
LINE
  8
LY_1
  6
CONTINUOUS
 62
   251
  5
F0
 10
350.0
 20
-47.499987
 30
0.0
 11
489.999995
 21
-47.499987
 31
0.0
  0
LINE
  8
LY_1
  6
CONTINUOUS
 62
   251
  5
F1
 10
350.0
 20
47.5
 30
0.0
 11
489.999995
 21
47.5
 31
0.0
  0
LINE
  8
LY_1
  6
CONTINUOUS
 62
   251
  5
F2
 10
482.000003
 20
-174.999987
 30
0.0
 11
489.999995
 21
-174.999987
 31
0.0
  0
LINE
  8
LY_1
  6
CONTINUOUS
 62
   251
  5
F3
 10
482.000003
 20
175.000015
 30
0.0
 11
489.999995
 21
175.000015
 31
0.0
  0
LINE
  8
LY_1
  6
CONTINUOUS
 62
   251
  5
F4
 10
482.000003
 20
175.000015
 30
0.0
 11
482.000003
 21
144.492814
 31
0.0
  0
LINE
  8
LY_1
  6
CONTINUOUS
 62
   251
  5
F5
 10
489.999995
 20
225.000013
 30
0.0
 11
489.999995
 21
139.723285
 31
0.0
  0
LINE
  8
LY_1
  6
CONTINUOUS
 62
   251
  5
F6
 10
489.999995
 20
-224.999987
 30
0.0
 11
514.999995
 21
-224.999987
 31
0.0
  0
LINE
  8
LY_1
  6
CONTINUOUS
 62
   251
  5
F7
 10
489.999995
 20
225.000013
 30
0.0
 11
514.999995
 21
225.000013
 31
0.0
  0
LINE
  8
LY_1
  6
CONTINUOUS
 62
   251
  5
F8
 10
11.49999
 20
246.799927
 30
0.0
 11
11.49999
 21
224.705938
 31
0.0
  0
LINE
  8
LY_1
  6
CONTINUOUS
 62
   251
  5
F9
 10
-11.49999
 20
246.799927
 30
0.0
 11
-11.49999
 21
224.705938
 31
0.0
  0
LINE
  8
LY_1
  6
CONTINUOUS
 62
   251
  5
FA
 10
0.0
 20
252.449951
 30
0.0
 11
0.0
 21
261.449966
 31
0.0
  0
LINE
  8
LY_1
  6
CONTINUOUS
 62
   251
  5
FB
 10
-8.071035
 20
261.449966
 30
0.0
 11
-8.071035
 21
252.449951
 31
0.0
  0
LINE
  8
LY_1
  6
CONTINUOUS
 62
   251
  5
FC
 10
8.071035
 20
261.449966
 30
0.0
 11
8.071035
 21
252.449951
 31
0.0
  0
LINE
  8
LY_1
  6
CONTINUOUS
 62
   251
  5
FD
 10
-8.507246
 20
252.449973
 30
0.0
 11
-8.330685
 21
246.800036
 31
0.0
  0
LINE
  8
LY_1
  6
CONTINUOUS
 62
   251
  5
FE
 10
8.50724
 20
252.450008
 30
0.0
 11
8.33068
 21
246.800058
 31
0.0
  0
LINE
  8
LY_1
  6
CONTINUOUS
 62
   251
  5
FF
 10
8.507589
 20
252.449951
 30
0.0
 11
-8.507589
 21
252.449951
 31
0.0
  0
LINE
  8
LY_1
  6
CONTINUOUS
 62
   251
  5
100
 10
8.071086
 20
261.449966
 30
0.0
 11
-8.071086
 21
261.449966
 31
0.0
  0
LINE
  8
LY_1
  6
CONTINUOUS
 62
   251
  5
101
 10
-11.49999
 20
246.799927
 30
0.0
 11
11.49999
 21
246.799927
 31
0.0
  0
LINE
  8
LY_1
  6
CONTINUOUS
 62
   251
  5
102
 10
552.500021
 20
69.070937
 30
0.0
 11
552.500021
 21
-70.722516
 31
0.0
  0
LINE
  8
LY_1
  6
CONTINUOUS
 62
   251
  5
103
 10
518.157823
 20
164.556562
 30
0.0
 11
593.157779
 21
134.832233
 31
0.0
  0
LINE
  8
LY_1
  6
CONTINUOUS
 62
   251
  5
104
 10
518.157847
 20
143.34326
 30
0.0
 11
593.157815
 21
113.618926
 31
0.0
  0
LINE
  8
LY_1
  6
CONTINUOUS
 62
   251
  5
105
 10
518.157878
 20
-164.556769
 30
0.0
 11
593.15784
 21
-134.832438
 31
0.0
  0
LINE
  8
LY_1
  6
CONTINUOUS
 62
   251
  5
106
 10
518.157791
 20
-143.343621
 30
0.0
 11
593.157818
 21
-113.619263
 31
0.0
  0
LINE
  8
LY_1
  6
CONTINUOUS
 62
   251
  5
107
 10
514.99992
 20
-106.806645
 30
0.0
 11
549.89155
 21
-81.87077
 31
0.0
  0
LINE
  8
LY_1
  6
CONTINUOUS
 62
   251
  5
108
 10
515.000146
 20
106.806756
 30
0.0
 11
549.891703
 21
81.870906
 31
0.0
  0
LINE
  8
LY_1
  6
CONTINUOUS
 62
   251
  5
109
 10
555.706045
 20
-80.006701
 30
0.0
 11
599.999995
 21
-80.006701
 31
0.0
  0
LINE
  8
LY_1
  6
CONTINUOUS
 62
   251
  5
10A
 10
555.706045
 20
80.006727
 30
0.0
 11
599.999995
 21
80.006727
 31
0.0
  0
LINE
  8
LY_1
  6
CONTINUOUS
 62
   251
  5
10B
 10
599.999995
 20
-177.499987
 30
0.0
 11
624.99997
 21
-177.499987
 31
0.0
  0
LINE
  8
LY_1
  6
CONTINUOUS
 62
   251
  5
10C
 10
524.999995
 20
177.500015
 30
0.0
 11
624.99997
 21
177.500015
 31
0.0
  0
LINE
  8
LY_1
  6
CONTINUOUS
 62
   251
  5
10D
 10
599.999995
 20
177.500015
 30
0.0
 11
599.999995
 21
-177.499987
 31
0.0
  0
LINE
  8
LY_1
  6
CONTINUOUS
 62
   251
  5
10E
 10
514.999995
 20
225.000013
 30
0.0
 11
514.999995
 21
-224.999987
 31
0.0
  0
LINE
  8
LY_1
  6
CONTINUOUS
 62
     7
  5
10F
 10
799.999963
 20
229.247635
 30
0.0
 11
810.999979
 21
240.440042
 31
0.0
  0
LINE
  8
LY_1
  6
CONTINUOUS
 62
     7
  5
110
 10
799.999943
 20
240.440024
 30
0.0
 11
810.999942
 21
229.247634
 31
0.0
  0
LINE
  8
LY_1
  6
CONTINUOUS
 62
     7
  5
111
 10
810.999951
 20
240.44001
 30
0.0
 11
799.999952
 21
251.632399
 31
0.0
  0
LINE
  8
LY_1
  6
CONTINUOUS
 62
     7
  5
112
 10
810.999988
 20
251.632436
 30
0.0
 11
799.999971
 21
240.440028
 31
0.0
  0
LINE
  8
LY_1
  6
CONTINUOUS
 62
   251
  5
113
 10
810.99998
 20
251.632386
 30
0.0
 11
799.99997
 21
251.632386
 31
0.0
  0
LINE
  8
LY_1
  6
CONTINUOUS
 62
   251
  5
114
 10
810.99998
 20
229.247615
 30
0.0
 11
799.99997
 21
229.247615
 31
0.0
  0
LINE
  8
LY_1
  6
CONTINUOUS
 62
   251
  5
115
 10
799.999938
 20
253.893441
 30
0.0
 11
791.999947
 21
253.643441
 31
0.0
  0
LINE
  8
LY_1
  6
CONTINUOUS
 62
   251
  5
116
 10
799.999962
 20
226.986583
 30
0.0
 11
791.999971
 21
227.236583
 31
0.0
  0
LINE
  8
LY_1
  6
CONTINUOUS
 62
   251
  5
117
 10
799.99997
 20
226.986568
 30
0.0
 11
799.99997
 21
253.893433
 31
0.0
  0
LINE
  8
LY_1
  6
CONTINUOUS
 62
   251
  5
118
 10
810.99998
 20
229.247615
 30
0.0
 11
810.99998
 21
251.632386
 31
0.0
  0
LINE
  8
LY_1
  6
CONTINUOUS
 62
   251
  5
119
 10
773.49998
 20
208.440021
 30
0.0
 11
773.49998
 21
177.500018
 31
0.0
  0
LINE
  8
LY_1
  6
CONTINUOUS
 62
   251
  5
11A
 10
746.49996
 20
208.440021
 30
0.0
 11
746.49996
 21
177.500018
 31
0.0
  0
LINE
  8
LY_1
  6
CONTINUOUS
 62
   251
  5
11B
 10
775.99998
 20
208.440021
 30
0.0
 11
743.99996
 21
208.440021
 31
0.0
  0
LINE
  8
LY_1
  6
CONTINUOUS
 62
   251
  5
11C
 10
791.999939
 20
256.440023
 30
0.0
 11
791.999939
 21
224.440003
 31
0.0
  0
LINE
  8
LY_1
  6
CONTINUOUS
 62
   251
  5
11D
 10
743.99996
 20
224.440003
 30
0.0
 11
743.99996
 21
208.440021
 31
0.0
  0
LINE
  8
LY_1
  6
CONTINUOUS
 62
   251
  5
11E
 10
775.99998
 20
219.440006
 30
0.0
 11
775.99998
 21
208.440021
 31
0.0
  0
LINE
  8
LY_1
  6
CONTINUOUS
 62
   251
  5
11F
 10
791.999939
 20
224.440003
 30
0.0
 11
780.99998
 21
224.440003
 31
0.0
  0
LINE
  8
LY_1
  6
CENTER
 62
     7
  5
120
 10
821.529358
 20
240.440013
 30
0.0
 11
741.80244
 21
240.440013
 31
0.0
  0
LINE
  8
LY_1
  6
CONTINUOUS
 62
   251
  5
121
 10
791.999939
 20
256.440023
 30
0.0
 11
775.99998
 21
256.440023
 31
0.0
  0
LINE
  8
LY_1
  6
CONTINUOUS
 62
   251
  5
122
 10
704.99997
 20
179.999886
 30
0.0
 11
704.99997
 21
-180.000013
 31
0.0
  0
LINE
  8
LY_1
  6
CENTER
 62
     7
  5
123
 10
331.458551
 20
0.0
 30
0.0
 11
1249.941702
 21
0.0
 31
0.0
  0
LINE
  8
LY_1
  6
CONTINUOUS
 62
   251
  5
124
 10
624.99997
 20
179.999886
 30
0.0
 11
624.99997
 21
-180.000013
 31
0.0
  0
LINE
  8
LY_1
  6
CENTER
 62
     7
  5
125
 10
759.99997
 20
264.988175
 30
0.0
 11
759.99997
 21
170.702161
 31
0.0
  0
ENDSEC
  0
EOF
