  0
SECTION
  2
HEADER
  9
$ACADVER
  1
AC1009
  9
$DWGCODEPAGE
  3
dos932
  9
$INSBASE
 10
0.0
 20
0.0
 30
0.0
  9
$EXTMIN
 10
-215.0
 20
-215.0
 30
0.0
  9
$EXTMAX
 10
992.882952
 20
244.750004
 30
0.0
  9
$LIMMIN
 10
-215.0
 20
-215.0
  9
$LIMMAX
 10
992.882952
 20
244.750004
  9
$ORTHOMODE
 70
     0
  9
$REGENMODE
 70
     1
  9
$FILLMODE
 70
     1
  9
$QTEXTMODE
 70
     0
  9
$MIRRTEXT
 70
     1
  9
$DRAGMODE
 70
     2
  9
$LTSCALE
 40
1.0
  9
$OSMODE
 70
     0
  9
$ATTMODE
 70
     1
  9
$TEXTSIZE
 40
3.15
  9
$TRACEWID
 40
0.05
  9
$TEXTSTYLE
  7
MX_NOTE_STANDARD
  9
$CLAYER
  8
LY_1
  9
$CELTYPE
  6
CONTINUOUS
  9
$CECOLOR
 62
   256
  9
$DIMSCALE
 40
1.0
  9
$DIMASZ
 40
2.5
  9
$DIMEXO
 40
1.0
  9
$DIMDLI
 40
3.75
  9
$DIMRND
 40
0.0
  9
$DIMDLE
 40
0.0
  9
$DIMEXE
 40
1.5
  9
$DIMTP
 40
0.0
  9
$DIMTM
 40
0.0
  9
$DIMTXT
 40
3.15
  9
$DIMCEN
 40
2.5
  9
$DIMTSZ
 40
0.0
  9
$DIMTOL
 70
     0
  9
$DIMLIM
 70
     0
  9
$DIMTIH
 70
     0
  9
$DIMTOH
 70
     0
  9
$DIMSE1
 70
     0
  9
$DIMSE2
 70
     0
  9
$DIMTAD
 70
     1
  9
$DIMZIN
 70
     8
  9
$DIMBLK
  1

  9
$DIMASO
 70
     1
  9
$DIMSHO
 70
     1
  9
$DIMPOST
  1

  9
$DIMAPOST
  1

  9
$DIMALT
 70
     0
  9
$DIMALTD
 70
     4
  9
$DIMALTF
 40
0.03937
  9
$DIMLFAC
 40
1.0
  9
$DIMTOFL
 70
     1
  9
$DIMTVP
 40
0.0
  9
$DIMTIX
 70
     0
  9
$DIMSOXD
 70
     0
  9
$DIMSAH
 70
     0
  9
$DIMBLK1
  1

  9
$DIMBLK2
  1

  9
$DIMSTYLE
  2
MXDIMSTYLE
  9
$DIMCLRD
 70
     0
  9
$DIMCLRE
 70
     0
  9
$DIMCLRT
 70
     0
  9
$DIMTFAC
 40
1.0
  9
$DIMGAP
 40
1.0
  9
$LUNITS
 70
     2
  9
$LUPREC
 70
     4
  9
$AXISMODE
 70
     0
  9
$AXISUNIT
 10
0.0
 20
0.0
  9
$SKETCHINC
 40
0.1
  9
$FILLETRAD
 40
0.0
  9
$AUNITS
 70
     0
  9
$AUPREC
 70
     0
  9
$MENU
  1
acad
  9
$ELEVATION
 40
0.0
  9
$PELEVATION
 40
0.0
  9
$THICKNESS
 40
0.0
  9
$LIMCHECK
 70
     0
  9
$BLIPMODE
 70
     1
  9
$CHAMFERA
 40
0.0
  9
$CHAMFERB
 40
0.0
  9
$SKPOLY
 70
     0
  9
$TDCREATE
 40
2453665.670150463
  9
$TDUPDATE
 40
2453665.670150463
  9
$TDINDWG
 40
0.0000000000
  9
$TDUSRTIMER
 40
0.0000000000
  9
$USRTIMER
 70
     1
  9
$ANGBASE
 50
0.0
  9
$ANGDIR
 70
     0
  9
$PDMODE
 70
     0
  9
$PDSIZE
 40
0.0
  9
$PLINEWID
 40
0.0
  9
$COORDS
 70
     1
  9
$SPLFRAME
 70
     0
  9
$SPLINETYPE
 70
     6
  9
$SPLINESEGS
 70
     8
  9
$ATTDIA
 70
     0
  9
$ATTREQ
 70
     1
  9
$HANDLING
 70
     1
  9
$HANDSEED
  5
213
  9
$SURFTAB1
 70
     6
  9
$SURFTAB2
 70
     6
  9
$SURFTYPE
 70
     6
  9
$SURFU
 70
     6
  9
$SURFV
 70
     6
  9
$UCSNAME
  2

  9
$UCSORG
 10
0.0
 20
0.0
 30
0.0
  9
$UCSXDIR
 10
1.0
 20
0.0
 30
0.0
  9
$UCSYDIR
 10
0.0
 20
1.0
 30
0.0
  9
$PUCSNAME
  2

  9
$PUCSORG
 10
0.0
 20
0.0
 30
0.0
  9
$PUCSXDIR
 10
1.0
 20
0.0
 30
0.0
  9
$PUCSYDIR
 10
0.0
 20
1.0
 30
0.0
  9
$USERI1
 70
     0
  9
$USERI2
 70
     0
  9
$USERI3
 70
     0
  9
$USERI4
 70
     0
  9
$USERI5
 70
     0
  9
$USERR1
 40
0.0
  9
$USERR2
 40
0.0
  9
$USERR3
 40
0.0
  9
$USERR4
 40
0.0
  9
$USERR5
 40
0.0
  9
$WORLDVIEW
 70
     1
  9
$SHADEDGE
 70
     3
  9
$SHADEDIF
 70
    70
  9
$TILEMODE
 70
     1
  9
$MAXACTVP
 70
    16
  9
$PINSBASE
 10
0.0
 20
0.0
 30
0.0
  9
$PLIMCHECK
 70
     0
  9
$PEXTMIN
 10
1.000000E+20
 20
1.000000E+20
 30
1.000000E+20
  9
$PEXTMAX
 10
-1.000000E+20
 20
-1.000000E+20
 30
-1.000000E+20
  9
$PLIMMIN
 10
0.0
 20
0.0
  9
$PLIMMAX
 10
12.0
 20
9.0
  9
$UNITMODE
 70
     0
  9
$VISRETAIN
 70
     0
  9
$PLINEGEN
 70
     1
  9
$PSLTSCALE
 70
     0
  9
$TREEDEPTH
 70
  3020
  9
$DWGCODEPAGE
  3
dos932
  0
ENDSEC
  0
SECTION
  2
TABLES
  0
TABLE
  2
VPORT
 70
     1
  0
VPORT
  2
*ACTIVE
 70
     0
 10
0.0
 20
0.0
 11
1.0
 21
1.0
 12
388.941476
 22
14.875002
 13
0.0
 23
0.0
 14
1.0
 24
1.0
 15
0.0
 25
0.0
 16
0.0
 26
0.0
 36
1.0
 17
0.0
 27
0.0
 37
0.0
 40
464.347504
 41
1.732051
 42
50.0
 43
0.0
 44
0.0
 50
0.0
 51
0.0
 71
     0
 72
   100
 73
     1
 74
     1
 75
     0
 76
     0
 77
     0
 78
     0
  0
ENDTAB
  0
TABLE
  2
LTYPE
 70
     2
  0
LTYPE
  2
CONTINUOUS
 70
    64
  3
Solid line
 72
    65
 73
     0
 40
0.0
  0
LTYPE
  2
CENTER
 70
    64
  3
Center ____ _ ____ _ ____ _ ____ _ ____ _ ____
 72
    65
 73
     4
 40
50.8
 49
31.75
 49
-6.35
 49
6.35
 49
-6.35
  0
ENDTAB
  0
TABLE
  2
LAYER
 70
     3
  0
LAYER
  2
0
 70
     0
 62
     7
  6
CONTINUOUS
  0
LAYER
  2
LY_1
 70
     0
 62
     7
  6
CONTINUOUS
  0
LAYER
  2
DEFPOINTS
 70
     0
 62
     7
  6
CONTINUOUS
  0
ENDTAB
  0
TABLE
  2
STYLE
 70
     1
  0
STYLE
  2
MX_NOTE_STANDARD
 70
     0
 40
0.0
 41
1.0
 50
0.0
 71
     0
 42
3.15
  3
txt.shx
  4
extfont.shx
  0
ENDTAB
  0
TABLE
  2
VIEW
 70
     0
  0
ENDTAB
  0
TABLE
  2
UCS
 70
     0
  0
ENDTAB
  0
TABLE
  2
APPID
 70
     1
  0
APPID
  2
ACAD
 70
     0
  0
ENDTAB
  0
TABLE
  2
DIMSTYLE
 70
     1
  0
DIMSTYLE
  2
MXDIMSTYLE
 70
     0
  3

  4

  5

  6

  7

 40
1.0
 41
2.5
 42
1.0
 43
3.75
 44
1.5
 45
0.0
 46
0.0
 47
0.0
 48
0.0
 71
     0
 72
     0
 73
     0
 74
     0
 75
     0
 76
     0
 77
     1
 78
     8
140
3.15
141
2.5
142
0.0
143
0.03937
144
1.0
145
0.0
146
1.0
147
1.0
170
     0
171
     4
172
     1
173
     0
174
     0
175
     0
176
     0
177
     0
178
     0
  0
ENDTAB
  0
ENDSEC
  0
SECTION
  2
BLOCKS
  0
ENDSEC
  0
SECTION
  2
ENTITIES
  0
LINE
  8
LY_1
  6
CONTINUOUS
 62
   251
  5
1F
 10
916.500052
 20
141.87999
 30
0.0
 11
917.500052
 21
140.87999
 31
0.0
  0
LINE
  8
LY_1
  6
CONTINUOUS
 62
   251
  5
20
 10
917.500052
 20
140.87999
 30
0.0
 11
917.500052
 21
121.25002
 31
0.0
  0
LINE
  8
LY_1
  6
CONTINUOUS
 62
   251
  5
21
 10
879.500052
 20
140.87999
 30
0.0
 11
879.500052
 21
121.25002
 31
0.0
  0
LINE
  8
LY_1
  6
CONTINUOUS
 62
   251
  5
22
 10
936.450032
 20
61.80001
 30
0.0
 11
936.450032
 21
59.00002
 31
0.0
  0
LINE
  8
LY_1
  6
CONTINUOUS
 62
   251
  5
23
 10
936.000032
 20
59.00002
 30
0.0
 11
936.000032
 21
42.5
 31
0.0
  0
LINE
  8
LY_1
  6
CONTINUOUS
 62
   251
  5
24
 10
935.500032
 20
88.00002
 30
0.0
 11
935.500032
 21
-88.0
 31
0.0
  0
LINE
  8
LY_1
  6
CONTINUOUS
 62
   251
  5
25
 10
948.500034
 20
-42.5
 30
0.0
 11
935.500032
 21
-42.5
 31
0.0
  0
LINE
  8
LY_1
  6
CONTINUOUS
 62
   251
  5
26
 10
948.500034
 20
-27.50367
 30
0.0
 11
935.500032
 21
-27.50367
 31
0.0
  0
LINE
  8
LY_1
  6
CONTINUOUS
 62
   251
  5
27
 10
972.855922
 20
-39.18428
 30
0.0
 11
948.500034
 21
-40.0348
 31
0.0
  0
LINE
  8
LY_1
  6
CONTINUOUS
 62
   251
  5
28
 10
948.500034
 20
42.5
 30
0.0
 11
948.500034
 21
-42.5
 31
0.0
  0
LINE
  8
LY_1
  6
CONTINUOUS
 62
   251
  5
29
 10
975.000034
 20
58.00002
 30
0.0
 11
975.000034
 21
-30.0
 31
0.0
  0
LINE
  8
LY_1
  6
CONTINUOUS
 62
   251
  5
2A
 10
942.500032
 20
42.5
 30
0.0
 11
942.500032
 21
-42.5
 31
0.0
  0
LINE
  8
LY_1
  6
CONTINUOUS
 62
   251
  5
2B
 10
948.500034
 20
27.50347
 30
0.0
 11
935.500032
 21
27.50347
 31
0.0
  0
LINE
  8
LY_1
  6
CONTINUOUS
 62
   251
  5
2C
 10
975.000034
 20
34.34738
 30
0.0
 11
948.500034
 21
34.34738
 31
0.0
  0
LINE
  8
LY_1
  6
CONTINUOUS
 62
     7
  5
2D
 10
955.500034
 20
87.84276
 30
0.0
 11
955.500034
 21
54.54082
 31
0.0
  0
LINE
  8
LY_1
  6
CONTINUOUS
 62
   251
  5
2E
 10
948.500034
 20
42.5
 30
0.0
 11
942.500032
 21
42.5
 31
0.0
  0
LINE
  8
LY_1
  6
CONTINUOUS
 62
   251
  5
2F
 10
970.300029
 20
80.09999
 30
0.0
 11
970.300029
 21
61.80001
 31
0.0
  0
LINE
  8
LY_1
  6
CONTINUOUS
 62
   251
  5
30
 10
940.700039
 20
80.09999
 30
0.0
 11
941.700039
 21
81.09999
 31
0.0
  0
LINE
  8
LY_1
  6
CONTINUOUS
 62
   251
  5
31
 10
974.550029
 20
61.80001
 30
0.0
 11
936.450032
 21
61.80001
 31
0.0
  0
LINE
  8
LY_1
  6
CONTINUOUS
 62
   251
  5
32
 10
974.550029
 20
59.00002
 30
0.0
 11
936.000032
 21
59.00002
 31
0.0
  0
LINE
  8
LY_1
  6
CONTINUOUS
 62
   251
  5
33
 10
974.550029
 20
61.80001
 30
0.0
 11
974.550029
 21
58.00002
 31
0.0
  0
LINE
  8
LY_1
  6
CONTINUOUS
 62
   251
  5
34
 10
970.300029
 20
64.80001
 30
0.0
 11
940.700032
 21
64.80001
 31
0.0
  0
LINE
  8
LY_1
  6
CONTINUOUS
 62
   251
  5
35
 10
975.000034
 20
58.00002
 30
0.0
 11
936.000032
 21
58.00002
 31
0.0
  0
LINE
  8
LY_1
  6
CONTINUOUS
 62
   251
  5
36
 10
942.500032
 20
42.5
 30
0.0
 11
935.500032
 21
42.5
 31
0.0
  0
LINE
  8
LY_1
  6
CONTINUOUS
 62
   251
  5
37
 10
940.700032
 20
80.09999
 30
0.0
 11
940.700032
 21
61.80001
 31
0.0
  0
LINE
  8
LY_1
  6
CONTINUOUS
 62
   251
  5
38
 10
969.300029
 20
81.09999
 30
0.0
 11
941.700039
 21
81.09999
 31
0.0
  0
LINE
  8
LY_1
  6
CONTINUOUS
 62
   251
  5
39
 10
935.500032
 20
57.9999
 30
0.0
 11
785.000022
 21
57.9999
 31
0.0
  0
LINE
  8
LY_1
  6
CONTINUOUS
 62
   251
  5
3A
 10
935.500032
 20
-58.0001
 30
0.0
 11
785.000022
 21
-58.0001
 31
0.0
  0
LINE
  8
LY_1
  6
CONTINUOUS
 62
   251
  5
3B
 10
859.000022
 20
51.0
 30
0.0
 11
787.000022
 21
51.0
 31
0.0
  0
LINE
  8
LY_1
  6
CONTINUOUS
 62
   251
  5
3C
 10
859.000022
 20
48.0
 30
0.0
 11
787.000022
 21
48.0
 31
0.0
  0
LINE
  8
LY_1
  6
CONTINUOUS
 62
   251
  5
3D
 10
859.000022
 20
45.0
 30
0.0
 11
787.000022
 21
45.0
 31
0.0
  0
LINE
  8
LY_1
  6
CONTINUOUS
 62
   251
  5
3E
 10
859.000022
 20
42.0
 30
0.0
 11
787.000022
 21
42.0
 31
0.0
  0
LINE
  8
LY_1
  6
CONTINUOUS
 62
   251
  5
3F
 10
859.000022
 20
-42.0
 30
0.0
 11
787.000022
 21
-42.0
 31
0.0
  0
LINE
  8
LY_1
  6
CONTINUOUS
 62
   251
  5
40
 10
859.000022
 20
-45.0
 30
0.0
 11
787.000022
 21
-45.0
 31
0.0
  0
LINE
  8
LY_1
  6
CONTINUOUS
 62
   251
  5
41
 10
859.000022
 20
-48.0
 30
0.0
 11
787.000022
 21
-48.0
 31
0.0
  0
LINE
  8
LY_1
  6
CONTINUOUS
 62
   251
  5
42
 10
859.000022
 20
-51.0
 30
0.0
 11
787.000022
 21
-51.0
 31
0.0
  0
LINE
  8
LY_1
  6
CONTINUOUS
 62
   251
  5
43
 10
924.000032
 20
88.00002
 30
0.0
 11
924.000032
 21
-88.0
 31
0.0
  0
LINE
  8
LY_1
  6
CONTINUOUS
 62
   251
  5
44
 10
787.000022
 20
88.00002
 30
0.0
 11
787.000022
 21
-88.0
 31
0.0
  0
LINE
  8
LY_1
  6
CONTINUOUS
 62
   251
  5
45
 10
785.000022
 20
88.00002
 30
0.0
 11
785.000022
 21
-88.0
 31
0.0
  0
LINE
  8
LY_1
  6
CONTINUOUS
 62
   251
  5
46
 10
924.000032
 20
-51.0
 30
0.0
 11
859.000022
 21
-51.0
 31
0.0
  0
LINE
  8
LY_1
  6
CONTINUOUS
 62
   251
  5
47
 10
924.000032
 20
-48.0
 30
0.0
 11
859.000022
 21
-48.0
 31
0.0
  0
LINE
  8
LY_1
  6
CONTINUOUS
 62
   251
  5
48
 10
924.000032
 20
-45.0
 30
0.0
 11
859.000022
 21
-45.0
 31
0.0
  0
LINE
  8
LY_1
  6
CONTINUOUS
 62
   251
  5
49
 10
924.000032
 20
51.0
 30
0.0
 11
859.000022
 21
51.0
 31
0.0
  0
LINE
  8
LY_1
  6
CONTINUOUS
 62
   251
  5
4A
 10
924.000032
 20
48.0
 30
0.0
 11
859.000022
 21
48.0
 31
0.0
  0
LINE
  8
LY_1
  6
CONTINUOUS
 62
   251
  5
4B
 10
924.000032
 20
45.0
 30
0.0
 11
859.000022
 21
45.0
 31
0.0
  0
LINE
  8
LY_1
  6
CONTINUOUS
 62
   251
  5
4C
 10
924.000032
 20
42.0
 30
0.0
 11
859.000022
 21
42.0
 31
0.0
  0
LINE
  8
LY_1
  6
CONTINUOUS
 62
   251
  5
4D
 10
924.000032
 20
-42.0
 30
0.0
 11
859.000022
 21
-42.0
 31
0.0
  0
LINE
  8
LY_1
  6
CONTINUOUS
 62
     7
  5
4E
 10
898.500052
 20
147.34105
 30
0.0
 11
898.500052
 21
103.86556
 31
0.0
  0
LINE
  8
LY_1
  6
CONTINUOUS
 62
   251
  5
4F
 10
880.500052
 20
141.87999
 30
0.0
 11
879.500052
 21
140.87999
 31
0.0
  0
LINE
  8
LY_1
  6
CONTINUOUS
 62
   251
  5
50
 10
917.500052
 20
124.30001
 30
0.0
 11
879.500052
 21
124.30001
 31
0.0
  0
LINE
  8
LY_1
  6
CONTINUOUS
 62
   251
  5
51
 10
920.700042
 20
121.25002
 30
0.0
 11
876.300042
 21
121.25002
 31
0.0
  0
LINE
  8
LY_1
  6
CONTINUOUS
 62
   251
  5
52
 10
876.300042
 20
121.25002
 30
0.0
 11
876.300042
 21
118.00002
 31
0.0
  0
LINE
  8
LY_1
  6
CONTINUOUS
 62
   251
  5
53
 10
920.700042
 20
121.25002
 30
0.0
 11
920.700042
 21
118.00002
 31
0.0
  0
LINE
  8
LY_1
  6
CONTINUOUS
 62
   251
  5
54
 10
923.000052
 20
118.00002
 30
0.0
 11
923.000052
 21
88.00002
 31
0.0
  0
LINE
  8
LY_1
  6
CONTINUOUS
 62
   251
  5
55
 10
861.000052
 20
89.00002
 30
0.0
 11
861.000052
 21
88.00002
 31
0.0
  0
LINE
  8
LY_1
  6
CONTINUOUS
 62
   251
  5
56
 10
923.000052
 20
118.00002
 30
0.0
 11
866.441342
 21
118.00002
 31
0.0
  0
LINE
  8
LY_1
  6
CONTINUOUS
 62
   251
  5
57
 10
970.300029
 20
80.09999
 30
0.0
 11
969.300029
 21
81.09999
 31
0.0
  0
LINE
  8
LY_1
  6
CONTINUOUS
 62
   251
  5
58
 10
880.500052
 20
141.87999
 30
0.0
 11
916.500052
 21
141.87999
 31
0.0
  0
ARC
  8
LY_1
  6
CONTINUOUS
 62
   251
  5
59
 10
972.821025
 20
-38.18489
 30
0.0
 40
1.0
 50
271.999998
 51
343.6062
  0
ARC
  8
LY_1
  6
CONTINUOUS
 62
   251
  5
5A
 10
945.000032
 20
-30.0
 30
0.0
 40
30.0
 50
343.6062
 51
0.00001
  0
ARC
  8
LY_1
  6
CONTINUOUS
 62
   251
  5
5B
 10
941.000052
 20
89.00002
 30
0.0
 40
80.0
 50
158.74619
 51
180.0
  0
LINE
  8
LY_1
  6
CONTINUOUS
 62
   251
  5
5C
 10
785.000022
 20
-73.806
 30
0.0
 11
767.000022
 21
-73.806
 31
0.0
  0
LINE
  8
LY_1
  6
CONTINUOUS
 62
   251
  5
5D
 10
785.000022
 20
73.80602
 30
0.0
 11
767.000022
 21
73.80602
 31
0.0
  0
LINE
  8
LY_1
  6
CONTINUOUS
 62
   251
  5
5E
 10
767.000022
 20
88.00002
 30
0.0
 11
935.500032
 21
88.00002
 31
0.0
  0
LINE
  8
LY_1
  6
CONTINUOUS
 62
   251
  5
5F
 10
767.000022
 20
-88.0
 30
0.0
 11
935.500032
 21
-88.0
 31
0.0
  0
LINE
  8
LY_1
  6
CONTINUOUS
 62
   251
  5
60
 10
475.000049
 20
231.949978
 30
0.0
 11
475.00001
 21
222.949974
 31
0.0
  0
LINE
  8
LY_1
  6
CONTINUOUS
 62
   251
  5
61
 10
0.0
 20
231.950004
 30
0.0
 11
-0.000009
 21
222.949982
 31
0.0
  0
POLYLINE
  8
LY_1
  6
CONTINUOUS
 62
     7
  5
62
 66
     1
 10
0.0
 20
0.0
 30
0.0
  0
VERTEX
  8
LY_1
  6
CONTINUOUS
 62
     7
  5
120
 10
401.999772
 20
119.443403
 30
0.0
  0
VERTEX
  8
LY_1
  6
CONTINUOUS
 62
     7
  5
121
 10
402.695444
 20
118.906159
 30
0.0
  0
VERTEX
  8
LY_1
  6
CONTINUOUS
 62
     7
  5
122
 10
403.380745
 20
118.356374
 30
0.0
  0
VERTEX
  8
LY_1
  6
CONTINUOUS
 62
     7
  5
123
 10
404.054793
 20
117.794121
 30
0.0
  0
VERTEX
  8
LY_1
  6
CONTINUOUS
 62
     7
  5
124
 10
404.716709
 20
117.219475
 30
0.0
  0
VERTEX
  8
LY_1
  6
CONTINUOUS
 62
     7
  5
125
 10
405.365611
 20
116.632507
 30
0.0
  0
VERTEX
  8
LY_1
  6
CONTINUOUS
 62
     7
  5
126
 10
406.000621
 20
116.033292
 30
0.0
  0
VERTEX
  8
LY_1
  6
CONTINUOUS
 62
     7
  5
127
 10
406.620858
 20
115.421903
 30
0.0
  0
VERTEX
  8
LY_1
  6
CONTINUOUS
 62
     7
  5
128
 10
407.225441
 20
114.798413
 30
0.0
  0
VERTEX
  8
LY_1
  6
CONTINUOUS
 62
     7
  5
129
 10
407.81349
 20
114.162895
 30
0.0
  0
VERTEX
  8
LY_1
  6
CONTINUOUS
 62
     7
  5
12A
 10
408.384125
 20
113.515424
 30
0.0
  0
VERTEX
  8
LY_1
  6
CONTINUOUS
 62
     7
  5
12B
 10
408.936465
 20
112.856072
 30
0.0
  0
VERTEX
  8
LY_1
  6
CONTINUOUS
 62
     7
  5
12C
 10
409.469631
 20
112.184912
 30
0.0
  0
VERTEX
  8
LY_1
  6
CONTINUOUS
 62
     7
  5
12D
 10
409.982742
 20
111.502018
 30
0.0
  0
VERTEX
  8
LY_1
  6
CONTINUOUS
 62
     7
  5
12E
 10
410.474917
 20
110.807464
 30
0.0
  0
VERTEX
  8
LY_1
  6
CONTINUOUS
 62
     7
  5
12F
 10
410.945277
 20
110.101322
 30
0.0
  0
VERTEX
  8
LY_1
  6
CONTINUOUS
 62
     7
  5
130
 10
411.392941
 20
109.383667
 30
0.0
  0
VERTEX
  8
LY_1
  6
CONTINUOUS
 62
     7
  5
131
 10
411.830853
 20
108.630498
 30
0.0
  0
VERTEX
  8
LY_1
  6
CONTINUOUS
 62
     7
  5
132
 10
412.244493
 20
107.865582
 30
0.0
  0
VERTEX
  8
LY_1
  6
CONTINUOUS
 62
     7
  5
133
 10
412.634736
 20
107.089378
 30
0.0
  0
VERTEX
  8
LY_1
  6
CONTINUOUS
 62
     7
  5
134
 10
413.002459
 20
106.302344
 30
0.0
  0
VERTEX
  8
LY_1
  6
CONTINUOUS
 62
     7
  5
135
 10
413.348539
 20
105.504938
 30
0.0
  0
VERTEX
  8
LY_1
  6
CONTINUOUS
 62
     7
  5
136
 10
413.673853
 20
104.697617
 30
0.0
  0
VERTEX
  8
LY_1
  6
CONTINUOUS
 62
     7
  5
137
 10
413.979275
 20
103.880841
 30
0.0
  0
VERTEX
  8
LY_1
  6
CONTINUOUS
 62
     7
  5
138
 10
414.265684
 20
103.055067
 30
0.0
  0
VERTEX
  8
LY_1
  6
CONTINUOUS
 62
     7
  5
139
 10
414.533956
 20
102.220753
 30
0.0
  0
VERTEX
  8
LY_1
  6
CONTINUOUS
 62
     7
  5
13A
 10
414.784967
 20
101.378357
 30
0.0
  0
VERTEX
  8
LY_1
  6
CONTINUOUS
 62
     7
  5
13B
 10
415.019593
 20
100.528338
 30
0.0
  0
VERTEX
  8
LY_1
  6
CONTINUOUS
 62
     7
  5
13C
 10
415.238712
 20
99.671153
 30
0.0
  0
VERTEX
  8
LY_1
  6
CONTINUOUS
 62
     7
  5
13D
 10
415.443199
 20
98.807262
 30
0.0
  0
VERTEX
  8
LY_1
  6
CONTINUOUS
 62
     7
  5
13E
 10
415.633931
 20
97.93712
 30
0.0
  0
VERTEX
  8
LY_1
  6
CONTINUOUS
 62
     7
  5
13F
 10
415.811785
 20
97.061188
 30
0.0
  0
VERTEX
  8
LY_1
  6
CONTINUOUS
 62
     7
  5
140
 10
415.977637
 20
96.179923
 30
0.0
  0
VERTEX
  8
LY_1
  6
CONTINUOUS
 62
     7
  5
141
 10
416.132364
 20
95.293783
 30
0.0
  0
VERTEX
  8
LY_1
  6
CONTINUOUS
 62
     7
  5
142
 10
416.276842
 20
94.403226
 30
0.0
  0
VERTEX
  8
LY_1
  6
CONTINUOUS
 62
     7
  5
143
 10
416.411947
 20
93.508711
 30
0.0
  0
VERTEX
  8
LY_1
  6
CONTINUOUS
 62
     7
  5
144
 10
416.538557
 20
92.610695
 30
0.0
  0
VERTEX
  8
LY_1
  6
CONTINUOUS
 62
     7
  5
145
 10
416.657547
 20
91.709636
 30
0.0
  0
VERTEX
  8
LY_1
  6
CONTINUOUS
 62
     7
  5
146
 10
416.769794
 20
90.805994
 30
0.0
  0
VERTEX
  8
LY_1
  6
CONTINUOUS
 62
     7
  5
147
 10
416.876175
 20
89.900224
 30
0.0
  0
VERTEX
  8
LY_1
  6
CONTINUOUS
 62
     7
  5
148
 10
416.977566
 20
88.992787
 30
0.0
  0
VERTEX
  8
LY_1
  6
CONTINUOUS
 62
     7
  5
149
 10
417.074844
 20
88.08414
 30
0.0
  0
VERTEX
  8
LY_1
  6
CONTINUOUS
 62
     7
  5
14A
 10
417.168885
 20
87.174741
 30
0.0
  0
VERTEX
  8
LY_1
  6
CONTINUOUS
 62
     7
  5
14B
 10
417.260565
 20
86.265048
 30
0.0
  0
VERTEX
  8
LY_1
  6
CONTINUOUS
 62
     7
  5
14C
 10
417.350761
 20
85.35552
 30
0.0
  0
VERTEX
  8
LY_1
  6
CONTINUOUS
 62
     7
  5
14D
 10
417.44035
 20
84.446613
 30
0.0
  0
VERTEX
  8
LY_1
  6
CONTINUOUS
 62
     7
  5
14E
 10
417.530208
 20
83.538788
 30
0.0
  0
VERTEX
  8
LY_1
  6
CONTINUOUS
 62
     7
  5
14F
 10
417.621212
 20
82.632501
 30
0.0
  0
VERTEX
  8
LY_1
  6
CONTINUOUS
 62
     7
  5
150
 10
417.714238
 20
81.72821
 30
0.0
  0
VERTEX
  8
LY_1
  6
CONTINUOUS
 62
     7
  5
151
 10
417.810837
 20
80.818283
 30
0.0
  0
VERTEX
  8
LY_1
  6
CONTINUOUS
 62
     7
  5
152
 10
417.910132
 20
79.910751
 30
0.0
  0
VERTEX
  8
LY_1
  6
CONTINUOUS
 62
     7
  5
153
 10
418.011866
 20
79.00551
 30
0.0
  0
VERTEX
  8
LY_1
  6
CONTINUOUS
 62
     7
  5
154
 10
418.115785
 20
78.102455
 30
0.0
  0
VERTEX
  8
LY_1
  6
CONTINUOUS
 62
     7
  5
155
 10
418.221632
 20
77.201483
 30
0.0
  0
VERTEX
  8
LY_1
  6
CONTINUOUS
 62
     7
  5
156
 10
418.329152
 20
76.30249
 30
0.0
  0
VERTEX
  8
LY_1
  6
CONTINUOUS
 62
     7
  5
157
 10
418.43809
 20
75.405372
 30
0.0
  0
VERTEX
  8
LY_1
  6
CONTINUOUS
 62
     7
  5
158
 10
418.54819
 20
74.510025
 30
0.0
  0
VERTEX
  8
LY_1
  6
CONTINUOUS
 62
     7
  5
159
 10
418.659197
 20
73.616345
 30
0.0
  0
VERTEX
  8
LY_1
  6
CONTINUOUS
 62
     7
  5
15A
 10
418.770855
 20
72.724228
 30
0.0
  0
VERTEX
  8
LY_1
  6
CONTINUOUS
 62
     7
  5
15B
 10
418.882908
 20
71.83357
 30
0.0
  0
VERTEX
  8
LY_1
  6
CONTINUOUS
 62
     7
  5
15C
 10
418.995101
 20
70.944267
 30
0.0
  0
VERTEX
  8
LY_1
  6
CONTINUOUS
 62
     7
  5
15D
 10
419.107179
 20
70.056215
 30
0.0
  0
VERTEX
  8
LY_1
  6
CONTINUOUS
 62
     7
  5
15E
 10
419.218886
 20
69.16931
 30
0.0
  0
VERTEX
  8
LY_1
  6
CONTINUOUS
 62
     7
  5
15F
 10
419.329966
 20
68.283448
 30
0.0
  0
VERTEX
  8
LY_1
  6
CONTINUOUS
 62
     7
  5
160
 10
419.440164
 20
67.398526
 30
0.0
  0
VERTEX
  8
LY_1
  6
CONTINUOUS
 62
     7
  5
161
 10
419.549225
 20
66.514438
 30
0.0
  0
VERTEX
  8
LY_1
  6
CONTINUOUS
 62
     7
  5
162
 10
419.656893
 20
65.631082
 30
0.0
  0
VERTEX
  8
LY_1
  6
CONTINUOUS
 62
     7
  5
163
 10
419.762912
 20
64.748353
 30
0.0
  0
VERTEX
  8
LY_1
  6
CONTINUOUS
 62
     7
  5
164
 10
419.867027
 20
63.866148
 30
0.0
  0
VERTEX
  8
LY_1
  6
CONTINUOUS
 62
     7
  5
165
 10
419.968982
 20
62.984361
 30
0.0
  0
VERTEX
  8
LY_1
  6
CONTINUOUS
 62
     7
  5
166
 10
420.068522
 20
62.102891
 30
0.0
  0
VERTEX
  8
LY_1
  6
CONTINUOUS
 62
     7
  5
167
 10
420.165392
 20
61.221631
 30
0.0
  0
VERTEX
  8
LY_1
  6
CONTINUOUS
 62
     7
  5
168
 10
420.259335
 20
60.340479
 30
0.0
  0
VERTEX
  8
LY_1
  6
CONTINUOUS
 62
     7
  5
169
 10
420.350097
 20
59.45933
 30
0.0
  0
VERTEX
  8
LY_1
  6
CONTINUOUS
 62
     7
  5
16A
 10
420.437421
 20
58.578081
 30
0.0
  0
VERTEX
  8
LY_1
  6
CONTINUOUS
 62
     7
  5
16B
 10
420.521053
 20
57.696627
 30
0.0
  0
VERTEX
  8
LY_1
  6
CONTINUOUS
 62
     7
  5
16C
 10
420.600736
 20
56.814865
 30
0.0
  0
VERTEX
  8
LY_1
  6
CONTINUOUS
 62
     7
  5
16D
 10
420.676216
 20
55.93269
 30
0.0
  0
VERTEX
  8
LY_1
  6
CONTINUOUS
 62
     7
  5
16E
 10
420.747236
 20
55.049999
 30
0.0
  0
VERTEX
  8
LY_1
  6
CONTINUOUS
 62
     7
  5
16F
 10
420.813542
 20
54.166688
 30
0.0
  0
VERTEX
  8
LY_1
  6
CONTINUOUS
 62
     7
  5
170
 10
420.874877
 20
53.282652
 30
0.0
  0
VERTEX
  8
LY_1
  6
CONTINUOUS
 62
     7
  5
171
 10
420.949663
 20
52.085456
 30
0.0
  0
VERTEX
  8
LY_1
  6
CONTINUOUS
 62
     7
  5
172
 10
421.015317
 20
50.886807
 30
0.0
  0
VERTEX
  8
LY_1
  6
CONTINUOUS
 62
     7
  5
173
 10
421.072269
 20
49.686769
 30
0.0
  0
VERTEX
  8
LY_1
  6
CONTINUOUS
 62
     7
  5
174
 10
421.12095
 20
48.485404
 30
0.0
  0
VERTEX
  8
LY_1
  6
CONTINUOUS
 62
     7
  5
175
 10
421.161791
 20
47.282776
 30
0.0
  0
VERTEX
  8
LY_1
  6
CONTINUOUS
 62
     7
  5
176
 10
421.195223
 20
46.078948
 30
0.0
  0
VERTEX
  8
LY_1
  6
CONTINUOUS
 62
     7
  5
177
 10
421.221676
 20
44.873983
 30
0.0
  0
VERTEX
  8
LY_1
  6
CONTINUOUS
 62
     7
  5
178
 10
421.241581
 20
43.667945
 30
0.0
  0
VERTEX
  8
LY_1
  6
CONTINUOUS
 62
     7
  5
179
 10
421.255368
 20
42.460895
 30
0.0
  0
VERTEX
  8
LY_1
  6
CONTINUOUS
 62
     7
  5
17A
 10
421.263469
 20
41.252899
 30
0.0
  0
VERTEX
  8
LY_1
  6
CONTINUOUS
 62
     7
  5
17B
 10
421.266315
 20
40.044018
 30
0.0
  0
VERTEX
  8
LY_1
  6
CONTINUOUS
 62
     7
  5
17C
 10
421.264335
 20
38.834315
 30
0.0
  0
VERTEX
  8
LY_1
  6
CONTINUOUS
 62
     7
  5
17D
 10
421.257962
 20
37.623855
 30
0.0
  0
VERTEX
  8
LY_1
  6
CONTINUOUS
 62
     7
  5
17E
 10
421.247625
 20
36.4127
 30
0.0
  0
VERTEX
  8
LY_1
  6
CONTINUOUS
 62
     7
  5
17F
 10
421.233755
 20
35.200913
 30
0.0
  0
VERTEX
  8
LY_1
  6
CONTINUOUS
 62
     7
  5
180
 10
421.216784
 20
33.988558
 30
0.0
  0
VERTEX
  8
LY_1
  6
CONTINUOUS
 62
     7
  5
181
 10
421.197141
 20
32.775697
 30
0.0
  0
VERTEX
  8
LY_1
  6
CONTINUOUS
 62
     7
  5
182
 10
421.175258
 20
31.562393
 30
0.0
  0
VERTEX
  8
LY_1
  6
CONTINUOUS
 62
     7
  5
183
 10
421.151565
 20
30.348711
 30
0.0
  0
VERTEX
  8
LY_1
  6
CONTINUOUS
 62
     7
  5
184
 10
421.126493
 20
29.134713
 30
0.0
  0
VERTEX
  8
LY_1
  6
CONTINUOUS
 62
     7
  5
185
 10
421.100474
 20
27.920461
 30
0.0
  0
VERTEX
  8
LY_1
  6
CONTINUOUS
 62
     7
  5
186
 10
421.073936
 20
26.70602
 30
0.0
  0
VERTEX
  8
LY_1
  6
CONTINUOUS
 62
     7
  5
187
 10
421.047313
 20
25.491453
 30
0.0
  0
VERTEX
  8
LY_1
  6
CONTINUOUS
 62
     7
  5
188
 10
421.021033
 20
24.276822
 30
0.0
  0
VERTEX
  8
LY_1
  6
CONTINUOUS
 62
     7
  5
189
 10
420.995528
 20
23.06219
 30
0.0
  0
VERTEX
  8
LY_1
  6
CONTINUOUS
 62
     7
  5
18A
 10
420.971229
 20
21.847622
 30
0.0
  0
VERTEX
  8
LY_1
  6
CONTINUOUS
 62
     7
  5
18B
 10
420.948567
 20
20.633179
 30
0.0
  0
VERTEX
  8
LY_1
  6
CONTINUOUS
 62
     7
  5
18C
 10
420.927971
 20
19.418926
 30
0.0
  0
VERTEX
  8
LY_1
  6
CONTINUOUS
 62
     7
  5
18D
 10
420.909874
 20
18.204925
 30
0.0
  0
VERTEX
  8
LY_1
  6
CONTINUOUS
 62
     7
  5
18E
 10
420.894705
 20
16.991239
 30
0.0
  0
VERTEX
  8
LY_1
  6
CONTINUOUS
 62
     7
  5
18F
 10
420.882896
 20
15.777933
 30
0.0
  0
VERTEX
  8
LY_1
  6
CONTINUOUS
 62
     7
  5
190
 10
420.874877
 20
14.565067
 30
0.0
  0
VERTEX
  8
LY_1
  6
CONTINUOUS
 62
     7
  5
191
 10
420.87144
 20
13.599758
 30
0.0
  0
VERTEX
  8
LY_1
  6
CONTINUOUS
 62
     7
  5
192
 10
420.870601
 20
12.634754
 30
0.0
  0
VERTEX
  8
LY_1
  6
CONTINUOUS
 62
     7
  5
193
 10
420.872281
 20
11.670038
 30
0.0
  0
VERTEX
  8
LY_1
  6
CONTINUOUS
 62
     7
  5
194
 10
420.876402
 20
10.705596
 30
0.0
  0
VERTEX
  8
LY_1
  6
CONTINUOUS
 62
     7
  5
195
 10
420.882885
 20
9.741412
 30
0.0
  0
VERTEX
  8
LY_1
  6
CONTINUOUS
 62
     7
  5
196
 10
420.891653
 20
8.77747
 30
0.0
  0
VERTEX
  8
LY_1
  6
CONTINUOUS
 62
     7
  5
197
 10
420.902627
 20
7.813755
 30
0.0
  0
VERTEX
  8
LY_1
  6
CONTINUOUS
 62
     7
  5
198
 10
420.915729
 20
6.850251
 30
0.0
  0
VERTEX
  8
LY_1
  6
CONTINUOUS
 62
     7
  5
199
 10
420.930881
 20
5.886943
 30
0.0
  0
VERTEX
  8
LY_1
  6
CONTINUOUS
 62
     7
  5
19A
 10
420.948004
 20
4.923814
 30
0.0
  0
VERTEX
  8
LY_1
  6
CONTINUOUS
 62
     7
  5
19B
 10
420.96702
 20
3.96085
 30
0.0
  0
VERTEX
  8
LY_1
  6
CONTINUOUS
 62
     7
  5
19C
 10
420.987851
 20
2.998035
 30
0.0
  0
VERTEX
  8
LY_1
  6
CONTINUOUS
 62
     7
  5
19D
 10
421.010418
 20
2.035353
 30
0.0
  0
VERTEX
  8
LY_1
  6
CONTINUOUS
 62
     7
  5
19E
 10
421.034644
 20
1.072789
 30
0.0
  0
VERTEX
  8
LY_1
  6
CONTINUOUS
 62
     7
  5
19F
 10
421.060449
 20
0.110328
 30
0.0
  0
VERTEX
  8
LY_1
  6
CONTINUOUS
 62
     7
  5
1A0
 10
421.087757
 20
-0.852048
 30
0.0
  0
VERTEX
  8
LY_1
  6
CONTINUOUS
 62
     7
  5
1A1
 10
421.116488
 20
-1.814352
 30
0.0
  0
VERTEX
  8
LY_1
  6
CONTINUOUS
 62
     7
  5
1A2
 10
421.146564
 20
-2.7766
 30
0.0
  0
VERTEX
  8
LY_1
  6
CONTINUOUS
 62
     7
  5
1A3
 10
421.177906
 20
-3.738809
 30
0.0
  0
VERTEX
  8
LY_1
  6
CONTINUOUS
 62
     7
  5
1A4
 10
421.210438
 20
-4.700993
 30
0.0
  0
VERTEX
  8
LY_1
  6
CONTINUOUS
 62
     7
  5
1A5
 10
421.24408
 20
-5.663169
 30
0.0
  0
VERTEX
  8
LY_1
  6
CONTINUOUS
 62
     7
  5
1A6
 10
421.278754
 20
-6.625351
 30
0.0
  0
VERTEX
  8
LY_1
  6
CONTINUOUS
 62
     7
  5
1A7
 10
421.314382
 20
-7.587556
 30
0.0
  0
VERTEX
  8
LY_1
  6
CONTINUOUS
 62
     7
  5
1A8
 10
421.350886
 20
-8.549799
 30
0.0
  0
VERTEX
  8
LY_1
  6
CONTINUOUS
 62
     7
  5
1A9
 10
421.388187
 20
-9.512095
 30
0.0
  0
VERTEX
  8
LY_1
  6
CONTINUOUS
 62
     7
  5
1AA
 10
421.426207
 20
-10.47446
 30
0.0
  0
VERTEX
  8
LY_1
  6
CONTINUOUS
 62
     7
  5
1AB
 10
421.464867
 20
-11.43691
 30
0.0
  0
VERTEX
  8
LY_1
  6
CONTINUOUS
 62
     7
  5
1AC
 10
421.504091
 20
-12.39946
 30
0.0
  0
VERTEX
  8
LY_1
  6
CONTINUOUS
 62
     7
  5
1AD
 10
421.543798
 20
-13.362125
 30
0.0
  0
VERTEX
  8
LY_1
  6
CONTINUOUS
 62
     7
  5
1AE
 10
421.583912
 20
-14.324922
 30
0.0
  0
VERTEX
  8
LY_1
  6
CONTINUOUS
 62
     7
  5
1AF
 10
421.624353
 20
-15.287866
 30
0.0
  0
VERTEX
  8
LY_1
  6
CONTINUOUS
 62
     7
  5
1B0
 10
421.665044
 20
-16.250973
 30
0.0
  0
VERTEX
  8
LY_1
  6
CONTINUOUS
 62
     7
  5
1B1
 10
421.70796
 20
-17.263321
 30
0.0
  0
VERTEX
  8
LY_1
  6
CONTINUOUS
 62
     7
  5
1B2
 10
421.750797
 20
-18.275848
 30
0.0
  0
VERTEX
  8
LY_1
  6
CONTINUOUS
 62
     7
  5
1B3
 10
421.793285
 20
-19.288535
 30
0.0
  0
VERTEX
  8
LY_1
  6
CONTINUOUS
 62
     7
  5
1B4
 10
421.835156
 20
-20.301366
 30
0.0
  0
VERTEX
  8
LY_1
  6
CONTINUOUS
 62
     7
  5
1B5
 10
421.87614
 20
-21.314323
 30
0.0
  0
VERTEX
  8
LY_1
  6
CONTINUOUS
 62
     7
  5
1B6
 10
421.915969
 20
-22.327388
 30
0.0
  0
VERTEX
  8
LY_1
  6
CONTINUOUS
 62
     7
  5
1B7
 10
421.954373
 20
-23.340543
 30
0.0
  0
VERTEX
  8
LY_1
  6
CONTINUOUS
 62
     7
  5
1B8
 10
421.991085
 20
-24.353772
 30
0.0
  0
VERTEX
  8
LY_1
  6
CONTINUOUS
 62
     7
  5
1B9
 10
422.025834
 20
-25.367055
 30
0.0
  0
VERTEX
  8
LY_1
  6
CONTINUOUS
 62
     7
  5
1BA
 10
422.058352
 20
-26.380376
 30
0.0
  0
VERTEX
  8
LY_1
  6
CONTINUOUS
 62
     7
  5
1BB
 10
422.08837
 20
-27.393717
 30
0.0
  0
VERTEX
  8
LY_1
  6
CONTINUOUS
 62
     7
  5
1BC
 10
422.115619
 20
-28.40706
 30
0.0
  0
VERTEX
  8
LY_1
  6
CONTINUOUS
 62
     7
  5
1BD
 10
422.139831
 20
-29.420388
 30
0.0
  0
VERTEX
  8
LY_1
  6
CONTINUOUS
 62
     7
  5
1BE
 10
422.160736
 20
-30.433683
 30
0.0
  0
VERTEX
  8
LY_1
  6
CONTINUOUS
 62
     7
  5
1BF
 10
422.178066
 20
-31.446928
 30
0.0
  0
VERTEX
  8
LY_1
  6
CONTINUOUS
 62
     7
  5
1C0
 10
422.191551
 20
-32.460104
 30
0.0
  0
VERTEX
  8
LY_1
  6
CONTINUOUS
 62
     7
  5
1C1
 10
422.200923
 20
-33.473195
 30
0.0
  0
VERTEX
  8
LY_1
  6
CONTINUOUS
 62
     7
  5
1C2
 10
422.205912
 20
-34.486182
 30
0.0
  0
VERTEX
  8
LY_1
  6
CONTINUOUS
 62
     7
  5
1C3
 10
422.20625
 20
-35.499048
 30
0.0
  0
VERTEX
  8
LY_1
  6
CONTINUOUS
 62
     7
  5
1C4
 10
422.201669
 20
-36.511776
 30
0.0
  0
VERTEX
  8
LY_1
  6
CONTINUOUS
 62
     7
  5
1C5
 10
422.191898
 20
-37.524347
 30
0.0
  0
VERTEX
  8
LY_1
  6
CONTINUOUS
 62
     7
  5
1C6
 10
422.17667
 20
-38.536744
 30
0.0
  0
VERTEX
  8
LY_1
  6
CONTINUOUS
 62
     7
  5
1C7
 10
422.155714
 20
-39.548949
 30
0.0
  0
VERTEX
  8
LY_1
  6
CONTINUOUS
 62
     7
  5
1C8
 10
422.128763
 20
-40.560946
 30
0.0
  0
VERTEX
  8
LY_1
  6
CONTINUOUS
 62
     7
  5
1C9
 10
422.095548
 20
-41.572715
 30
0.0
  0
VERTEX
  8
LY_1
  6
CONTINUOUS
 62
     7
  5
1CA
 10
422.055799
 20
-42.58424
 30
0.0
  0
VERTEX
  8
LY_1
  6
CONTINUOUS
 62
     7
  5
1CB
 10
422.009248
 20
-43.595503
 30
0.0
  0
VERTEX
  8
LY_1
  6
CONTINUOUS
 62
     7
  5
1CC
 10
421.955625
 20
-44.606487
 30
0.0
  0
VERTEX
  8
LY_1
  6
CONTINUOUS
 62
     7
  5
1CD
 10
421.894662
 20
-45.617173
 30
0.0
  0
VERTEX
  8
LY_1
  6
CONTINUOUS
 62
     7
  5
1CE
 10
421.82609
 20
-46.627544
 30
0.0
  0
VERTEX
  8
LY_1
  6
CONTINUOUS
 62
     7
  5
1CF
 10
421.74964
 20
-47.637582
 30
0.0
  0
VERTEX
  8
LY_1
  6
CONTINUOUS
 62
     7
  5
1D0
 10
421.665044
 20
-48.64727
 30
0.0
  0
VERTEX
  8
LY_1
  6
CONTINUOUS
 62
     7
  5
1D1
 10
421.579504
 20
-49.579172
 30
0.0
  0
VERTEX
  8
LY_1
  6
CONTINUOUS
 62
     7
  5
1D2
 10
421.486785
 20
-50.510682
 30
0.0
  0
VERTEX
  8
LY_1
  6
CONTINUOUS
 62
     7
  5
1D3
 10
421.386883
 20
-51.441721
 30
0.0
  0
VERTEX
  8
LY_1
  6
CONTINUOUS
 62
     7
  5
1D4
 10
421.279791
 20
-52.372209
 30
0.0
  0
VERTEX
  8
LY_1
  6
CONTINUOUS
 62
     7
  5
1D5
 10
421.165507
 20
-53.302069
 30
0.0
  0
VERTEX
  8
LY_1
  6
CONTINUOUS
 62
     7
  5
1D6
 10
421.044025
 20
-54.231222
 30
0.0
  0
VERTEX
  8
LY_1
  6
CONTINUOUS
 62
     7
  5
1D7
 10
420.91534
 20
-55.159589
 30
0.0
  0
VERTEX
  8
LY_1
  6
CONTINUOUS
 62
     7
  5
1D8
 10
420.779448
 20
-56.087091
 30
0.0
  0
VERTEX
  8
LY_1
  6
CONTINUOUS
 62
     7
  5
1D9
 10
420.636344
 20
-57.01365
 30
0.0
  0
VERTEX
  8
LY_1
  6
CONTINUOUS
 62
     7
  5
1DA
 10
420.486023
 20
-57.939186
 30
0.0
  0
VERTEX
  8
LY_1
  6
CONTINUOUS
 62
     7
  5
1DB
 10
420.328481
 20
-58.863621
 30
0.0
  0
VERTEX
  8
LY_1
  6
CONTINUOUS
 62
     7
  5
1DC
 10
420.163714
 20
-59.786877
 30
0.0
  0
VERTEX
  8
LY_1
  6
CONTINUOUS
 62
     7
  5
1DD
 10
419.991716
 20
-60.708874
 30
0.0
  0
VERTEX
  8
LY_1
  6
CONTINUOUS
 62
     7
  5
1DE
 10
419.812482
 20
-61.629534
 30
0.0
  0
VERTEX
  8
LY_1
  6
CONTINUOUS
 62
     7
  5
1DF
 10
419.626009
 20
-62.548777
 30
0.0
  0
VERTEX
  8
LY_1
  6
CONTINUOUS
 62
     7
  5
1E0
 10
419.432292
 20
-63.466527
 30
0.0
  0
VERTEX
  8
LY_1
  6
CONTINUOUS
 62
     7
  5
1E1
 10
419.231325
 20
-64.382703
 30
0.0
  0
VERTEX
  8
LY_1
  6
CONTINUOUS
 62
     7
  5
1E2
 10
419.023104
 20
-65.297226
 30
0.0
  0
VERTEX
  8
LY_1
  6
CONTINUOUS
 62
     7
  5
1E3
 10
418.807625
 20
-66.210019
 30
0.0
  0
VERTEX
  8
LY_1
  6
CONTINUOUS
 62
     7
  5
1E4
 10
418.584882
 20
-67.121003
 30
0.0
  0
VERTEX
  8
LY_1
  6
CONTINUOUS
 62
     7
  5
1E5
 10
418.354872
 20
-68.030098
 30
0.0
  0
VERTEX
  8
LY_1
  6
CONTINUOUS
 62
     7
  5
1E6
 10
418.117589
 20
-68.937226
 30
0.0
  0
VERTEX
  8
LY_1
  6
CONTINUOUS
 62
     7
  5
1E7
 10
417.873029
 20
-69.842308
 30
0.0
  0
VERTEX
  8
LY_1
  6
CONTINUOUS
 62
     7
  5
1E8
 10
417.621187
 20
-70.745266
 30
0.0
  0
VERTEX
  8
LY_1
  6
CONTINUOUS
 62
     7
  5
1E9
 10
417.362059
 20
-71.64602
 30
0.0
  0
VERTEX
  8
LY_1
  6
CONTINUOUS
 62
     7
  5
1EA
 10
417.095639
 20
-72.544492
 30
0.0
  0
VERTEX
  8
LY_1
  6
CONTINUOUS
 62
     7
  5
1EB
 10
416.821924
 20
-73.440604
 30
0.0
  0
VERTEX
  8
LY_1
  6
CONTINUOUS
 62
     7
  5
1EC
 10
416.540908
 20
-74.334276
 30
0.0
  0
VERTEX
  8
LY_1
  6
CONTINUOUS
 62
     7
  5
1ED
 10
416.252587
 20
-75.22543
 30
0.0
  0
VERTEX
  8
LY_1
  6
CONTINUOUS
 62
     7
  5
1EE
 10
415.956957
 20
-76.113987
 30
0.0
  0
VERTEX
  8
LY_1
  6
CONTINUOUS
 62
     7
  5
1EF
 10
415.654011
 20
-76.999869
 30
0.0
  0
VERTEX
  8
LY_1
  6
CONTINUOUS
 62
     7
  5
1F0
 10
415.343747
 20
-77.882996
 30
0.0
  0
VERTEX
  8
LY_1
  6
CONTINUOUS
 62
     7
  5
1F1
 10
415.026514
 20
-78.762367
 30
0.0
  0
VERTEX
  8
LY_1
  6
CONTINUOUS
 62
     7
  5
1F2
 10
414.702052
 20
-79.638911
 30
0.0
  0
VERTEX
  8
LY_1
  6
CONTINUOUS
 62
     7
  5
1F3
 10
414.37044
 20
-80.512628
 30
0.0
  0
VERTEX
  8
LY_1
  6
CONTINUOUS
 62
     7
  5
1F4
 10
414.031756
 20
-81.383518
 30
0.0
  0
VERTEX
  8
LY_1
  6
CONTINUOUS
 62
     7
  5
1F5
 10
413.68608
 20
-82.25158
 30
0.0
  0
VERTEX
  8
LY_1
  6
CONTINUOUS
 62
     7
  5
1F6
 10
413.333491
 20
-83.116814
 30
0.0
  0
VERTEX
  8
LY_1
  6
CONTINUOUS
 62
     7
  5
1F7
 10
412.974068
 20
-83.979222
 30
0.0
  0
VERTEX
  8
LY_1
  6
CONTINUOUS
 62
     7
  5
1F8
 10
412.60789
 20
-84.838801
 30
0.0
  0
VERTEX
  8
LY_1
  6
CONTINUOUS
 62
     7
  5
1F9
 10
412.235036
 20
-85.695553
 30
0.0
  0
VERTEX
  8
LY_1
  6
CONTINUOUS
 62
     7
  5
1FA
 10
411.855585
 20
-86.549477
 30
0.0
  0
VERTEX
  8
LY_1
  6
CONTINUOUS
 62
     7
  5
1FB
 10
411.469617
 20
-87.400573
 30
0.0
  0
VERTEX
  8
LY_1
  6
CONTINUOUS
 62
     7
  5
1FC
 10
411.07721
 20
-88.248841
 30
0.0
  0
VERTEX
  8
LY_1
  6
CONTINUOUS
 62
     7
  5
1FD
 10
410.678444
 20
-89.094281
 30
0.0
  0
VERTEX
  8
LY_1
  6
CONTINUOUS
 62
     7
  5
1FE
 10
410.273397
 20
-89.936893
 30
0.0
  0
VERTEX
  8
LY_1
  6
CONTINUOUS
 62
     7
  5
1FF
 10
409.862149
 20
-90.776677
 30
0.0
  0
VERTEX
  8
LY_1
  6
CONTINUOUS
 62
     7
  5
200
 10
409.444778
 20
-91.613633
 30
0.0
  0
VERTEX
  8
LY_1
  6
CONTINUOUS
 62
     7
  5
201
 10
409.021365
 20
-92.44776
 30
0.0
  0
VERTEX
  8
LY_1
  6
CONTINUOUS
 62
     7
  5
202
 10
408.591987
 20
-93.279059
 30
0.0
  0
VERTEX
  8
LY_1
  6
CONTINUOUS
 62
     7
  5
203
 10
408.156724
 20
-94.10753
 30
0.0
  0
VERTEX
  8
LY_1
  6
CONTINUOUS
 62
     7
  5
204
 10
407.715656
 20
-94.933172
 30
0.0
  0
VERTEX
  8
LY_1
  6
CONTINUOUS
 62
     7
  5
205
 10
407.268861
 20
-95.755985
 30
0.0
  0
VERTEX
  8
LY_1
  6
CONTINUOUS
 62
     7
  5
206
 10
406.816418
 20
-96.57597
 30
0.0
  0
VERTEX
  8
LY_1
  6
CONTINUOUS
 62
     7
  5
207
 10
406.358406
 20
-97.393126
 30
0.0
  0
VERTEX
  8
LY_1
  6
CONTINUOUS
 62
     7
  5
208
 10
405.894905
 20
-98.207453
 30
0.0
  0
VERTEX
  8
LY_1
  6
CONTINUOUS
 62
     7
  5
209
 10
405.425994
 20
-99.018951
 30
0.0
  0
VERTEX
  8
LY_1
  6
CONTINUOUS
 62
     7
  5
20A
 10
404.951751
 20
-99.82762
 30
0.0
  0
VERTEX
  8
LY_1
  6
CONTINUOUS
 62
     7
  5
20B
 10
404.472256
 20
-100.63346
 30
0.0
  0
VERTEX
  8
LY_1
  6
CONTINUOUS
 62
     7
  5
20C
 10
403.987588
 20
-101.436471
 30
0.0
  0
VERTEX
  8
LY_1
  6
CONTINUOUS
 62
     7
  5
20D
 10
403.497826
 20
-102.236652
 30
0.0
  0
VERTEX
  8
LY_1
  6
CONTINUOUS
 62
     7
  5
20E
 10
403.003049
 20
-103.034005
 30
0.0
  0
VERTEX
  8
LY_1
  6
CONTINUOUS
 62
     7
  5
20F
 10
402.503336
 20
-103.828528
 30
0.0
  0
VERTEX
  8
LY_1
  6
CONTINUOUS
 62
     7
  5
210
 10
401.998767
 20
-104.620221
 30
0.0
  0
SEQEND
  8
LY_1
  6
CONTINUOUS
 62
     7
  5
211
  0
ARC
  8
LY_1
  6
CONTINUOUS
 62
   251
  5
63
 10
0.0
 20
210.939997
 30
0.0
 40
16.0
 50
0.0
 51
59.705731
  0
ARC
  8
LY_1
  6
CONTINUOUS
 62
   251
  5
64
 10
0.0
 20
210.939997
 30
0.0
 40
16.0
 50
120.294269
 51
180.000005
  0
ARC
  8
LY_1
  6
CONTINUOUS
 62
   251
  5
65
 10
678.999991
 20
189.939997
 30
0.0
 40
5.0
 50
90.000003
 51
180.000005
  0
ARC
  8
LY_1
  6
CONTINUOUS
 62
   251
  5
66
 10
673.999991
 20
194.939997
 30
0.0
 40
32.0
 50
90.000003
 51
180.000005
  0
ARC
  8
LY_1
  6
CONTINUOUS
 62
   251
  5
67
 10
678.000006
 20
143.0
 30
0.0
 40
5.0
 50
0.0
 51
90.000003
  0
ARC
  8
LY_1
  6
CONTINUOUS
 62
   251
  5
68
 10
650.999999
 20
-48.909245
 30
0.0
 40
5.0
 50
90.000003
 51
180.000005
  0
ARC
  8
LY_1
  6
CONTINUOUS
 62
   251
  5
69
 10
640.999999
 20
100.544729
 30
0.0
 40
5.0
 50
0.0
 51
90.000003
  0
ARC
  8
LY_1
  6
CONTINUOUS
 62
   251
  5
6A
 10
628.000006
 20
-115.0
 30
0.0
 40
5.0
 50
90.000003
 51
180.000005
  0
ARC
  8
LY_1
  6
CONTINUOUS
 62
   251
  5
6B
 10
640.999999
 20
-105.0
 30
0.0
 40
5.0
 50
269.999997
 51
0.0
  0
ARC
  8
LY_1
  6
CONTINUOUS
 62
   251
  5
6C
 10
740.000014
 20
-48.909245
 30
0.0
 40
5.0
 50
0.0
 51
90.000003
  0
ARC
  8
LY_1
  6
CONTINUOUS
 62
   251
  5
6D
 10
740.000014
 20
48.909245
 30
0.0
 40
5.0
 50
269.999997
 51
0.0
  0
ARC
  8
LY_1
  6
CONTINUOUS
 62
   251
  5
6E
 10
650.999999
 20
48.909245
 30
0.0
 40
5.0
 50
179.999991
 51
270.000001
  0
ARC
  8
LY_1
  6
CONTINUOUS
 62
   251
  5
6F
 10
598.406386
 20
154.055972
 30
0.0
 40
6.0
 50
126.423865
 51
189.999962
  0
ARC
  8
LY_1
  6
CONTINUOUS
 62
   251
  5
70
 10
561.593642
 20
154.055972
 30
0.0
 40
6.0
 50
349.863635
 51
53.576154
  0
ARC
  8
LY_1
  6
CONTINUOUS
 62
   251
  5
71
 10
589.234862
 20
160.000002
 30
0.0
 40
2.0
 50
9.999995
 51
89.999982
  0
ARC
  8
LY_1
  6
CONTINUOUS
 62
   251
  5
72
 10
570.765147
 20
160.000002
 30
0.0
 40
2.0
 50
89.999982
 51
170.000021
  0
CIRCLE
  8
LY_1
  6
CONTINUOUS
 62
   251
  5
73
 10
580.000014
 20
179.000003
 30
0.0
 40
15.0
  0
ARC
  8
LY_1
  6
CONTINUOUS
 62
   251
  5
74
 10
580.000014
 20
179.000003
 30
0.0
 40
25.0
 50
306.423846
 51
233.576132
  0
CIRCLE
  8
LY_1
  6
CONTINUOUS
 62
   251
  5
75
 10
585.000014
 20
0.0
 30
0.0
 40
8.50755
  0
CIRCLE
  8
LY_1
  6
CONTINUOUS
 62
     7
  5
76
 10
0.0
 20
0.0
 30
0.0
 40
8.0
  0
ARC
  8
LY_1
  6
CONTINUOUS
 62
   251
  5
77
 10
0.0
 20
0.0
 30
0.0
 40
37.5
 50
15.46601
 51
344.53399
  0
CIRCLE
  8
LY_1
  6
CONTINUOUS
 62
   251
  5
78
 10
0.0
 20
0.0
 30
0.0
 40
7.0
  0
ARC
  8
LY_1
  6
CONTINUOUS
 62
   251
  5
79
 10
395.000004
 20
0.0
 30
0.0
 40
10.0
 50
269.999997
 51
90.000003
  0
CIRCLE
  8
LY_1
  6
CONTINUOUS
 62
   251
  5
7A
 10
0.0
 20
0.0
 30
0.0
 40
150.0
  0
CIRCLE
  8
LY_1
  6
CONTINUOUS
 62
   251
  5
7B
 10
0.0
 20
0.0
 30
0.0
 40
141.999998
  0
CIRCLE
  8
LY_1
  6
CONTINUOUS
 62
   251
  5
7C
 10
0.0
 20
0.0
 30
0.0
 40
110.0
  0
CIRCLE
  8
LY_1
  6
CONTINUOUS
 62
   251
  5
7D
 10
0.0
 20
0.0
 30
0.0
 40
75.0
  0
CIRCLE
  8
LY_1
  6
CONTINUOUS
 62
   251
  5
7E
 10
66.969604
 20
-161.67902
 30
0.0
 40
9.5
  0
ARC
  8
LY_1
  6
CENTER
 62
     7
  5
80
 10
0.0
 20
0.0
 30
0.0
 40
175.0
 50
288.656605
 51
296.856226
  0
CIRCLE
  8
LY_1
  6
CONTINUOUS
 62
   251
  5
81
 10
-66.969604
 20
-161.67902
 30
0.0
 40
9.5
  0
ARC
  8
LY_1
  6
CENTER
 62
     7
  5
82
 10
0.0
 20
0.0
 30
0.0
 40
175.0
 50
243.656607
 51
251.856228
  0
CIRCLE
  8
LY_1
  6
CONTINUOUS
 62
   251
  5
83
 10
-161.678925
 20
-66.969662
 30
0.0
 40
9.5
  0
ARC
  8
LY_1
  6
CENTER
 62
     7
  5
84
 10
0.0
 20
0.0
 30
0.0
 40
175.0
 50
198.656616
 51
206.856231
  0
CIRCLE
  8
LY_1
  6
CONTINUOUS
 62
   251
  5
85
 10
-161.678925
 20
66.969604
 30
0.0
 40
9.5
  0
ARC
  8
LY_1
  6
CENTER
 62
     7
  5
86
 10
0.0
 20
0.0
 30
0.0
 40
175.0
 50
152.135101
 51
163.301835
  0
CIRCLE
  8
LY_1
  6
CONTINUOUS
 62
   251
  5
87
 10
-66.969604
 20
161.678895
 30
0.0
 40
9.5
  0
ARC
  8
LY_1
  6
CENTER
 62
     7
  5
88
 10
0.0
 20
0.0
 30
0.0
 40
175.0
 50
108.656616
 51
116.856231
  0
CIRCLE
  8
LY_1
  6
CONTINUOUS
 62
   251
  5
89
 10
66.969604
 20
161.678895
 30
0.0
 40
9.5
  0
ARC
  8
LY_1
  6
CENTER
 62
     7
  5
8A
 10
0.0
 20
0.0
 30
0.0
 40
175.0
 50
63.656619
 51
71.85624
  0
CIRCLE
  8
LY_1
  6
CONTINUOUS
 62
   251
  5
8B
 10
161.678925
 20
66.969604
 30
0.0
 40
9.5
  0
ARC
  8
LY_1
  6
CENTER
 62
     7
  5
8C
 10
0.0
 20
0.0
 30
0.0
 40
175.0
 50
18.656622
 51
26.856239
  0
CIRCLE
  8
LY_1
  6
CONTINUOUS
 62
   251
  5
8D
 10
161.678925
 20
-66.969662
 30
0.0
 40
9.5
  0
ARC
  8
LY_1
  6
CENTER
 62
     7
  5
8E
 10
0.0
 20
0.0
 30
0.0
 40
175.0
 50
332.443764
 51
342.744442
  0
CIRCLE
  8
LY_1
  6
CONTINUOUS
 62
   251
  5
8F
 10
0.0
 20
0.0
 30
0.0
 40
200.0
  0
ARC
  8
LY_1
  6
CONTINUOUS
 62
   251
  5
90
 10
498.000006
 20
-67.343197
 30
0.0
 40
5.0
 50
0.0
 51
90.000003
  0
ARC
  8
LY_1
  6
CONTINUOUS
 62
   251
  5
91
 10
476.379885
 20
-72.343197
 30
0.0
 40
10.0
 50
90.000003
 51
127.34915
  0
ARC
  8
LY_1
  6
CONTINUOUS
 62
   251
  5
92
 10
498.000006
 20
67.34314
 30
0.0
 40
5.0
 50
269.999997
 51
0.0
  0
ARC
  8
LY_1
  6
CONTINUOUS
 62
   251
  5
93
 10
445.000004
 20
96.290774
 30
0.0
 40
10.0
 50
179.999991
 51
232.65086
  0
ARC
  8
LY_1
  6
CONTINUOUS
 62
   251
  5
94
 10
476.379885
 20
72.34314
 30
0.0
 40
10.0
 50
232.65085
 51
269.999997
  0
ARC
  8
LY_1
  6
CONTINUOUS
 62
   251
  5
95
 10
445.000004
 20
-96.290836
 30
0.0
 40
10.0
 50
127.34915
 51
180.000005
  0
ARC
  8
LY_1
  6
CONTINUOUS
 62
   251
  5
96
 10
445.000004
 20
158.000001
 30
0.0
 40
10.0
 50
179.999991
 51
270.000001
  0
LINE
  8
LY_1
  6
CONTINUOUS
 62
   251
  5
97
 10
593.4853
 20
0.000003
 30
0.0
 11
585.000014
 21
-8.485281
 31
0.0
  0
LINE
  8
LY_1
  6
CONTINUOUS
 62
   251
  5
98
 10
585.000014
 20
-8.485281
 30
0.0
 11
576.514734
 21
0.0
 31
0.0
  0
LINE
  8
LY_1
  6
CONTINUOUS
 62
   251
  5
99
 10
585.000019
 20
8.485283
 30
0.0
 11
576.514734
 21
0.0
 31
0.0
  0
LINE
  8
LY_1
  6
CONTINUOUS
 62
   251
  5
9A
 10
593.4853
 20
0.000003
 30
0.0
 11
585.000019
 21
8.485283
 31
0.0
  0
LINE
  8
LY_1
  6
CONTINUOUS
 62
   251
  5
9B
 10
690.000014
 20
226.939996
 30
0.0
 11
673.999991
 21
226.939996
 31
0.0
  0
LINE
  8
LY_1
  6
CENTER
 62
     7
  5
9C
 10
713.999991
 20
210.939996
 30
0.0
 11
639.802451
 21
210.939996
 31
0.0
  0
LINE
  8
LY_1
  6
CONTINUOUS
 62
   251
  5
9D
 10
690.000014
 20
194.939997
 30
0.0
 11
678.999991
 21
194.939997
 31
0.0
  0
LINE
  8
LY_1
  6
CONTINUOUS
 62
   251
  5
9E
 10
673.999991
 20
189.939997
 30
0.0
 11
673.999991
 21
178.939998
 31
0.0
  0
LINE
  8
LY_1
  6
CONTINUOUS
 62
   251
  5
9F
 10
642.000022
 20
194.939997
 30
0.0
 11
642.000022
 21
178.939998
 31
0.0
  0
LINE
  8
LY_1
  6
CONTINUOUS
 62
   251
  5
A0
 10
690.000014
 20
226.939996
 30
0.0
 11
690.000014
 21
194.939997
 31
0.0
  0
LINE
  8
LY_1
  6
CONTINUOUS
 62
   251
  5
A1
 10
673.999991
 20
178.939998
 30
0.0
 11
642.000022
 21
178.939998
 31
0.0
  0
LINE
  8
LY_1
  6
CONTINUOUS
 62
   251
  5
A2
 10
644.500022
 20
178.939998
 30
0.0
 11
644.500022
 21
148.0
 31
0.0
  0
LINE
  8
LY_1
  6
CONTINUOUS
 62
   251
  5
A3
 10
671.499991
 20
178.939998
 30
0.0
 11
671.499991
 21
148.0
 31
0.0
  0
LINE
  8
LY_1
  6
CONTINUOUS
 62
   251
  5
A4
 10
708.999991
 20
199.747608
 30
0.0
 11
708.999991
 21
222.13239
 31
0.0
  0
LINE
  8
LY_1
  6
CONTINUOUS
 62
   251
  5
A5
 10
698.000006
 20
197.486561
 30
0.0
 11
698.000006
 21
224.393437
 31
0.0
  0
LINE
  8
LY_1
  6
CONTINUOUS
 62
   251
  5
A6
 10
698.000003
 20
197.486556
 30
0.0
 11
690.000025
 21
197.736556
 31
0.0
  0
LINE
  8
LY_1
  6
CONTINUOUS
 62
   251
  5
A7
 10
698.000002
 20
224.393432
 30
0.0
 11
690.000024
 21
224.143433
 31
0.0
  0
LINE
  8
LY_1
  6
CONTINUOUS
 62
   251
  5
A8
 10
708.999991
 20
199.747608
 30
0.0
 11
698.000006
 21
199.747608
 31
0.0
  0
LINE
  8
LY_1
  6
CONTINUOUS
 62
   251
  5
A9
 10
708.999991
 20
222.13239
 30
0.0
 11
698.000006
 21
222.13239
 31
0.0
  0
LINE
  8
LY_1
  6
CONTINUOUS
 62
   251
  5
AA
 10
708.999991
 20
210.939996
 30
0.0
 11
698.000006
 21
210.939996
 31
0.0
  0
LINE
  8
LY_1
  6
CONTINUOUS
 62
     7
  5
AB
 10
709.000001
 20
222.132374
 30
0.0
 11
698.000015
 21
210.939998
 31
0.0
  0
LINE
  8
LY_1
  6
CONTINUOUS
 62
     7
  5
AC
 10
708.999992
 20
210.939995
 30
0.0
 11
697.999994
 21
222.132384
 31
0.0
  0
LINE
  8
LY_1
  6
CONTINUOUS
 62
     7
  5
AD
 10
698.000007
 20
210.939986
 30
0.0
 11
709.000006
 21
199.747596
 31
0.0
  0
LINE
  8
LY_1
  6
CONTINUOUS
 62
     7
  5
AE
 10
698.000002
 20
199.7476
 30
0.0
 11
709.000001
 21
210.939989
 31
0.0
  0
LINE
  8
LY_1
  6
CONTINUOUS
 62
   251
  5
AF
 10
395.000001
 20
10.0
 30
0.0
 11
395.000001
 21
-10.0
 31
0.0
  0
LINE
  8
LY_1
  6
CONTINUOUS
 62
   251
  5
B0
 10
42.0
 20
10.0
 30
0.0
 11
42.0
 21
-10.0
 31
0.0
  0
LINE
  8
LY_1
  6
CONTINUOUS
 62
   251
  5
B1
 10
603.000006
 20
148.0
 30
0.0
 11
678.000006
 21
148.0
 31
0.0
  0
LINE
  8
LY_1
  6
CONTINUOUS
 62
   251
  5
B2
 10
650.999999
 20
43.909245
 30
0.0
 11
740.000014
 21
43.909245
 31
0.0
  0
LINE
  8
LY_1
  6
CONTINUOUS
 62
   251
  5
B3
 10
683.000006
 20
68.721557
 30
0.0
 11
745.000014
 21
68.721557
 31
0.0
  0
LINE
  8
LY_1
  6
CONTINUOUS
 62
   251
  5
B4
 10
683.000006
 20
58.114948
 30
0.0
 11
745.000014
 21
58.114948
 31
0.0
  0
LINE
  8
LY_1
  6
CONTINUOUS
 62
   251
  5
B5
 10
650.999999
 20
-43.909245
 30
0.0
 11
740.000014
 21
-43.909245
 31
0.0
  0
LINE
  8
LY_1
  6
CONTINUOUS
 62
   251
  5
B6
 10
645.999999
 20
-68.721561
 30
0.0
 11
745.000014
 21
-68.721561
 31
0.0
  0
LINE
  8
LY_1
  6
CONTINUOUS
 62
   251
  5
B7
 10
645.999999
 20
-58.114948
 30
0.0
 11
745.000014
 21
-58.114948
 31
0.0
  0
LINE
  8
LY_1
  6
CONTINUOUS
 62
   251
  5
B8
 10
745.000014
 20
88.000002
 30
0.0
 11
745.000014
 21
-88.000011
 31
0.0
  0
LINE
  8
LY_1
  6
CONTINUOUS
 62
   251
  5
B9
 10
767.000022
 20
88.000002
 30
0.0
 11
767.000022
 21
-88.000011
 31
0.0
  0
LINE
  8
LY_1
  6
CONTINUOUS
 62
   251
  5
BA
 10
623.000006
 20
105.544729
 30
0.0
 11
640.999999
 21
105.544729
 31
0.0
  0
LINE
  8
LY_1
  6
CONTINUOUS
 62
   251
  5
BB
 10
628.000006
 20
-110.0
 30
0.0
 11
640.999999
 21
-110.0
 31
0.0
  0
LINE
  8
LY_1
  6
CONTINUOUS
 62
   251
  5
BC
 10
645.999999
 20
100.544729
 30
0.0
 11
645.999999
 21
-105.0
 31
0.0
  0
LINE
  8
LY_1
  6
CONTINUOUS
 62
   251
  5
BD
 10
745.000014
 20
-88.000011
 30
0.0
 11
767.000022
 21
-88.000011
 31
0.0
  0
LINE
  8
LY_1
  6
CONTINUOUS
 62
   251
  5
BE
 10
745.000014
 20
88.000002
 30
0.0
 11
767.000022
 21
88.000002
 31
0.0
  0
LINE
  8
LY_1
  6
CONTINUOUS
 62
   251
  5
BF
 10
645.999999
 20
54.477758
 30
0.0
 11
683.000006
 21
54.477758
 31
0.0
  0
LINE
  8
LY_1
  6
CONTINUOUS
 62
   251
  5
C0
 10
683.000006
 20
143.0
 30
0.0
 11
683.000006
 21
54.477758
 31
0.0
  0
LINE
  8
LY_1
  6
CONTINUOUS
 62
   251
  5
C1
 10
603.000006
 20
-147.999992
 30
0.0
 11
623.000006
 21
-147.999992
 31
0.0
  0
LINE
  8
LY_1
  6
CONTINUOUS
 62
   251
  5
C2
 10
623.000006
 20
148.0
 30
0.0
 11
623.000006
 21
-147.999992
 31
0.0
  0
LINE
  8
LY_1
  6
CONTINUOUS
 62
   251
  5
C3
 10
569.250006
 20
153.000002
 30
0.0
 11
569.250006
 21
150.000002
 31
0.0
  0
LINE
  8
LY_1
  6
CONTINUOUS
 62
   251
  5
C4
 10
590.750003
 20
153.000002
 30
0.0
 11
590.750003
 21
150.000002
 31
0.0
  0
LINE
  8
LY_1
  6
CONTINUOUS
 62
   251
  5
C5
 10
567.500014
 20
153.000002
 30
0.0
 11
592.500014
 21
153.000002
 31
0.0
  0
LINE
  8
LY_1
  6
CONTINUOUS
 62
   251
  5
C6
 10
580.423342
 20
163.954682
 30
0.0
 11
589.658219
 21
161.954678
 31
0.0
  0
LINE
  8
LY_1
  6
CONTINUOUS
 62
   251
  5
C7
 10
570.341818
 20
161.954738
 30
0.0
 11
579.576695
 21
163.954742
 31
0.0
  0
LINE
  8
LY_1
  6
CONTINUOUS
 62
   251
  5
C8
 10
570.765147
 20
162.000003
 30
0.0
 11
589.234862
 21
162.000003
 31
0.0
  0
LINE
  8
LY_1
  6
CONTINUOUS
 62
   251
  5
C9
 10
591.204476
 20
160.347332
 30
0.0
 11
592.500012
 21
152.999983
 31
0.0
  0
LINE
  8
LY_1
  6
CONTINUOUS
 62
   251
  5
CA
 10
567.500065
 20
153.000018
 30
0.0
 11
568.795591
 21
160.347307
 31
0.0
  0
LINE
  8
LY_1
  6
CENTER
 62
     7
  5
CB
 10
585.000014
 20
14.157743
 30
0.0
 11
585.000014
 21
-13.179379
 31
0.0
  0
LINE
  8
LY_1
  6
CONTINUOUS
 62
   251
  5
CC
 10
556.50001
 20
150.000002
 30
0.0
 11
556.50001
 21
-150.0
 31
0.0
  0
LINE
  8
LY_1
  6
CONTINUOUS
 62
   251
  5
CD
 10
524.999995
 20
-150.0
 30
0.0
 11
603.000006
 21
-150.0
 31
0.0
  0
LINE
  8
LY_1
  6
CONTINUOUS
 62
   251
  5
CE
 10
524.999995
 20
150.000002
 30
0.0
 11
603.000006
 21
150.000002
 31
0.0
  0
LINE
  8
LY_1
  6
CENTER
 62
     7
  5
CF
 10
545.000014
 20
179.000003
 30
0.0
 11
615.000014
 21
179.000003
 31
0.0
  0
LINE
  8
LY_1
  6
CENTER
 62
     7
  5
D0
 10
580.000014
 20
218.114443
 30
0.0
 11
580.000014
 21
143.908572
 31
0.0
  0
LINE
  8
LY_1
  6
CENTER
 62
     7
  5
D1
 10
658.000006
 20
231.750586
 30
0.0
 11
658.000006
 21
140.024728
 31
0.0
  0
LINE
  8
LY_1
  6
CONTINUOUS
 62
   251
  5
D2
 10
15.999985
 20
210.962267
 30
0.0
 11
15.999985
 21
199.358974
 31
0.0
  0
LINE
  8
LY_1
  6
CONTINUOUS
 62
   251
  5
D3
 10
-15.999985
 20
210.962267
 30
0.0
 11
-15.999985
 21
199.358974
 31
0.0
  0
LINE
  8
LY_1
  6
CONTINUOUS
 62
   251
  5
D4
 10
30.0
 20
10.0
 30
0.0
 11
30.0
 21
-10.0
 31
0.0
  0
LINE
  8
LY_1
  6
CONTINUOUS
 62
   251
  5
D5
 10
42.0
 20
-10.0
 30
0.0
 11
30.0
 21
-10.0
 31
0.0
  0
LINE
  8
LY_1
  6
CONTINUOUS
 62
   251
  5
D6
 10
42.0
 20
10.0
 30
0.0
 11
30.0
 21
10.0
 31
0.0
  0
LINE
  8
LY_1
  6
CENTER
 62
     7
  5
D7
 10
-215.0
 20
0.0
 30
0.0
 11
214.55021
 21
0.0
 31
0.0
  0
LINE
  8
LY_1
  6
CENTER
 62
     7
  5
D8
 10
0.0
 20
244.750004
 30
0.0
 11
0.0
 21
-215.0
 31
0.0
  0
LINE
  8
LY_1
  6
CENTER
 62
     7
  5
D9
 10
474.999995
 20
239.962406
 30
0.0
 11
474.999995
 21
138.284241
 31
0.0
  0
LINE
  8
LY_1
  6
CONTINUOUS
 62
     7
  5
DA
 10
8.071063
 20
222.949999
 30
0.0
 11
-0.000006
 21
231.95
 31
0.0
  0
LINE
  8
LY_1
  6
CONTINUOUS
 62
     7
  5
DB
 10
8.071083
 20
231.949989
 30
0.0
 11
0.000019
 21
222.949958
 31
0.0
  0
LINE
  8
LY_1
  6
CONTINUOUS
 62
     7
  5
DC
 10
-8.071076
 20
222.949998
 30
0.0
 11
-0.000005
 21
231.949998
 31
0.0
  0
LINE
  8
LY_1
  6
CONTINUOUS
 62
   251
  5
DD
 10
-8.07106
 20
231.949978
 30
0.0
 11
-8.07106
 21
222.949982
 31
0.0
  0
LINE
  8
LY_1
  6
CONTINUOUS
 62
   251
  5
DE
 10
8.07106
 20
231.949978
 30
0.0
 11
8.07106
 21
222.949982
 31
0.0
  0
LINE
  8
LY_1
  6
CONTINUOUS
 62
   251
  5
DF
 10
-8.507574
 20
222.949988
 30
0.0
 11
-8.331011
 21
217.299975
 31
0.0
  0
LINE
  8
LY_1
  6
CONTINUOUS
 62
   251
  5
E0
 10
8.50755
 20
222.949993
 30
0.0
 11
8.330988
 21
217.299999
 31
0.0
  0
LINE
  8
LY_1
  6
CONTINUOUS
 62
   251
  5
E1
 10
8.507576
 20
222.949982
 30
0.0
 11
-8.507538
 21
222.949982
 31
0.0
  0
LINE
  8
LY_1
  6
CONTINUOUS
 62
   251
  5
E2
 10
8.07106
 20
231.949978
 30
0.0
 11
-8.07106
 21
231.949978
 31
0.0
  0
LINE
  8
LY_1
  6
CONTINUOUS
 62
     7
  5
E3
 10
-8.071055
 20
231.949992
 30
0.0
 11
-0.000003
 21
222.949975
 31
0.0
  0
LINE
  8
LY_1
  6
CONTINUOUS
 62
     7
  5
E4
 10
466.928972
 20
231.950015
 30
0.0
 11
475.000024
 21
222.949998
 31
0.0
  0
LINE
  8
LY_1
  6
CONTINUOUS
 62
     7
  5
E5
 10
483.071086
 20
222.950014
 30
0.0
 11
475.000016
 21
231.950015
 31
0.0
  0
LINE
  8
LY_1
  6
CONTINUOUS
 62
     7
  5
E6
 10
483.071062
 20
231.949991
 30
0.0
 11
475.00001
 21
222.949974
 31
0.0
  0
LINE
  8
LY_1
  6
CONTINUOUS
 62
     7
  5
E7
 10
466.928944
 20
222.950006
 30
0.0
 11
475.000014
 21
231.950006
 31
0.0
  0
LINE
  8
LY_1
  6
CONTINUOUS
 62
   251
  5
E8
 10
466.928954
 20
231.949978
 30
0.0
 11
466.928954
 21
222.949982
 31
0.0
  0
LINE
  8
LY_1
  6
CONTINUOUS
 62
   251
  5
E9
 10
483.071112
 20
231.949978
 30
0.0
 11
483.071112
 21
222.949982
 31
0.0
  0
LINE
  8
LY_1
  6
CONTINUOUS
 62
   251
  5
EA
 10
466.492444
 20
222.949981
 30
0.0
 11
466.669006
 21
217.299997
 31
0.0
  0
LINE
  8
LY_1
  6
CONTINUOUS
 62
   251
  5
EB
 10
483.507567
 20
222.949985
 30
0.0
 11
483.331005
 21
217.299991
 31
0.0
  0
LINE
  8
LY_1
  6
CONTINUOUS
 62
   251
  5
EC
 10
483.507571
 20
222.949982
 30
0.0
 11
466.492438
 21
222.949982
 31
0.0
  0
LINE
  8
LY_1
  6
CONTINUOUS
 62
   251
  5
ED
 10
483.071112
 20
231.949978
 30
0.0
 11
466.928954
 21
231.949978
 31
0.0
  0
LINE
  8
LY_1
  6
CONTINUOUS
 62
   251
  5
EE
 10
482.000003
 20
185.299988
 30
0.0
 11
482.000003
 21
148.000001
 31
0.0
  0
LINE
  8
LY_1
  6
CONTINUOUS
 62
   251
  5
EF
 10
468.000006
 20
185.299988
 30
0.0
 11
468.000006
 21
148.000001
 31
0.0
  0
LINE
  8
LY_1
  6
CONTINUOUS
 62
   251
  5
F0
 10
486.499991
 20
217.299991
 30
0.0
 11
486.499991
 21
185.299988
 31
0.0
  0
LINE
  8
LY_1
  6
CONTINUOUS
 62
   251
  5
F1
 10
463.499999
 20
217.299991
 30
0.0
 11
463.499999
 21
185.299988
 31
0.0
  0
LINE
  8
LY_1
  6
CONTINUOUS
 62
   251
  5
F2
 10
463.499999
 20
185.299988
 30
0.0
 11
486.499991
 21
185.299988
 31
0.0
  0
LINE
  8
LY_1
  6
CONTINUOUS
 62
   251
  5
F3
 10
463.499999
 20
217.299991
 30
0.0
 11
486.499991
 21
217.299991
 31
0.0
  0
LINE
  8
LY_1
  6
CONTINUOUS
 62
   251
  5
F4
 10
300.0
 20
-10.0
 30
0.0
 11
395.000004
 21
-10.0
 31
0.0
  0
LINE
  8
LY_1
  6
CONTINUOUS
 62
   251
  5
F5
 10
300.0
 20
10.0
 30
0.0
 11
395.000004
 21
10.0
 31
0.0
  0
LINE
  8
LY_1
  6
CENTER
 62
     7
  5
F6
 10
61.892005
 20
-149.421292
 30
0.0
 11
71.882922
 21
-173.541516
 31
0.0
  0
LINE
  8
LY_1
  6
CENTER
 62
     7
  5
F7
 10
-61.892838
 20
-149.420934
 30
0.0
 11
-71.883773
 21
-173.541172
 31
0.0
  0
LINE
  8
LY_1
  6
CENTER
 62
     7
  5
F8
 10
-149.421395
 20
-61.891883
 30
0.0
 11
-173.541636
 21
-71.88281
 31
0.0
  0
LINE
  8
LY_1
  6
CENTER
 62
     7
  5
F9
 10
-149.421218
 20
61.892265
 30
0.0
 11
-173.541456
 21
71.883198
 31
0.0
  0
LINE
  8
LY_1
  6
CENTER
 62
     7
  5
FA
 10
-61.892162
 20
149.421223
 30
0.0
 11
-71.883127
 21
173.541551
 31
0.0
  0
LINE
  8
LY_1
  6
CENTER
 62
     7
  5
FB
 10
61.892161
 20
149.421268
 30
0.0
 11
71.883111
 21
173.541551
 31
0.0
  0
LINE
  8
LY_1
  6
CENTER
 62
     7
  5
FC
 10
149.421496
 20
61.891832
 30
0.0
 11
173.541841
 21
71.882805
 31
0.0
  0
LINE
  8
LY_1
  6
CENTER
 62
     7
  5
FD
 10
149.421205
 20
-61.89253
 30
0.0
 11
173.541424
 21
-71.883459
 31
0.0
  0
LINE
  8
LY_1
  6
CONTINUOUS
 62
   251
  5
FE
 10
410.000004
 20
42.39996
 30
0.0
 11
410.000004
 21
-42.500057
 31
0.0
  0
LINE
  8
LY_1
  6
CONTINUOUS
 62
   251
  5
FF
 10
410.000004
 20
42.5
 30
0.0
 11
421.255002
 21
42.5
 31
0.0
  0
LINE
  8
LY_1
  6
CONTINUOUS
 62
   251
  5
100
 10
410.000004
 20
-42.500057
 30
0.0
 11
422.059331
 21
-42.500057
 31
0.0
  0
LINE
  8
LY_1
  6
CONTINUOUS
 62
   251
  5
101
 10
410.000004
 20
-90.497494
 30
0.0
 11
410.000004
 21
-200.000057
 31
0.0
  0
LINE
  8
LY_1
  6
CONTINUOUS
 62
   251
  5
102
 10
402.000003
 20
-104.619808
 30
0.0
 11
402.000003
 21
-150.000057
 31
0.0
  0
LINE
  8
LY_1
  6
CONTINUOUS
 62
   251
  5
103
 10
300.0
 20
-37.500057
 30
0.0
 11
410.000004
 21
-37.500057
 31
0.0
  0
LINE
  8
LY_1
  6
CONTINUOUS
 62
   251
  5
104
 10
300.0
 20
37.5
 30
0.0
 11
410.000004
 21
37.5
 31
0.0
  0
LINE
  8
LY_1
  6
CONTINUOUS
 62
   251
  5
105
 10
300.0
 20
37.5
 30
0.0
 11
300.0
 21
-37.500057
 31
0.0
  0
LINE
  8
LY_1
  6
CONTINUOUS
 62
   251
  5
106
 10
402.000003
 20
-150.000057
 30
0.0
 11
410.000004
 21
-150.000057
 31
0.0
  0
LINE
  8
LY_1
  6
CONTINUOUS
 62
   251
  5
107
 10
402.000003
 20
150.000001
 30
0.0
 11
410.000004
 21
150.000001
 31
0.0
  0
LINE
  8
LY_1
  6
CONTINUOUS
 62
   251
  5
108
 10
402.000003
 20
150.000001
 30
0.0
 11
402.000003
 21
119.443848
 31
0.0
  0
LINE
  8
LY_1
  6
CONTINUOUS
 62
   251
  5
109
 10
410.000004
 20
200.0
 30
0.0
 11
435.000004
 21
200.0
 31
0.0
  0
LINE
  8
LY_1
  6
CONTINUOUS
 62
   251
  5
10A
 10
410.000004
 20
-200.000057
 30
0.0
 11
435.000004
 21
-200.000057
 31
0.0
  0
LINE
  8
LY_1
  6
CONTINUOUS
 62
   251
  5
10B
 10
410.000004
 20
200.0
 30
0.0
 11
410.000004
 21
111.477723
 31
0.0
  0
LINE
  8
LY_1
  6
CENTER
 62
     7
  5
10C
 10
285.0
 20
0.0
 30
0.0
 11
992.882952
 21
0.0
 31
0.0
  0
LINE
  8
LY_1
  6
CONTINUOUS
 62
   251
  5
10D
 10
11.500015
 20
217.299991
 30
0.0
 11
11.500015
 21
199.66907
 31
0.0
  0
LINE
  8
LY_1
  6
CONTINUOUS
 62
   251
  5
10E
 10
-11.499977
 20
217.299991
 30
0.0
 11
-11.499977
 21
199.66907
 31
0.0
  0
LINE
  8
LY_1
  6
CONTINUOUS
 62
   251
  5
10F
 10
-11.499977
 20
217.299991
 30
0.0
 11
11.500015
 21
217.299991
 31
0.0
  0
LINE
  8
LY_1
  6
CONTINUOUS
 62
   251
  5
110
 10
473.000483
 20
56.477051
 30
0.0
 11
473.000483
 21
-57.566338
 31
0.0
  0
LINE
  8
LY_1
  6
CONTINUOUS
 62
   251
  5
111
 10
435.000555
 20
-148.084883
 30
0.0
 11
503.000577
 21
-111.166042
 31
0.0
  0
LINE
  8
LY_1
  6
CONTINUOUS
 62
   251
  5
112
 10
435.000605
 20
-126.871572
 30
0.0
 11
503.000626
 21
-89.952731
 31
0.0
  0
LINE
  8
LY_1
  6
CONTINUOUS
 62
   251
  5
113
 10
476.379885
 20
-62.343197
 30
0.0
 11
498.000006
 21
-62.343197
 31
0.0
  0
LINE
  8
LY_1
  6
CONTINUOUS
 62
   251
  5
114
 10
438.933476
 20
-88.341515
 30
0.0
 11
470.31337
 21
-64.393878
 31
0.0
  0
LINE
  8
LY_1
  6
CONTINUOUS
 62
   251
  5
115
 10
438.93333
 20
88.34135
 30
0.0
 11
470.313231
 21
64.393707
 31
0.0
  0
LINE
  8
LY_1
  6
CONTINUOUS
 62
   251
  5
116
 10
435.00023
 20
126.870795
 30
0.0
 11
503.000138
 21
89.952015
 31
0.0
  0
LINE
  8
LY_1
  6
CONTINUOUS
 62
   251
  5
117
 10
435.000176
 20
148.084087
 30
0.0
 11
503.000194
 21
111.165247
 31
0.0
  0
LINE
  8
LY_1
  6
CONTINUOUS
 62
   251
  5
118
 10
476.379885
 20
62.34314
 30
0.0
 11
498.000006
 21
62.34314
 31
0.0
  0
LINE
  8
LY_1
  6
CONTINUOUS
 62
   251
  5
119
 10
503.000006
 20
148.000001
 30
0.0
 11
503.000006
 21
-148.000069
 31
0.0
  0
LINE
  8
LY_1
  6
CONTINUOUS
 62
   251
  5
11A
 10
503.000006
 20
-148.000069
 30
0.0
 11
524.999995
 21
-148.000069
 31
0.0
  0
LINE
  8
LY_1
  6
CONTINUOUS
 62
   251
  5
11B
 10
445.000004
 20
148.000001
 30
0.0
 11
524.999995
 21
148.000001
 31
0.0
  0
LINE
  8
LY_1
  6
CONTINUOUS
 62
   251
  5
11C
 10
435.000004
 20
200.0
 30
0.0
 11
435.000004
 21
-200.000057
 31
0.0
  0
LINE
  8
LY_1
  6
CONTINUOUS
 62
   251
  5
11D
 10
524.999995
 20
150.000002
 30
0.0
 11
524.999995
 21
-150.0
 31
0.0
  0
LINE
  8
LY_1
  6
CONTINUOUS
 62
   251
  5
11E
 10
603.000006
 20
150.000002
 30
0.0
 11
603.000006
 21
-150.0
 31
0.0
  0
ENDSEC
  0
EOF
