  0
SECTION
  2
HEADER
  9
$ACADVER
  1
AC1009
  9
$DWGCODEPAGE
  3
dos932
  9
$INSBASE
 10
0.0
 20
0.0
 30
0.0
  9
$EXTMIN
 10
-137.0
 20
-137.0
 30
0.0
  9
$EXTMAX
 10
648.79166
 20
163.897857
 30
0.0
  9
$LIMMIN
 10
-137.0
 20
-137.0
  9
$LIMMAX
 10
648.79166
 20
163.897857
  9
$ORTHOMODE
 70
     0
  9
$REGENMODE
 70
     1
  9
$FILLMODE
 70
     1
  9
$QTEXTMODE
 70
     0
  9
$MIRRTEXT
 70
     1
  9
$DRAGMODE
 70
     2
  9
$LTSCALE
 40
1.0
  9
$OSMODE
 70
     0
  9
$ATTMODE
 70
     1
  9
$TEXTSIZE
 40
3.15
  9
$TRACEWID
 40
0.05
  9
$TEXTSTYLE
  7
MX_NOTE_STANDARD
  9
$CLAYER
  8
LY_1
  9
$CELTYPE
  6
CONTINUOUS
  9
$CECOLOR
 62
   256
  9
$DIMSCALE
 40
1.0
  9
$DIMASZ
 40
2.5
  9
$DIMEXO
 40
1.0
  9
$DIMDLI
 40
3.75
  9
$DIMRND
 40
0.0
  9
$DIMDLE
 40
0.0
  9
$DIMEXE
 40
1.5
  9
$DIMTP
 40
0.0
  9
$DIMTM
 40
0.0
  9
$DIMTXT
 40
3.15
  9
$DIMCEN
 40
2.5
  9
$DIMTSZ
 40
0.0
  9
$DIMTOL
 70
     0
  9
$DIMLIM
 70
     0
  9
$DIMTIH
 70
     0
  9
$DIMTOH
 70
     0
  9
$DIMSE1
 70
     0
  9
$DIMSE2
 70
     0
  9
$DIMTAD
 70
     1
  9
$DIMZIN
 70
     8
  9
$DIMBLK
  1

  9
$DIMASO
 70
     1
  9
$DIMSHO
 70
     1
  9
$DIMPOST
  1

  9
$DIMAPOST
  1

  9
$DIMALT
 70
     0
  9
$DIMALTD
 70
     4
  9
$DIMALTF
 40
0.03937
  9
$DIMLFAC
 40
1.0
  9
$DIMTOFL
 70
     1
  9
$DIMTVP
 40
0.0
  9
$DIMTIX
 70
     0
  9
$DIMSOXD
 70
     0
  9
$DIMSAH
 70
     0
  9
$DIMBLK1
  1

  9
$DIMBLK2
  1

  9
$DIMSTYLE
  2
MXDIMSTYLE
  9
$DIMCLRD
 70
     0
  9
$DIMCLRE
 70
     0
  9
$DIMCLRT
 70
     0
  9
$DIMTFAC
 40
1.0
  9
$DIMGAP
 40
1.0
  9
$LUNITS
 70
     2
  9
$LUPREC
 70
     4
  9
$AXISMODE
 70
     0
  9
$AXISUNIT
 10
0.0
 20
0.0
  9
$SKETCHINC
 40
0.1
  9
$FILLETRAD
 40
0.0
  9
$AUNITS
 70
     0
  9
$AUPREC
 70
     0
  9
$MENU
  1
acad
  9
$ELEVATION
 40
0.0
  9
$PELEVATION
 40
0.0
  9
$THICKNESS
 40
0.0
  9
$LIMCHECK
 70
     0
  9
$BLIPMODE
 70
     1
  9
$CHAMFERA
 40
0.0
  9
$CHAMFERB
 40
0.0
  9
$SKPOLY
 70
     0
  9
$TDCREATE
 40
2453665.670138889
  9
$TDUPDATE
 40
2453665.670138889
  9
$TDINDWG
 40
0.0000000000
  9
$TDUSRTIMER
 40
0.0000000000
  9
$USRTIMER
 70
     1
  9
$ANGBASE
 50
0.0
  9
$ANGDIR
 70
     0
  9
$PDMODE
 70
     0
  9
$PDSIZE
 40
0.0
  9
$PLINEWID
 40
0.0
  9
$COORDS
 70
     1
  9
$SPLFRAME
 70
     0
  9
$SPLINETYPE
 70
     6
  9
$SPLINESEGS
 70
     8
  9
$ATTDIA
 70
     0
  9
$ATTREQ
 70
     1
  9
$HANDLING
 70
     1
  9
$HANDSEED
  5
242
  9
$SURFTAB1
 70
     6
  9
$SURFTAB2
 70
     6
  9
$SURFTYPE
 70
     6
  9
$SURFU
 70
     6
  9
$SURFV
 70
     6
  9
$UCSNAME
  2

  9
$UCSORG
 10
0.0
 20
0.0
 30
0.0
  9
$UCSXDIR
 10
1.0
 20
0.0
 30
0.0
  9
$UCSYDIR
 10
0.0
 20
1.0
 30
0.0
  9
$PUCSNAME
  2

  9
$PUCSORG
 10
0.0
 20
0.0
 30
0.0
  9
$PUCSXDIR
 10
1.0
 20
0.0
 30
0.0
  9
$PUCSYDIR
 10
0.0
 20
1.0
 30
0.0
  9
$USERI1
 70
     0
  9
$USERI2
 70
     0
  9
$USERI3
 70
     0
  9
$USERI4
 70
     0
  9
$USERI5
 70
     0
  9
$USERR1
 40
0.0
  9
$USERR2
 40
0.0
  9
$USERR3
 40
0.0
  9
$USERR4
 40
0.0
  9
$USERR5
 40
0.0
  9
$WORLDVIEW
 70
     1
  9
$SHADEDGE
 70
     3
  9
$SHADEDIF
 70
    70
  9
$TILEMODE
 70
     1
  9
$MAXACTVP
 70
    16
  9
$PINSBASE
 10
0.0
 20
0.0
 30
0.0
  9
$PLIMCHECK
 70
     0
  9
$PEXTMIN
 10
1.000000E+20
 20
1.000000E+20
 30
1.000000E+20
  9
$PEXTMAX
 10
-1.000000E+20
 20
-1.000000E+20
 30
-1.000000E+20
  9
$PLIMMIN
 10
0.0
 20
0.0
  9
$PLIMMAX
 10
12.0
 20
9.0
  9
$UNITMODE
 70
     0
  9
$VISRETAIN
 70
     0
  9
$PLINEGEN
 70
     1
  9
$PSLTSCALE
 70
     0
  9
$TREEDEPTH
 70
  3020
  9
$DWGCODEPAGE
  3
dos932
  0
ENDSEC
  0
SECTION
  2
TABLES
  0
TABLE
  2
VPORT
 70
     1
  0
VPORT
  2
*ACTIVE
 70
     0
 10
0.0
 20
0.0
 11
1.0
 21
1.0
 12
255.89583
 22
13.448928
 13
0.0
 23
0.0
 14
1.0
 24
1.0
 15
0.0
 25
0.0
 16
0.0
 26
0.0
 36
1.0
 17
0.0
 27
0.0
 37
0.0
 40
303.906835
 41
1.732051
 42
50.0
 43
0.0
 44
0.0
 50
0.0
 51
0.0
 71
     0
 72
   100
 73
     1
 74
     1
 75
     0
 76
     0
 77
     0
 78
     0
  0
ENDTAB
  0
TABLE
  2
LTYPE
 70
     2
  0
LTYPE
  2
CONTINUOUS
 70
    64
  3
Solid line
 72
    65
 73
     0
 40
0.0
  0
LTYPE
  2
CENTER
 70
    64
  3
Center ____ _ ____ _ ____ _ ____ _ ____ _ ____
 72
    65
 73
     4
 40
50.8
 49
31.75
 49
-6.35
 49
6.35
 49
-6.35
  0
ENDTAB
  0
TABLE
  2
LAYER
 70
     3
  0
LAYER
  2
0
 70
     0
 62
     7
  6
CONTINUOUS
  0
LAYER
  2
LY_1
 70
     0
 62
     7
  6
CONTINUOUS
  0
LAYER
  2
DEFPOINTS
 70
     0
 62
     7
  6
CONTINUOUS
  0
ENDTAB
  0
TABLE
  2
STYLE
 70
     1
  0
STYLE
  2
MX_NOTE_STANDARD
 70
     0
 40
0.0
 41
1.0
 50
0.0
 71
     0
 42
3.15
  3
txt.shx
  4
extfont.shx
  0
ENDTAB
  0
TABLE
  2
VIEW
 70
     0
  0
ENDTAB
  0
TABLE
  2
UCS
 70
     0
  0
ENDTAB
  0
TABLE
  2
APPID
 70
     1
  0
APPID
  2
ACAD
 70
     0
  0
ENDTAB
  0
TABLE
  2
DIMSTYLE
 70
     1
  0
DIMSTYLE
  2
MXDIMSTYLE
 70
     0
  3

  4

  5

  6

  7

 40
1.0
 41
2.5
 42
1.0
 43
3.75
 44
1.5
 45
0.0
 46
0.0
 47
0.0
 48
0.0
 71
     0
 72
     0
 73
     0
 74
     0
 75
     0
 76
     0
 77
     1
 78
     8
140
3.15
141
2.5
142
0.0
143
0.03937
144
1.0
145
0.0
146
1.0
147
1.0
170
     0
171
     4
172
     1
173
     0
174
     0
175
     0
176
     0
177
     0
178
     0
  0
ENDTAB
  0
ENDSEC
  0
SECTION
  2
BLOCKS
  0
ENDSEC
  0
SECTION
  2
ENTITIES
  0
LINE
  8
LY_1
  6
CONTINUOUS
 62
   251
  5
1F
 10
587.900075
 20
92.0001
 30
0.0
 11
587.900075
 21
110.0001
 31
0.0
  0
LINE
  8
LY_1
  6
CONTINUOUS
 62
   251
  5
20
 10
587.900105
 20
110.00013
 30
0.0
 11
586.900105
 21
111.00013
 31
0.0
  0
LINE
  8
LY_1
  6
CONTINUOUS
 62
   251
  5
21
 10
586.900075
 20
111.0001
 30
0.0
 11
554.100085
 21
111.0001
 31
0.0
  0
LINE
  8
LY_1
  6
CONTINUOUS
 62
   251
  5
22
 10
554.100145
 20
111.0001
 30
0.0
 11
553.100145
 21
110.0001
 31
0.0
  0
LINE
  8
LY_1
  6
CONTINUOUS
 62
   251
  5
23
 10
553.100085
 20
110.0001
 30
0.0
 11
553.100085
 21
92.0001
 31
0.0
  0
LINE
  8
LY_1
  6
CONTINUOUS
 62
   251
  5
24
 10
553.100085
 20
92.0001
 30
0.0
 11
553.100085
 21
95.0001
 31
0.0
  0
LINE
  8
LY_1
  6
CONTINUOUS
 62
   251
  5
25
 10
550.000045
 20
88.20011
 30
0.0
 11
550.000045
 21
92.0001
 31
0.0
  0
LINE
  8
LY_1
  6
CONTINUOUS
 62
   251
  5
26
 10
550.000045
 20
92.0001
 30
0.0
 11
591.000045
 21
92.0001
 31
0.0
  0
LINE
  8
LY_1
  6
CONTINUOUS
 62
   251
  5
27
 10
591.000045
 20
92.0001
 30
0.0
 11
591.000045
 21
88.20011
 31
0.0
  0
LINE
  8
LY_1
  6
CONTINUOUS
 62
   251
  5
28
 10
548.000175
 20
88.19918
 30
0.0
 11
593.000045
 21
88.19918
 31
0.0
  0
LINE
  8
LY_1
  6
CONTINUOUS
 62
   251
  5
29
 10
506.000015
 20
65.0
 30
0.0
 11
506.000015
 21
-65.0
 31
0.0
  0
LINE
  8
LY_1
  6
CONTINUOUS
 62
   251
  5
2A
 10
634.300035
 20
62.19998
 30
0.0
 11
634.300035
 21
80.49998
 31
0.0
  0
LINE
  8
LY_1
  6
CONTINUOUS
 62
   251
  5
2B
 10
634.300065
 20
80.50001
 30
0.0
 11
633.300065
 21
81.50001
 31
0.0
  0
LINE
  8
LY_1
  6
CONTINUOUS
 62
   251
  5
2C
 10
633.300035
 20
81.49998
 30
0.0
 11
605.700065
 21
81.49998
 31
0.0
  0
LINE
  8
LY_1
  6
CONTINUOUS
 62
   251
  5
2D
 10
605.700125
 20
81.5
 30
0.0
 11
604.700125
 21
80.5
 31
0.0
  0
LINE
  8
LY_1
  6
CONTINUOUS
 62
   251
  5
2E
 10
604.700065
 20
80.49998
 30
0.0
 11
604.700065
 21
62.19998
 31
0.0
  0
LINE
  8
LY_1
  6
CENTER
 62
     7
  5
30
 10
619.500045
 20
54.94079
 30
0.0
 11
619.500045
 21
88.24273
 31
0.0
  0
LINE
  8
LY_1
  6
CONTINUOUS
 62
   251
  5
31
 10
593.000045
 20
65.02215
 30
0.0
 11
593.000045
 21
88.20011
 31
0.0
  0
LINE
  8
LY_1
  6
CONTINUOUS
 62
   251
  5
32
 10
510.000015
 20
28.0
 30
0.0
 11
594.991875
 21
28.0
 31
0.0
  0
LINE
  8
LY_1
  6
CONTINUOUS
 62
   251
  5
33
 10
510.000015
 20
25.0
 30
0.0
 11
594.991875
 21
25.0
 31
0.0
  0
LINE
  8
LY_1
  6
CONTINUOUS
 62
   251
  5
34
 10
510.000015
 20
22.0
 30
0.0
 11
594.991875
 21
22.0
 31
0.0
  0
LINE
  8
LY_1
  6
CONTINUOUS
 62
   251
  5
35
 10
510.000015
 20
19.0
 30
0.0
 11
594.991875
 21
19.0
 31
0.0
  0
LINE
  8
LY_1
  6
CONTINUOUS
 62
   251
  5
36
 10
510.000015
 20
-19.0
 30
0.0
 11
594.991875
 21
-19.0
 31
0.0
  0
LINE
  8
LY_1
  6
CONTINUOUS
 62
   251
  5
37
 10
510.000015
 20
-22.0
 30
0.0
 11
594.991875
 21
-22.0
 31
0.0
  0
LINE
  8
LY_1
  6
CONTINUOUS
 62
   251
  5
38
 10
599.500045
 20
-65.0
 30
0.0
 11
599.500045
 21
65.0
 31
0.0
  0
LINE
  8
LY_1
  6
CONTINUOUS
 62
   251
  5
39
 10
600.450065
 20
58.39999
 30
0.0
 11
600.450065
 21
62.19998
 31
0.0
  0
LINE
  8
LY_1
  6
CONTINUOUS
 62
   251
  5
3A
 10
600.450065
 20
62.19998
 30
0.0
 11
638.550065
 21
62.19998
 31
0.0
  0
LINE
  8
LY_1
  6
CONTINUOUS
 62
   251
  5
3B
 10
638.550065
 20
62.19998
 30
0.0
 11
638.550065
 21
58.39999
 31
0.0
  0
LINE
  8
LY_1
  6
CONTINUOUS
 62
   251
  5
3C
 10
639.000075
 20
58.39999
 30
0.0
 11
600.000045
 21
58.39999
 31
0.0
  0
LINE
  8
LY_1
  6
CONTINUOUS
 62
   251
  5
3D
 10
639.000175
 20
34.34738
 30
0.0
 11
612.500045
 21
34.34738
 31
0.0
  0
LINE
  8
LY_1
  6
CONTINUOUS
 62
   251
  5
3E
 10
612.500045
 20
42.5
 30
0.0
 11
506.000015
 21
42.5
 31
0.0
  0
LINE
  8
LY_1
  6
CONTINUOUS
 62
   251
  5
3F
 10
612.500045
 20
27.50344
 30
0.0
 11
599.500045
 21
27.50344
 31
0.0
  0
LINE
  8
LY_1
  6
CONTINUOUS
 62
   251
  5
40
 10
538.000045
 20
65.78405
 30
0.0
 11
538.000045
 21
64.93396
 31
0.0
  0
LINE
  8
LY_1
  6
CONTINUOUS
 62
   251
  5
41
 10
639.000175
 20
-29.99308
 30
0.0
 11
639.000175
 21
58.39999
 31
0.0
  0
LINE
  8
LY_1
  6
CONTINUOUS
 62
   251
  5
42
 10
612.500075
 20
-40.00004
 30
0.0
 11
636.855975
 21
-39.18433
 31
0.0
  0
LINE
  8
LY_1
  6
CONTINUOUS
 62
   251
  5
43
 10
595.000045
 20
-65.0
 30
0.0
 11
595.000045
 21
65.0
 31
0.0
  0
LINE
  8
LY_1
  6
CONTINUOUS
 62
   251
  5
44
 10
510.000015
 20
-25.0
 30
0.0
 11
594.991875
 21
-25.0
 31
0.0
  0
LINE
  8
LY_1
  6
CONTINUOUS
 62
   251
  5
45
 10
510.000015
 20
-28.0
 30
0.0
 11
594.991875
 21
-28.0
 31
0.0
  0
LINE
  8
LY_1
  6
CONTINUOUS
 62
   251
  5
46
 10
599.500045
 20
-27.5037
 30
0.0
 11
612.500045
 21
-27.5037
 31
0.0
  0
LINE
  8
LY_1
  6
CONTINUOUS
 62
   251
  5
47
 10
612.500045
 20
-42.5
 30
0.0
 11
612.500045
 21
42.5
 31
0.0
  0
LINE
  8
LY_1
  6
CONTINUOUS
 62
   251
  5
48
 10
606.500045
 20
42.5
 30
0.0
 11
606.500045
 21
-42.5
 31
0.0
  0
LINE
  8
LY_1
  6
CONTINUOUS
 62
   251
  5
49
 10
612.500045
 20
-42.5
 30
0.0
 11
506.000015
 21
-42.5
 31
0.0
  0
LINE
  8
LY_1
  6
CONTINUOUS
 62
   251
  5
4A
 10
510.000015
 20
-65.0
 30
0.0
 11
510.000015
 21
65.0
 31
0.0
  0
LINE
  8
LY_1
  6
CONTINUOUS
 62
   251
  5
4B
 10
600.000045
 20
42.5
 30
0.0
 11
600.000045
 21
58.39999
 31
0.0
  0
LINE
  8
LY_1
  6
CENTER
 62
     7
  5
4C
 10
570.500045
 20
117.94021
 30
0.0
 11
570.500045
 21
81.06565
 31
0.0
  0
ARC
  8
LY_1
  6
CONTINUOUS
 62
   251
  5
4D
 10
636.820915
 20
-38.18476
 30
0.0
 40
1.00016
 50
272.007395
 51
343.59498
  0
ARC
  8
LY_1
  6
CONTINUOUS
 62
   251
  5
4E
 10
608.952105
 20
-29.99308
 30
0.0
 40
30.047937
 50
343.61918
 51
359.98682
  0
ARC
  8
LY_1
  6
CONTINUOUS
 62
   251
  5
4F
 10
596.635975
 20
53.06289
 30
0.0
 40
60.0
 50
144.15427
 51
167.75929
  0
LINE
  8
LY_1
  6
CONTINUOUS
 62
   251
  5
50
 10
506.000015
 20
-50.806
 30
0.0
 11
494.000015
 21
-50.806
 31
0.0
  0
LINE
  8
LY_1
  6
CONTINUOUS
 62
   251
  5
51
 10
494.000015
 20
65.0
 30
0.0
 11
599.500045
 21
65.0
 31
0.0
  0
LINE
  8
LY_1
  6
CONTINUOUS
 62
   251
  5
52
 10
599.500045
 20
-65.0
 30
0.0
 11
494.000015
 21
-65.0
 31
0.0
  0
LINE
  8
LY_1
  6
CONTINUOUS
 62
   251
  5
53
 10
506.000015
 20
50.80599
 30
0.0
 11
494.000015
 21
50.80599
 31
0.0
  0
LINE
  8
LY_1
  6
CONTINUOUS
 62
   251
  5
54
 10
303.000012
 20
160.344964
 30
0.0
 11
303.000015
 21
153.096316
 31
0.0
  0
LINE
  8
LY_1
  6
CONTINUOUS
 62
   251
  5
55
 10
423.030014
 20
109.606293
 30
0.0
 11
430.030014
 21
109.606293
 31
0.0
  0
POLYLINE
  8
LY_1
  6
CONTINUOUS
 62
   251
  5
56
 66
     1
 10
0.0
 20
0.0
 30
0.0
  0
VERTEX
  8
LY_1
  6
CONTINUOUS
 62
   251
  5
F3
 10
309.734499
 20
150.76396
 30
0.0
  0
VERTEX
  8
LY_1
  6
CONTINUOUS
 62
   251
  5
F4
 10
309.678314
 20
151.090808
 30
0.0
  0
VERTEX
  8
LY_1
  6
CONTINUOUS
 62
   251
  5
F5
 10
309.487246
 20
151.41163
 30
0.0
  0
VERTEX
  8
LY_1
  6
CONTINUOUS
 62
   251
  5
F6
 10
309.165154
 20
151.719948
 30
0.0
  0
VERTEX
  8
LY_1
  6
CONTINUOUS
 62
   251
  5
F7
 10
308.718544
 20
152.009534
 30
0.0
  0
VERTEX
  8
LY_1
  6
CONTINUOUS
 62
   251
  5
F8
 10
308.156435
 20
152.274539
 30
0.0
  0
VERTEX
  8
LY_1
  6
CONTINUOUS
 62
   251
  5
F9
 10
307.490181
 20
152.50961
 30
0.0
  0
VERTEX
  8
LY_1
  6
CONTINUOUS
 62
   251
  5
FA
 10
306.733239
 20
152.710001
 30
0.0
  0
VERTEX
  8
LY_1
  6
CONTINUOUS
 62
   251
  5
FB
 10
305.900895
 20
152.871663
 30
0.0
  0
VERTEX
  8
LY_1
  6
CONTINUOUS
 62
   251
  5
FC
 10
305.009962
 20
152.991332
 30
0.0
  0
VERTEX
  8
LY_1
  6
CONTINUOUS
 62
   251
  5
FD
 10
304.078434
 20
153.066591
 30
0.0
  0
VERTEX
  8
LY_1
  6
CONTINUOUS
 62
   251
  5
FE
 10
303.125124
 20
153.095919
 30
0.0
  0
VERTEX
  8
LY_1
  6
CONTINUOUS
 62
   251
  5
FF
 10
302.169288
 20
153.078724
 30
0.0
  0
VERTEX
  8
LY_1
  6
CONTINUOUS
 62
   251
  5
100
 10
301.23023
 20
153.015354
 30
0.0
  0
VERTEX
  8
LY_1
  6
CONTINUOUS
 62
   251
  5
101
 10
300.326917
 20
152.907088
 30
0.0
  0
VERTEX
  8
LY_1
  6
CONTINUOUS
 62
   251
  5
102
 10
299.477593
 20
152.756113
 30
0.0
  0
VERTEX
  8
LY_1
  6
CONTINUOUS
 62
   251
  5
103
 10
298.699412
 20
152.565478
 30
0.0
  0
VERTEX
  8
LY_1
  6
CONTINUOUS
 62
   251
  5
104
 10
298.008091
 20
152.339035
 30
0.0
  0
VERTEX
  8
LY_1
  6
CONTINUOUS
 62
   251
  5
105
 10
297.417593
 20
152.081355
 30
0.0
  0
VERTEX
  8
LY_1
  6
CONTINUOUS
 62
   251
  5
106
 10
296.939844
 20
151.797644
 30
0.0
  0
VERTEX
  8
LY_1
  6
CONTINUOUS
 62
   251
  5
107
 10
296.584494
 20
151.493631
 30
0.0
  0
VERTEX
  8
LY_1
  6
CONTINUOUS
 62
   251
  5
108
 10
296.35872
 20
151.175458
 30
0.0
  0
VERTEX
  8
LY_1
  6
CONTINUOUS
 62
   251
  5
109
 10
296.267081
 20
150.84955
 30
0.0
  0
VERTEX
  8
LY_1
  6
CONTINUOUS
 62
   251
  5
10A
 10
296.265531
 20
150.821023
 30
0.0
  0
VERTEX
  8
LY_1
  6
CONTINUOUS
 62
   251
  5
10B
 10
296.265015
 20
150.792491
 30
0.0
  0
SEQEND
  8
LY_1
  6
CONTINUOUS
 62
   251
  5
10C
  0
POLYLINE
  8
LY_1
  6
CONTINUOUS
 62
   251
  5
57
 66
     1
 10
0.0
 20
0.0
 30
0.0
  0
VERTEX
  8
LY_1
  6
CONTINUOUS
 62
   251
  5
10D
 10
309.900017
 20
122.611109
 30
0.0
  0
VERTEX
  8
LY_1
  6
CONTINUOUS
 62
   251
  5
10E
 10
309.840986
 20
122.919143
 30
0.0
  0
VERTEX
  8
LY_1
  6
CONTINUOUS
 62
   251
  5
10F
 10
309.664905
 20
123.221906
 30
0.0
  0
VERTEX
  8
LY_1
  6
CONTINUOUS
 62
   251
  5
110
 10
309.374785
 20
123.514218
 30
0.0
  0
VERTEX
  8
LY_1
  6
CONTINUOUS
 62
   251
  5
111
 10
308.975592
 20
123.791078
 30
0.0
  0
VERTEX
  8
LY_1
  6
CONTINUOUS
 62
   251
  5
112
 10
308.474155
 20
124.047748
 30
0.0
  0
VERTEX
  8
LY_1
  6
CONTINUOUS
 62
   251
  5
113
 10
307.879053
 20
124.279837
 30
0.0
  0
VERTEX
  8
LY_1
  6
CONTINUOUS
 62
   251
  5
114
 10
307.20047
 20
124.483374
 30
0.0
  0
VERTEX
  8
LY_1
  6
CONTINUOUS
 62
   251
  5
115
 10
306.450016
 20
124.654876
 30
0.0
  0
VERTEX
  8
LY_1
  6
CONTINUOUS
 62
   251
  5
116
 10
305.640532
 20
124.791408
 30
0.0
  0
VERTEX
  8
LY_1
  6
CONTINUOUS
 62
   251
  5
117
 10
304.785867
 20
124.890634
 30
0.0
  0
VERTEX
  8
LY_1
  6
CONTINUOUS
 62
   251
  5
118
 10
303.900646
 20
124.950858
 30
0.0
  0
VERTEX
  8
LY_1
  6
CONTINUOUS
 62
   251
  5
119
 10
303.000015
 20
124.971047
 30
0.0
  0
VERTEX
  8
LY_1
  6
CONTINUOUS
 62
   251
  5
11A
 10
302.099384
 20
124.950858
 30
0.0
  0
VERTEX
  8
LY_1
  6
CONTINUOUS
 62
   251
  5
11B
 10
301.214163
 20
124.890634
 30
0.0
  0
VERTEX
  8
LY_1
  6
CONTINUOUS
 62
   251
  5
11C
 10
300.359499
 20
124.791408
 30
0.0
  0
VERTEX
  8
LY_1
  6
CONTINUOUS
 62
   251
  5
11D
 10
299.550014
 20
124.654876
 30
0.0
  0
VERTEX
  8
LY_1
  6
CONTINUOUS
 62
   251
  5
11E
 10
298.79956
 20
124.483374
 30
0.0
  0
VERTEX
  8
LY_1
  6
CONTINUOUS
 62
   251
  5
11F
 10
298.120977
 20
124.279837
 30
0.0
  0
VERTEX
  8
LY_1
  6
CONTINUOUS
 62
   251
  5
120
 10
297.525876
 20
124.047748
 30
0.0
  0
VERTEX
  8
LY_1
  6
CONTINUOUS
 62
   251
  5
121
 10
297.024439
 20
123.791078
 30
0.0
  0
VERTEX
  8
LY_1
  6
CONTINUOUS
 62
   251
  5
122
 10
296.625245
 20
123.514218
 30
0.0
  0
VERTEX
  8
LY_1
  6
CONTINUOUS
 62
   251
  5
123
 10
296.335126
 20
123.221906
 30
0.0
  0
VERTEX
  8
LY_1
  6
CONTINUOUS
 62
   251
  5
124
 10
296.159044
 20
122.919143
 30
0.0
  0
VERTEX
  8
LY_1
  6
CONTINUOUS
 62
   251
  5
125
 10
296.100014
 20
122.611109
 30
0.0
  0
SEQEND
  8
LY_1
  6
CONTINUOUS
 62
   251
  5
126
  0
POLYLINE
  8
LY_1
  6
CONTINUOUS
 62
   251
  5
58
 66
     1
 10
0.0
 20
0.0
 30
0.0
  0
VERTEX
  8
LY_1
  6
CONTINUOUS
 62
   251
  5
127
 10
309.902918
 20
120.37879
 30
0.0
  0
VERTEX
  8
LY_1
  6
CONTINUOUS
 62
   251
  5
128
 10
310.868389
 20
120.790395
 30
0.0
  0
VERTEX
  8
LY_1
  6
CONTINUOUS
 62
   251
  5
129
 10
311.626324
 20
121.250023
 30
0.0
  0
VERTEX
  8
LY_1
  6
CONTINUOUS
 62
   251
  5
12A
 10
312.156731
 20
121.745551
 30
0.0
  0
VERTEX
  8
LY_1
  6
CONTINUOUS
 62
   251
  5
12B
 10
312.445622
 20
122.263909
 30
0.0
  0
VERTEX
  8
LY_1
  6
CONTINUOUS
 62
   251
  5
12C
 10
312.485375
 20
122.791425
 30
0.0
  0
VERTEX
  8
LY_1
  6
CONTINUOUS
 62
   251
  5
12D
 10
312.274943
 20
123.314184
 30
0.0
  0
VERTEX
  8
LY_1
  6
CONTINUOUS
 62
   251
  5
12E
 10
311.819875
 20
123.8184
 30
0.0
  0
VERTEX
  8
LY_1
  6
CONTINUOUS
 62
   251
  5
12F
 10
311.132175
 20
124.290772
 30
0.0
  0
VERTEX
  8
LY_1
  6
CONTINUOUS
 62
   251
  5
130
 10
310.229982
 20
124.718841
 30
0.0
  0
VERTEX
  8
LY_1
  6
CONTINUOUS
 62
   251
  5
131
 10
309.137091
 20
125.091316
 30
0.0
  0
VERTEX
  8
LY_1
  6
CONTINUOUS
 62
   251
  5
132
 10
307.882328
 20
125.398374
 30
0.0
  0
VERTEX
  8
LY_1
  6
CONTINUOUS
 62
   251
  5
133
 10
306.49879
 20
125.631915
 30
0.0
  0
VERTEX
  8
LY_1
  6
CONTINUOUS
 62
   251
  5
134
 10
305.022968
 20
125.785779
 30
0.0
  0
VERTEX
  8
LY_1
  6
CONTINUOUS
 62
   251
  5
135
 10
303.493789
 20
125.855908
 30
0.0
  0
VERTEX
  8
LY_1
  6
CONTINUOUS
 62
   251
  5
136
 10
301.951587
 20
125.840453
 30
0.0
  0
VERTEX
  8
LY_1
  6
CONTINUOUS
 62
   251
  5
137
 10
300.437037
 20
125.73982
 30
0.0
  0
VERTEX
  8
LY_1
  6
CONTINUOUS
 62
   251
  5
138
 10
298.990089
 20
125.556665
 30
0.0
  0
VERTEX
  8
LY_1
  6
CONTINUOUS
 62
   251
  5
139
 10
297.648906
 20
125.295817
 30
0.0
  0
VERTEX
  8
LY_1
  6
CONTINUOUS
 62
   251
  5
13A
 10
296.448864
 20
124.964158
 30
0.0
  0
VERTEX
  8
LY_1
  6
CONTINUOUS
 62
   251
  5
13B
 10
295.421615
 20
124.570435
 30
0.0
  0
VERTEX
  8
LY_1
  6
CONTINUOUS
 62
   251
  5
13C
 10
294.594253
 20
124.125033
 30
0.0
  0
VERTEX
  8
LY_1
  6
CONTINUOUS
 62
   251
  5
13D
 10
293.988602
 20
123.639699
 30
0.0
  0
VERTEX
  8
LY_1
  6
CONTINUOUS
 62
   251
  5
13E
 10
293.620636
 20
123.127236
 30
0.0
  0
VERTEX
  8
LY_1
  6
CONTINUOUS
 62
   251
  5
13F
 10
293.50006
 20
122.601159
 30
0.0
  0
VERTEX
  8
LY_1
  6
CONTINUOUS
 62
   251
  5
140
 10
293.630054
 20
122.075344
 30
0.0
  0
VERTEX
  8
LY_1
  6
CONTINUOUS
 62
   251
  5
141
 10
294.007191
 20
121.563661
 30
0.0
  0
VERTEX
  8
LY_1
  6
CONTINUOUS
 62
   251
  5
142
 10
294.621521
 20
121.079605
 30
0.0
  0
VERTEX
  8
LY_1
  6
CONTINUOUS
 62
   251
  5
143
 10
295.456843
 20
120.635945
 30
0.0
  0
VERTEX
  8
LY_1
  6
CONTINUOUS
 62
   251
  5
144
 10
295.770049
 20
120.503377
 30
0.0
  0
VERTEX
  8
LY_1
  6
CONTINUOUS
 62
   251
  5
145
 10
296.103149
 20
120.376609
 30
0.0
  0
SEQEND
  8
LY_1
  6
CONTINUOUS
 62
   251
  5
146
  0
POLYLINE
  8
LY_1
  6
CONTINUOUS
 62
   251
  5
59
 66
     1
 10
0.0
 20
0.0
 30
0.0
  0
VERTEX
  8
LY_1
  6
CONTINUOUS
 62
   251
  5
147
 10
312.500015
 20
146.103425
 30
0.0
  0
VERTEX
  8
LY_1
  6
CONTINUOUS
 62
   251
  5
148
 10
312.403319
 20
146.565833
 30
0.0
  0
VERTEX
  8
LY_1
  6
CONTINUOUS
 62
   251
  5
149
 10
312.115199
 20
147.018828
 30
0.0
  0
VERTEX
  8
LY_1
  6
CONTINUOUS
 62
   251
  5
14A
 10
311.641519
 20
147.453188
 30
0.0
  0
VERTEX
  8
LY_1
  6
CONTINUOUS
 62
   251
  5
14B
 10
310.991924
 20
147.86007
 30
0.0
  0
VERTEX
  8
LY_1
  6
CONTINUOUS
 62
   251
  5
14C
 10
310.179636
 20
148.231193
 30
0.0
  0
VERTEX
  8
LY_1
  6
CONTINUOUS
 62
   251
  5
14D
 10
309.221192
 20
148.559
 30
0.0
  0
VERTEX
  8
LY_1
  6
CONTINUOUS
 62
   251
  5
14E
 10
308.136103
 20
148.836819
 30
0.0
  0
VERTEX
  8
LY_1
  6
CONTINUOUS
 62
   251
  5
14F
 10
306.946458
 20
149.058993
 30
0.0
  0
VERTEX
  8
LY_1
  6
CONTINUOUS
 62
   251
  5
150
 10
305.676475
 20
149.221001
 30
0.0
  0
VERTEX
  8
LY_1
  6
CONTINUOUS
 62
   251
  5
151
 10
304.352006
 20
149.319544
 30
0.0
  0
VERTEX
  8
LY_1
  6
CONTINUOUS
 62
   251
  5
152
 10
303.000015
 20
149.352616
 30
0.0
  0
VERTEX
  8
LY_1
  6
CONTINUOUS
 62
   251
  5
153
 10
301.648024
 20
149.319544
 30
0.0
  0
VERTEX
  8
LY_1
  6
CONTINUOUS
 62
   251
  5
154
 10
300.323556
 20
149.221001
 30
0.0
  0
VERTEX
  8
LY_1
  6
CONTINUOUS
 62
   251
  5
155
 10
299.053573
 20
149.058993
 30
0.0
  0
VERTEX
  8
LY_1
  6
CONTINUOUS
 62
   251
  5
156
 10
297.863928
 20
148.836819
 30
0.0
  0
VERTEX
  8
LY_1
  6
CONTINUOUS
 62
   251
  5
157
 10
296.778838
 20
148.559
 30
0.0
  0
VERTEX
  8
LY_1
  6
CONTINUOUS
 62
   251
  5
158
 10
295.820394
 20
148.231193
 30
0.0
  0
VERTEX
  8
LY_1
  6
CONTINUOUS
 62
   251
  5
159
 10
295.008107
 20
147.860071
 30
0.0
  0
VERTEX
  8
LY_1
  6
CONTINUOUS
 62
   251
  5
15A
 10
294.358511
 20
147.453188
 30
0.0
  0
VERTEX
  8
LY_1
  6
CONTINUOUS
 62
   251
  5
15B
 10
293.884832
 20
147.018828
 30
0.0
  0
VERTEX
  8
LY_1
  6
CONTINUOUS
 62
   251
  5
15C
 10
293.596712
 20
146.565833
 30
0.0
  0
VERTEX
  8
LY_1
  6
CONTINUOUS
 62
   251
  5
15D
 10
293.500015
 20
146.103425
 30
0.0
  0
VERTEX
  8
LY_1
  6
CONTINUOUS
 62
   251
  5
15E
 10
293.500015
 20
146.103425
 30
0.0
  0
SEQEND
  8
LY_1
  6
CONTINUOUS
 62
   251
  5
15F
  0
POLYLINE
  8
LY_1
  6
CONTINUOUS
 62
   251
  5
5A
 66
     1
 10
0.0
 20
0.0
 30
0.0
  0
VERTEX
  8
LY_1
  6
CONTINUOUS
 62
   251
  5
160
 10
393.836023
 20
96.064879
 30
0.0
  0
VERTEX
  8
LY_1
  6
CONTINUOUS
 62
   251
  5
161
 10
393.58172
 20
95.469602
 30
0.0
  0
VERTEX
  8
LY_1
  6
CONTINUOUS
 62
   251
  5
162
 10
393.500105
 20
94.862266
 30
0.0
  0
VERTEX
  8
LY_1
  6
CONTINUOUS
 62
   251
  5
163
 10
393.592851
 20
94.255329
 30
0.0
  0
VERTEX
  8
LY_1
  6
CONTINUOUS
 62
   251
  5
164
 10
393.858056
 20
93.661243
 30
0.0
  0
VERTEX
  8
LY_1
  6
CONTINUOUS
 62
   251
  5
165
 10
394.29028
 20
93.092192
 30
0.0
  0
VERTEX
  8
LY_1
  6
CONTINUOUS
 62
   251
  5
166
 10
394.880657
 20
92.559852
 30
0.0
  0
VERTEX
  8
LY_1
  6
CONTINUOUS
 62
   251
  5
167
 10
394.880657
 20
92.559852
 30
0.0
  0
SEQEND
  8
LY_1
  6
CONTINUOUS
 62
   251
  5
168
  0
POLYLINE
  8
LY_1
  6
CONTINUOUS
 62
   251
  5
5B
 66
     1
 10
0.0
 20
0.0
 30
0.0
  0
VERTEX
  8
LY_1
  6
CONTINUOUS
 62
   251
  5
169
 10
325.062284
 20
84.032402
 30
0.0
  0
VERTEX
  8
LY_1
  6
CONTINUOUS
 62
   251
  5
16A
 10
323.110319
 20
83.590537
 30
0.0
  0
VERTEX
  8
LY_1
  6
CONTINUOUS
 62
   251
  5
16B
 10
321.270144
 20
82.978169
 30
0.0
  0
VERTEX
  8
LY_1
  6
CONTINUOUS
 62
   251
  5
16C
 10
319.576686
 20
82.20692
 30
0.0
  0
VERTEX
  8
LY_1
  6
CONTINUOUS
 62
   251
  5
16D
 10
318.062088
 20
81.29143
 30
0.0
  0
VERTEX
  8
LY_1
  6
CONTINUOUS
 62
   251
  5
16E
 10
316.755098
 20
80.249074
 30
0.0
  0
VERTEX
  8
LY_1
  6
CONTINUOUS
 62
   251
  5
16F
 10
315.680523
 20
79.099637
 30
0.0
  0
VERTEX
  8
LY_1
  6
CONTINUOUS
 62
   251
  5
170
 10
314.85876
 20
77.864936
 30
0.0
  0
VERTEX
  8
LY_1
  6
CONTINUOUS
 62
   251
  5
171
 10
314.305406
 20
76.568407
 30
0.0
  0
VERTEX
  8
LY_1
  6
CONTINUOUS
 62
   251
  5
172
 10
314.030963
 20
75.234658
 30
0.0
  0
VERTEX
  8
LY_1
  6
CONTINUOUS
 62
   251
  5
173
 10
314.040642
 20
73.889004
 30
0.0
  0
VERTEX
  8
LY_1
  6
CONTINUOUS
 62
   251
  5
174
 10
314.334258
 20
72.556988
 30
0.0
  0
VERTEX
  8
LY_1
  6
CONTINUOUS
 62
   251
  5
175
 10
314.906238
 20
71.26389
 30
0.0
  0
VERTEX
  8
LY_1
  6
CONTINUOUS
 62
   251
  5
176
 10
315.745726
 20
70.034256
 30
0.0
  0
VERTEX
  8
LY_1
  6
CONTINUOUS
 62
   251
  5
177
 10
316.836787
 20
68.891424
 30
0.0
  0
VERTEX
  8
LY_1
  6
CONTINUOUS
 62
   251
  5
178
 10
318.158714
 20
67.857085
 30
0.0
  0
VERTEX
  8
LY_1
  6
CONTINUOUS
 62
   251
  5
179
 10
319.686414
 20
66.950873
 30
0.0
  0
VERTEX
  8
LY_1
  6
CONTINUOUS
 62
   251
  5
17A
 10
321.390892
 20
66.189986
 30
0.0
  0
VERTEX
  8
LY_1
  6
CONTINUOUS
 62
   251
  5
17B
 10
323.239795
 20
65.588869
 30
0.0
  0
VERTEX
  8
LY_1
  6
CONTINUOUS
 62
   251
  5
17C
 10
324.769862
 20
65.236415
 30
0.0
  0
VERTEX
  8
LY_1
  6
CONTINUOUS
 62
   251
  5
17D
 10
326.349452
 20
64.993667
 30
0.0
  0
SEQEND
  8
LY_1
  6
CONTINUOUS
 62
   251
  5
17E
  0
POLYLINE
  8
LY_1
  6
CONTINUOUS
 62
     7
  5
5C
 66
     1
 10
0.0
 20
0.0
 30
0.0
  0
VERTEX
  8
LY_1
  6
CONTINUOUS
 62
     7
  5
17F
 10
251.000431
 20
62.677736
 30
0.0
  0
VERTEX
  8
LY_1
  6
CONTINUOUS
 62
     7
  5
180
 10
251.429137
 20
62.132804
 30
0.0
  0
VERTEX
  8
LY_1
  6
CONTINUOUS
 62
     7
  5
181
 10
251.850289
 20
61.581869
 30
0.0
  0
VERTEX
  8
LY_1
  6
CONTINUOUS
 62
     7
  5
182
 10
252.263469
 20
61.025014
 30
0.0
  0
VERTEX
  8
LY_1
  6
CONTINUOUS
 62
     7
  5
183
 10
252.668259
 20
60.462327
 30
0.0
  0
VERTEX
  8
LY_1
  6
CONTINUOUS
 62
     7
  5
184
 10
253.064244
 20
59.893893
 30
0.0
  0
VERTEX
  8
LY_1
  6
CONTINUOUS
 62
     7
  5
185
 10
253.451004
 20
59.319799
 30
0.0
  0
VERTEX
  8
LY_1
  6
CONTINUOUS
 62
     7
  5
186
 10
253.828123
 20
58.740129
 30
0.0
  0
VERTEX
  8
LY_1
  6
CONTINUOUS
 62
     7
  5
187
 10
254.195183
 20
58.154972
 30
0.0
  0
VERTEX
  8
LY_1
  6
CONTINUOUS
 62
     7
  5
188
 10
254.551768
 20
57.564411
 30
0.0
  0
VERTEX
  8
LY_1
  6
CONTINUOUS
 62
     7
  5
189
 10
254.897458
 20
56.968534
 30
0.0
  0
VERTEX
  8
LY_1
  6
CONTINUOUS
 62
     7
  5
18A
 10
255.231838
 20
56.367426
 30
0.0
  0
VERTEX
  8
LY_1
  6
CONTINUOUS
 62
     7
  5
18B
 10
255.55449
 20
55.761174
 30
0.0
  0
VERTEX
  8
LY_1
  6
CONTINUOUS
 62
     7
  5
18C
 10
255.864996
 20
55.149863
 30
0.0
  0
VERTEX
  8
LY_1
  6
CONTINUOUS
 62
     7
  5
18D
 10
256.162939
 20
54.533579
 30
0.0
  0
VERTEX
  8
LY_1
  6
CONTINUOUS
 62
     7
  5
18E
 10
256.447902
 20
53.912409
 30
0.0
  0
VERTEX
  8
LY_1
  6
CONTINUOUS
 62
     7
  5
18F
 10
256.719467
 20
53.286438
 30
0.0
  0
VERTEX
  8
LY_1
  6
CONTINUOUS
 62
     7
  5
190
 10
256.961129
 20
52.69663
 30
0.0
  0
VERTEX
  8
LY_1
  6
CONTINUOUS
 62
     7
  5
191
 10
257.191141
 20
52.102843
 30
0.0
  0
VERTEX
  8
LY_1
  6
CONTINUOUS
 62
     7
  5
192
 10
257.40994
 20
51.505224
 30
0.0
  0
VERTEX
  8
LY_1
  6
CONTINUOUS
 62
     7
  5
193
 10
257.617964
 20
50.903921
 30
0.0
  0
VERTEX
  8
LY_1
  6
CONTINUOUS
 62
     7
  5
194
 10
257.815652
 20
50.29908
 30
0.0
  0
VERTEX
  8
LY_1
  6
CONTINUOUS
 62
     7
  5
195
 10
258.003441
 20
49.690848
 30
0.0
  0
VERTEX
  8
LY_1
  6
CONTINUOUS
 62
     7
  5
196
 10
258.18177
 20
49.079373
 30
0.0
  0
VERTEX
  8
LY_1
  6
CONTINUOUS
 62
     7
  5
197
 10
258.351075
 20
48.4648
 30
0.0
  0
VERTEX
  8
LY_1
  6
CONTINUOUS
 62
     7
  5
198
 10
258.511796
 20
47.847277
 30
0.0
  0
VERTEX
  8
LY_1
  6
CONTINUOUS
 62
     7
  5
199
 10
258.664371
 20
47.226951
 30
0.0
  0
VERTEX
  8
LY_1
  6
CONTINUOUS
 62
     7
  5
19A
 10
258.809236
 20
46.603969
 30
0.0
  0
VERTEX
  8
LY_1
  6
CONTINUOUS
 62
     7
  5
19B
 10
258.946831
 20
45.978477
 30
0.0
  0
VERTEX
  8
LY_1
  6
CONTINUOUS
 62
     7
  5
19C
 10
259.077593
 20
45.350622
 30
0.0
  0
VERTEX
  8
LY_1
  6
CONTINUOUS
 62
     7
  5
19D
 10
259.20196
 20
44.720552
 30
0.0
  0
VERTEX
  8
LY_1
  6
CONTINUOUS
 62
     7
  5
19E
 10
259.32037
 20
44.088413
 30
0.0
  0
VERTEX
  8
LY_1
  6
CONTINUOUS
 62
     7
  5
19F
 10
259.433262
 20
43.454352
 30
0.0
  0
VERTEX
  8
LY_1
  6
CONTINUOUS
 62
     7
  5
1A0
 10
259.541073
 20
42.818517
 30
0.0
  0
VERTEX
  8
LY_1
  6
CONTINUOUS
 62
     7
  5
1A1
 10
259.64424
 20
42.181053
 30
0.0
  0
VERTEX
  8
LY_1
  6
CONTINUOUS
 62
     7
  5
1A2
 10
259.743203
 20
41.542108
 30
0.0
  0
VERTEX
  8
LY_1
  6
CONTINUOUS
 62
     7
  5
1A3
 10
259.838399
 20
40.901829
 30
0.0
  0
VERTEX
  8
LY_1
  6
CONTINUOUS
 62
     7
  5
1A4
 10
259.930266
 20
40.260362
 30
0.0
  0
VERTEX
  8
LY_1
  6
CONTINUOUS
 62
     7
  5
1A5
 10
260.019243
 20
39.617855
 30
0.0
  0
VERTEX
  8
LY_1
  6
CONTINUOUS
 62
     7
  5
1A6
 10
260.105766
 20
38.974454
 30
0.0
  0
VERTEX
  8
LY_1
  6
CONTINUOUS
 62
     7
  5
1A7
 10
260.190274
 20
38.330307
 30
0.0
  0
VERTEX
  8
LY_1
  6
CONTINUOUS
 62
     7
  5
1A8
 10
260.273205
 20
37.68556
 30
0.0
  0
VERTEX
  8
LY_1
  6
CONTINUOUS
 62
     7
  5
1A9
 10
260.354998
 20
37.04036
 30
0.0
  0
VERTEX
  8
LY_1
  6
CONTINUOUS
 62
     7
  5
1AA
 10
260.436089
 20
36.394854
 30
0.0
  0
VERTEX
  8
LY_1
  6
CONTINUOUS
 62
     7
  5
1AB
 10
260.516917
 20
35.74919
 30
0.0
  0
VERTEX
  8
LY_1
  6
CONTINUOUS
 62
     7
  5
1AC
 10
260.59792
 20
35.103512
 30
0.0
  0
VERTEX
  8
LY_1
  6
CONTINUOUS
 62
     7
  5
1AD
 10
260.679536
 20
34.45797
 30
0.0
  0
VERTEX
  8
LY_1
  6
CONTINUOUS
 62
     7
  5
1AE
 10
260.762203
 20
33.812709
 30
0.0
  0
VERTEX
  8
LY_1
  6
CONTINUOUS
 62
     7
  5
1AF
 10
260.846359
 20
33.167877
 30
0.0
  0
VERTEX
  8
LY_1
  6
CONTINUOUS
 62
     7
  5
1B0
 10
260.919934
 20
32.615477
 30
0.0
  0
VERTEX
  8
LY_1
  6
CONTINUOUS
 62
     7
  5
1B1
 10
260.994649
 20
32.063487
 30
0.0
  0
VERTEX
  8
LY_1
  6
CONTINUOUS
 62
     7
  5
1B2
 10
261.070226
 20
31.511893
 30
0.0
  0
VERTEX
  8
LY_1
  6
CONTINUOUS
 62
     7
  5
1B3
 10
261.14639
 20
30.960682
 30
0.0
  0
VERTEX
  8
LY_1
  6
CONTINUOUS
 62
     7
  5
1B4
 10
261.222864
 20
30.409841
 30
0.0
  0
VERTEX
  8
LY_1
  6
CONTINUOUS
 62
     7
  5
1B5
 10
261.299371
 20
29.859357
 30
0.0
  0
VERTEX
  8
LY_1
  6
CONTINUOUS
 62
     7
  5
1B6
 10
261.375635
 20
29.309216
 30
0.0
  0
VERTEX
  8
LY_1
  6
CONTINUOUS
 62
     7
  5
1B7
 10
261.451378
 20
28.759405
 30
0.0
  0
VERTEX
  8
LY_1
  6
CONTINUOUS
 62
     7
  5
1B8
 10
261.526324
 20
28.209911
 30
0.0
  0
VERTEX
  8
LY_1
  6
CONTINUOUS
 62
     7
  5
1B9
 10
261.600198
 20
27.660721
 30
0.0
  0
VERTEX
  8
LY_1
  6
CONTINUOUS
 62
     7
  5
1BA
 10
261.672721
 20
27.111822
 30
0.0
  0
VERTEX
  8
LY_1
  6
CONTINUOUS
 62
     7
  5
1BB
 10
261.743617
 20
26.5632
 30
0.0
  0
VERTEX
  8
LY_1
  6
CONTINUOUS
 62
     7
  5
1BC
 10
261.81261
 20
26.014842
 30
0.0
  0
VERTEX
  8
LY_1
  6
CONTINUOUS
 62
     7
  5
1BD
 10
261.879424
 20
25.466734
 30
0.0
  0
VERTEX
  8
LY_1
  6
CONTINUOUS
 62
     7
  5
1BE
 10
261.94378
 20
24.918864
 30
0.0
  0
VERTEX
  8
LY_1
  6
CONTINUOUS
 62
     7
  5
1BF
 10
262.005404
 20
24.371219
 30
0.0
  0
VERTEX
  8
LY_1
  6
CONTINUOUS
 62
     7
  5
1C0
 10
262.064017
 20
23.823785
 30
0.0
  0
VERTEX
  8
LY_1
  6
CONTINUOUS
 62
     7
  5
1C1
 10
262.119345
 20
23.276548
 30
0.0
  0
VERTEX
  8
LY_1
  6
CONTINUOUS
 62
     7
  5
1C2
 10
262.171109
 20
22.729496
 30
0.0
  0
VERTEX
  8
LY_1
  6
CONTINUOUS
 62
     7
  5
1C3
 10
262.219033
 20
22.182616
 30
0.0
  0
VERTEX
  8
LY_1
  6
CONTINUOUS
 62
     7
  5
1C4
 10
262.262842
 20
21.635893
 30
0.0
  0
VERTEX
  8
LY_1
  6
CONTINUOUS
 62
     7
  5
1C5
 10
262.302257
 20
21.089316
 30
0.0
  0
VERTEX
  8
LY_1
  6
CONTINUOUS
 62
     7
  5
1C6
 10
262.337002
 20
20.54287
 30
0.0
  0
VERTEX
  8
LY_1
  6
CONTINUOUS
 62
     7
  5
1C7
 10
262.366802
 20
19.996543
 30
0.0
  0
VERTEX
  8
LY_1
  6
CONTINUOUS
 62
     7
  5
1C8
 10
262.391378
 20
19.450321
 30
0.0
  0
VERTEX
  8
LY_1
  6
CONTINUOUS
 62
     7
  5
1C9
 10
262.410455
 20
18.904191
 30
0.0
  0
VERTEX
  8
LY_1
  6
CONTINUOUS
 62
     7
  5
1CA
 10
262.423756
 20
18.35814
 30
0.0
  0
VERTEX
  8
LY_1
  6
CONTINUOUS
 62
     7
  5
1CB
 10
262.431004
 20
17.812154
 30
0.0
  0
VERTEX
  8
LY_1
  6
CONTINUOUS
 62
     7
  5
1CC
 10
262.431923
 20
17.26622
 30
0.0
  0
VERTEX
  8
LY_1
  6
CONTINUOUS
 62
     7
  5
1CD
 10
262.426235
 20
16.720326
 30
0.0
  0
VERTEX
  8
LY_1
  6
CONTINUOUS
 62
     7
  5
1CE
 10
262.413665
 20
16.174457
 30
0.0
  0
VERTEX
  8
LY_1
  6
CONTINUOUS
 62
     7
  5
1CF
 10
262.393936
 20
15.628601
 30
0.0
  0
VERTEX
  8
LY_1
  6
CONTINUOUS
 62
     7
  5
1D0
 10
262.369444
 20
15.128726
 30
0.0
  0
VERTEX
  8
LY_1
  6
CONTINUOUS
 62
     7
  5
1D1
 10
262.339047
 20
14.628852
 30
0.0
  0
VERTEX
  8
LY_1
  6
CONTINUOUS
 62
     7
  5
1D2
 10
262.30308
 20
14.128978
 30
0.0
  0
VERTEX
  8
LY_1
  6
CONTINUOUS
 62
     7
  5
1D3
 10
262.261874
 20
13.629106
 30
0.0
  0
VERTEX
  8
LY_1
  6
CONTINUOUS
 62
     7
  5
1D4
 10
262.215761
 20
13.129237
 30
0.0
  0
VERTEX
  8
LY_1
  6
CONTINUOUS
 62
     7
  5
1D5
 10
262.165074
 20
12.629372
 30
0.0
  0
VERTEX
  8
LY_1
  6
CONTINUOUS
 62
     7
  5
1D6
 10
262.110145
 20
12.129511
 30
0.0
  0
VERTEX
  8
LY_1
  6
CONTINUOUS
 62
     7
  5
1D7
 10
262.051306
 20
11.629655
 30
0.0
  0
VERTEX
  8
LY_1
  6
CONTINUOUS
 62
     7
  5
1D8
 10
261.988891
 20
11.129805
 30
0.0
  0
VERTEX
  8
LY_1
  6
CONTINUOUS
 62
     7
  5
1D9
 10
261.923231
 20
10.629962
 30
0.0
  0
VERTEX
  8
LY_1
  6
CONTINUOUS
 62
     7
  5
1DA
 10
261.854658
 20
10.130128
 30
0.0
  0
VERTEX
  8
LY_1
  6
CONTINUOUS
 62
     7
  5
1DB
 10
261.783506
 20
9.630301
 30
0.0
  0
VERTEX
  8
LY_1
  6
CONTINUOUS
 62
     7
  5
1DC
 10
261.710105
 20
9.130485
 30
0.0
  0
VERTEX
  8
LY_1
  6
CONTINUOUS
 62
     7
  5
1DD
 10
261.63479
 20
8.630678
 30
0.0
  0
VERTEX
  8
LY_1
  6
CONTINUOUS
 62
     7
  5
1DE
 10
261.557891
 20
8.130883
 30
0.0
  0
VERTEX
  8
LY_1
  6
CONTINUOUS
 62
     7
  5
1DF
 10
261.479742
 20
7.6311
 30
0.0
  0
VERTEX
  8
LY_1
  6
CONTINUOUS
 62
     7
  5
1E0
 10
261.400675
 20
7.13133
 30
0.0
  0
VERTEX
  8
LY_1
  6
CONTINUOUS
 62
     7
  5
1E1
 10
261.321022
 20
6.631573
 30
0.0
  0
VERTEX
  8
LY_1
  6
CONTINUOUS
 62
     7
  5
1E2
 10
261.241116
 20
6.131832
 30
0.0
  0
VERTEX
  8
LY_1
  6
CONTINUOUS
 62
     7
  5
1E3
 10
261.161288
 20
5.632105
 30
0.0
  0
VERTEX
  8
LY_1
  6
CONTINUOUS
 62
     7
  5
1E4
 10
261.081872
 20
5.132395
 30
0.0
  0
VERTEX
  8
LY_1
  6
CONTINUOUS
 62
     7
  5
1E5
 10
261.003199
 20
4.632702
 30
0.0
  0
VERTEX
  8
LY_1
  6
CONTINUOUS
 62
     7
  5
1E6
 10
260.925602
 20
4.133027
 30
0.0
  0
VERTEX
  8
LY_1
  6
CONTINUOUS
 62
     7
  5
1E7
 10
260.849414
 20
3.633371
 30
0.0
  0
VERTEX
  8
LY_1
  6
CONTINUOUS
 62
     7
  5
1E8
 10
260.774966
 20
3.133735
 30
0.0
  0
VERTEX
  8
LY_1
  6
CONTINUOUS
 62
     7
  5
1E9
 10
260.702591
 20
2.634119
 30
0.0
  0
VERTEX
  8
LY_1
  6
CONTINUOUS
 62
     7
  5
1EA
 10
260.632622
 20
2.134524
 30
0.0
  0
VERTEX
  8
LY_1
  6
CONTINUOUS
 62
     7
  5
1EB
 10
260.565391
 20
1.634952
 30
0.0
  0
VERTEX
  8
LY_1
  6
CONTINUOUS
 62
     7
  5
1EC
 10
260.501229
 20
1.135403
 30
0.0
  0
VERTEX
  8
LY_1
  6
CONTINUOUS
 62
     7
  5
1ED
 10
260.440471
 20
0.635877
 30
0.0
  0
VERTEX
  8
LY_1
  6
CONTINUOUS
 62
     7
  5
1EE
 10
260.383447
 20
0.136377
 30
0.0
  0
VERTEX
  8
LY_1
  6
CONTINUOUS
 62
     7
  5
1EF
 10
260.33049
 20
-0.363098
 30
0.0
  0
VERTEX
  8
LY_1
  6
CONTINUOUS
 62
     7
  5
1F0
 10
260.267571
 20
-1.018228
 30
0.0
  0
VERTEX
  8
LY_1
  6
CONTINUOUS
 62
     7
  5
1F1
 10
260.211903
 20
-1.673349
 30
0.0
  0
VERTEX
  8
LY_1
  6
CONTINUOUS
 62
     7
  5
1F2
 10
260.163166
 20
-2.328502
 30
0.0
  0
VERTEX
  8
LY_1
  6
CONTINUOUS
 62
     7
  5
1F3
 10
260.121042
 20
-2.983724
 30
0.0
  0
VERTEX
  8
LY_1
  6
CONTINUOUS
 62
     7
  5
1F4
 10
260.085211
 20
-3.639054
 30
0.0
  0
VERTEX
  8
LY_1
  6
CONTINUOUS
 62
     7
  5
1F5
 10
260.055354
 20
-4.294529
 30
0.0
  0
VERTEX
  8
LY_1
  6
CONTINUOUS
 62
     7
  5
1F6
 10
260.031153
 20
-4.950188
 30
0.0
  0
VERTEX
  8
LY_1
  6
CONTINUOUS
 62
     7
  5
1F7
 10
260.012287
 20
-5.606069
 30
0.0
  0
VERTEX
  8
LY_1
  6
CONTINUOUS
 62
     7
  5
1F8
 10
259.998437
 20
-6.262211
 30
0.0
  0
VERTEX
  8
LY_1
  6
CONTINUOUS
 62
     7
  5
1F9
 10
259.989285
 20
-6.918651
 30
0.0
  0
VERTEX
  8
LY_1
  6
CONTINUOUS
 62
     7
  5
1FA
 10
259.984512
 20
-7.575428
 30
0.0
  0
VERTEX
  8
LY_1
  6
CONTINUOUS
 62
     7
  5
1FB
 10
259.983798
 20
-8.232581
 30
0.0
  0
VERTEX
  8
LY_1
  6
CONTINUOUS
 62
     7
  5
1FC
 10
259.986824
 20
-8.890147
 30
0.0
  0
VERTEX
  8
LY_1
  6
CONTINUOUS
 62
     7
  5
1FD
 10
259.993271
 20
-9.548165
 30
0.0
  0
VERTEX
  8
LY_1
  6
CONTINUOUS
 62
     7
  5
1FE
 10
260.00282
 20
-10.206673
 30
0.0
  0
VERTEX
  8
LY_1
  6
CONTINUOUS
 62
     7
  5
1FF
 10
260.015152
 20
-10.865709
 30
0.0
  0
VERTEX
  8
LY_1
  6
CONTINUOUS
 62
     7
  5
200
 10
260.029947
 20
-11.525312
 30
0.0
  0
VERTEX
  8
LY_1
  6
CONTINUOUS
 62
     7
  5
201
 10
260.046887
 20
-12.18552
 30
0.0
  0
VERTEX
  8
LY_1
  6
CONTINUOUS
 62
     7
  5
202
 10
260.065652
 20
-12.846371
 30
0.0
  0
VERTEX
  8
LY_1
  6
CONTINUOUS
 62
     7
  5
203
 10
260.085923
 20
-13.507903
 30
0.0
  0
VERTEX
  8
LY_1
  6
CONTINUOUS
 62
     7
  5
204
 10
260.107381
 20
-14.170155
 30
0.0
  0
VERTEX
  8
LY_1
  6
CONTINUOUS
 62
     7
  5
205
 10
260.129707
 20
-14.833165
 30
0.0
  0
VERTEX
  8
LY_1
  6
CONTINUOUS
 62
     7
  5
206
 10
260.152582
 20
-15.496971
 30
0.0
  0
VERTEX
  8
LY_1
  6
CONTINUOUS
 62
     7
  5
207
 10
260.175687
 20
-16.161611
 30
0.0
  0
VERTEX
  8
LY_1
  6
CONTINUOUS
 62
     7
  5
208
 10
260.198701
 20
-16.827124
 30
0.0
  0
VERTEX
  8
LY_1
  6
CONTINUOUS
 62
     7
  5
209
 10
260.221308
 20
-17.493549
 30
0.0
  0
VERTEX
  8
LY_1
  6
CONTINUOUS
 62
     7
  5
20A
 10
260.243186
 20
-18.160922
 30
0.0
  0
VERTEX
  8
LY_1
  6
CONTINUOUS
 62
     7
  5
20B
 10
260.264017
 20
-18.829283
 30
0.0
  0
VERTEX
  8
LY_1
  6
CONTINUOUS
 62
     7
  5
20C
 10
260.283482
 20
-19.498669
 30
0.0
  0
VERTEX
  8
LY_1
  6
CONTINUOUS
 62
     7
  5
20D
 10
260.301262
 20
-20.16912
 30
0.0
  0
VERTEX
  8
LY_1
  6
CONTINUOUS
 62
     7
  5
20E
 10
260.317038
 20
-20.840673
 30
0.0
  0
VERTEX
  8
LY_1
  6
CONTINUOUS
 62
     7
  5
20F
 10
260.33049
 20
-21.513367
 30
0.0
  0
VERTEX
  8
LY_1
  6
CONTINUOUS
 62
     7
  5
210
 10
260.339454
 20
-22.059601
 30
0.0
  0
VERTEX
  8
LY_1
  6
CONTINUOUS
 62
     7
  5
211
 10
260.346409
 20
-22.606456
 30
0.0
  0
VERTEX
  8
LY_1
  6
CONTINUOUS
 62
     7
  5
212
 10
260.35108
 20
-23.153778
 30
0.0
  0
VERTEX
  8
LY_1
  6
CONTINUOUS
 62
     7
  5
213
 10
260.353196
 20
-23.701413
 30
0.0
  0
VERTEX
  8
LY_1
  6
CONTINUOUS
 62
     7
  5
214
 10
260.352483
 20
-24.249207
 30
0.0
  0
VERTEX
  8
LY_1
  6
CONTINUOUS
 62
     7
  5
215
 10
260.348669
 20
-24.797005
 30
0.0
  0
VERTEX
  8
LY_1
  6
CONTINUOUS
 62
     7
  5
216
 10
260.34148
 20
-25.344654
 30
0.0
  0
VERTEX
  8
LY_1
  6
CONTINUOUS
 62
     7
  5
217
 10
260.330645
 20
-25.891999
 30
0.0
  0
VERTEX
  8
LY_1
  6
CONTINUOUS
 62
     7
  5
218
 10
260.315889
 20
-26.438888
 30
0.0
  0
VERTEX
  8
LY_1
  6
CONTINUOUS
 62
     7
  5
219
 10
260.296941
 20
-26.985164
 30
0.0
  0
VERTEX
  8
LY_1
  6
CONTINUOUS
 62
     7
  5
21A
 10
260.273527
 20
-27.530675
 30
0.0
  0
VERTEX
  8
LY_1
  6
CONTINUOUS
 62
     7
  5
21B
 10
260.245374
 20
-28.075267
 30
0.0
  0
VERTEX
  8
LY_1
  6
CONTINUOUS
 62
     7
  5
21C
 10
260.21221
 20
-28.618785
 30
0.0
  0
VERTEX
  8
LY_1
  6
CONTINUOUS
 62
     7
  5
21D
 10
260.173762
 20
-29.161075
 30
0.0
  0
VERTEX
  8
LY_1
  6
CONTINUOUS
 62
     7
  5
21E
 10
260.129757
 20
-29.701984
 30
0.0
  0
VERTEX
  8
LY_1
  6
CONTINUOUS
 62
     7
  5
21F
 10
260.079922
 20
-30.241357
 30
0.0
  0
VERTEX
  8
LY_1
  6
CONTINUOUS
 62
     7
  5
220
 10
260.023984
 20
-30.77904
 30
0.0
  0
VERTEX
  8
LY_1
  6
CONTINUOUS
 62
     7
  5
221
 10
259.96167
 20
-31.31488
 30
0.0
  0
VERTEX
  8
LY_1
  6
CONTINUOUS
 62
     7
  5
222
 10
259.892708
 20
-31.848721
 30
0.0
  0
VERTEX
  8
LY_1
  6
CONTINUOUS
 62
     7
  5
223
 10
259.816825
 20
-32.380411
 30
0.0
  0
VERTEX
  8
LY_1
  6
CONTINUOUS
 62
     7
  5
224
 10
259.733747
 20
-32.909795
 30
0.0
  0
VERTEX
  8
LY_1
  6
CONTINUOUS
 62
     7
  5
225
 10
259.643203
 20
-33.436719
 30
0.0
  0
VERTEX
  8
LY_1
  6
CONTINUOUS
 62
     7
  5
226
 10
259.544918
 20
-33.961029
 30
0.0
  0
VERTEX
  8
LY_1
  6
CONTINUOUS
 62
     7
  5
227
 10
259.438621
 20
-34.482571
 30
0.0
  0
VERTEX
  8
LY_1
  6
CONTINUOUS
 62
     7
  5
228
 10
259.324038
 20
-35.001191
 30
0.0
  0
VERTEX
  8
LY_1
  6
CONTINUOUS
 62
     7
  5
229
 10
259.200897
 20
-35.516735
 30
0.0
  0
VERTEX
  8
LY_1
  6
CONTINUOUS
 62
     7
  5
22A
 10
259.068925
 20
-36.029049
 30
0.0
  0
VERTEX
  8
LY_1
  6
CONTINUOUS
 62
     7
  5
22B
 10
258.927848
 20
-36.537978
 30
0.0
  0
VERTEX
  8
LY_1
  6
CONTINUOUS
 62
     7
  5
22C
 10
258.777395
 20
-37.043369
 30
0.0
  0
VERTEX
  8
LY_1
  6
CONTINUOUS
 62
     7
  5
22D
 10
258.617292
 20
-37.545068
 30
0.0
  0
VERTEX
  8
LY_1
  6
CONTINUOUS
 62
     7
  5
22E
 10
258.447266
 20
-38.042921
 30
0.0
  0
VERTEX
  8
LY_1
  6
CONTINUOUS
 62
     7
  5
22F
 10
258.267044
 20
-38.536774
 30
0.0
  0
VERTEX
  8
LY_1
  6
CONTINUOUS
 62
     7
  5
230
 10
257.950897
 20
-39.33372
 30
0.0
  0
VERTEX
  8
LY_1
  6
CONTINUOUS
 62
     7
  5
231
 10
257.608554
 20
-40.120275
 30
0.0
  0
VERTEX
  8
LY_1
  6
CONTINUOUS
 62
     7
  5
232
 10
257.241685
 20
-40.897104
 30
0.0
  0
VERTEX
  8
LY_1
  6
CONTINUOUS
 62
     7
  5
233
 10
256.851959
 20
-41.664875
 30
0.0
  0
VERTEX
  8
LY_1
  6
CONTINUOUS
 62
     7
  5
234
 10
256.441045
 20
-42.424255
 30
0.0
  0
VERTEX
  8
LY_1
  6
CONTINUOUS
 62
     7
  5
235
 10
256.01061
 20
-43.175909
 30
0.0
  0
VERTEX
  8
LY_1
  6
CONTINUOUS
 62
     7
  5
236
 10
255.562325
 20
-43.920504
 30
0.0
  0
VERTEX
  8
LY_1
  6
CONTINUOUS
 62
     7
  5
237
 10
255.097858
 20
-44.658706
 30
0.0
  0
VERTEX
  8
LY_1
  6
CONTINUOUS
 62
     7
  5
238
 10
254.618879
 20
-45.391183
 30
0.0
  0
VERTEX
  8
LY_1
  6
CONTINUOUS
 62
     7
  5
239
 10
254.127055
 20
-46.1186
 30
0.0
  0
VERTEX
  8
LY_1
  6
CONTINUOUS
 62
     7
  5
23A
 10
253.624056
 20
-46.841624
 30
0.0
  0
VERTEX
  8
LY_1
  6
CONTINUOUS
 62
     7
  5
23B
 10
253.111551
 20
-47.560923
 30
0.0
  0
VERTEX
  8
LY_1
  6
CONTINUOUS
 62
     7
  5
23C
 10
252.591208
 20
-48.277161
 30
0.0
  0
VERTEX
  8
LY_1
  6
CONTINUOUS
 62
     7
  5
23D
 10
252.064698
 20
-48.991006
 30
0.0
  0
VERTEX
  8
LY_1
  6
CONTINUOUS
 62
     7
  5
23E
 10
251.533687
 20
-49.703124
 30
0.0
  0
VERTEX
  8
LY_1
  6
CONTINUOUS
 62
     7
  5
23F
 10
250.999846
 20
-50.414182
 30
0.0
  0
SEQEND
  8
LY_1
  6
CONTINUOUS
 62
     7
  5
240
  0
ARC
  8
LY_1
  6
CONTINUOUS
 62
   251
  5
5D
 10
474.000015
 20
62.5
 30
0.0
 40
5.0
 50
269.999997
 51
0.0
  0
ARC
  8
LY_1
  6
CONTINUOUS
 62
   251
  5
5E
 10
474.000015
 20
-62.5
 30
0.0
 40
5.0
 50
0.0
 51
90.000003
  0
ARC
  8
LY_1
  6
CONTINUOUS
 62
   251
  5
5F
 10
417.000015
 20
-62.5
 30
0.0
 40
5.0
 50
90.000003
 51
180.000005
  0
ARC
  8
LY_1
  6
CONTINUOUS
 62
   251
  5
60
 10
417.000015
 20
62.5
 30
0.0
 40
5.0
 50
179.999991
 51
270.000001
  0
CIRCLE
  8
LY_1
  6
CONTINUOUS
 62
   251
  5
61
 10
382.000015
 20
0.0
 30
0.0
 40
4.990937
  0
ARC
  8
LY_1
  6
CONTINUOUS
 62
   251
  5
62
 10
-63.280029
 20
109.604198
 30
0.0
 40
8.5
 50
30.000001
 51
209.999999
  0
ARC
  8
LY_1
  6
CONTINUOUS
 62
   251
  5
63
 10
410.500015
 20
101.104187
 30
0.0
 40
17.0
 50
96.879797
 51
165.953453
  0
ARC
  8
LY_1
  6
CONTINUOUS
 62
   251
  5
64
 10
408.440201
 20
95.606293
 30
0.0
 40
2.0
 50
10.000004
 51
89.999982
  0
ARC
  8
LY_1
  6
CONTINUOUS
 62
   251
  5
65
 10
397.55986
 20
95.606293
 30
0.0
 40
2.0
 50
89.999982
 51
170.000021
  0
CIRCLE
  8
LY_1
  6
CONTINUOUS
 62
   251
  5
66
 10
403.000015
 20
109.606293
 30
0.0
 40
10.0
  0
ARC
  8
LY_1
  6
CONTINUOUS
 62
   251
  5
67
 10
403.000015
 20
109.606293
 30
0.0
 40
16.299999
 50
306.086414
 51
233.913543
  0
ARC
  8
LY_1
  6
CONTINUOUS
 62
   251
  5
68
 10
391.043228
 20
93.201263
 30
0.0
 40
4.0
 50
351.445928
 51
53.913579
  0
ARC
  8
LY_1
  6
CONTINUOUS
 62
   251
  5
69
 10
414.956833
 20
93.201263
 30
0.0
 40
4.0
 50
126.08644
 51
188.554038
  0
ARC
  8
LY_1
  6
CONTINUOUS
 62
   251
  5
6A
 10
-21.645264
 20
122.756287
 30
0.0
 40
3.15
 50
15.6603
 51
184.339716
  0
ARC
  8
LY_1
  6
CONTINUOUS
 62
   251
  5
6B
 10
324.000008
 20
88.921356
 30
0.0
 40
5.0
 50
282.242729
 51
0.0
  0
ARC
  8
LY_1
  6
CONTINUOUS
 62
   251
  5
6C
 10
248.0
 20
0.0
 30
0.0
 40
5.0
 50
269.999997
 51
90.000003
  0
ARC
  8
LY_1
  6
CONTINUOUS
 62
   251
  5
6D
 10
311.401199
 20
74.718414
 30
0.0
 40
2.0
 50
253.313108
 51
338.380877
  0
ARC
  8
LY_1
  6
CONTINUOUS
 62
   251
  5
6E
 10
326.000015
 20
62.014099
 30
0.0
 40
3.0
 50
0.0
 51
83.32966
  0
ARC
  8
LY_1
  6
CENTER
 62
     7
  5
6F
 10
0.0
 20
0.0
 30
0.0
 40
107.5
 50
82.277458
 51
97.045213
  0
ARC
  8
LY_1
  6
CENTER
 62
     7
  5
70
 10
0.0
 20
0.0
 30
0.0
 40
107.5
 50
262.324947
 51
277.045215
  0
ARC
  8
LY_1
  6
CENTER
 62
     7
  5
71
 10
0.0
 20
0.0
 30
0.0
 40
107.5
 50
172.848401
 51
187.045209
  0
CIRCLE
  8
LY_1
  6
CONTINUOUS
 62
   251
  5
72
 10
0.0
 20
-107.499954
 30
0.0
 40
7.5
  0
CIRCLE
  8
LY_1
  6
CONTINUOUS
 62
   251
  5
73
 10
-107.5
 20
0.0
 30
0.0
 40
7.5
  0
ARC
  8
LY_1
  6
CENTER
 62
     7
  5
74
 10
0.0
 20
0.0
 30
0.0
 40
107.5
 50
352.848398
 51
7.045212
  0
CIRCLE
  8
LY_1
  6
CONTINUOUS
 62
   251
  5
75
 10
0.0
 20
107.5
 30
0.0
 40
7.5
  0
CIRCLE
  8
LY_1
  6
CONTINUOUS
 62
   251
  5
76
 10
107.5
 20
0.0
 30
0.0
 40
7.5
  0
CIRCLE
  8
LY_1
  6
CONTINUOUS
 62
   251
  5
77
 10
0.0
 20
0.0
 30
0.0
 40
85.0
  0
CIRCLE
  8
LY_1
  6
CONTINUOUS
 62
   251
  5
78
 10
0.0
 20
0.0
 30
0.0
 40
90.0
  0
ARC
  8
LY_1
  6
CONTINUOUS
 62
   251
  5
79
 10
0.0
 20
0.0
 30
0.0
 40
19.0
 50
15.257523
 51
344.742477
  0
CIRCLE
  8
LY_1
  6
CONTINUOUS
 62
   251
  5
7A
 10
0.0
 20
0.0
 30
0.0
 40
125.0
  0
LINE
  8
LY_1
  6
CONTINUOUS
 62
   251
  5
7B
 10
245.0
 20
-5.0
 30
0.0
 11
245.0
 21
5.0
 31
0.0
  0
LINE
  8
LY_1
  6
CONTINUOUS
 62
   251
  5
7C
 10
22.0
 20
5.0
 30
0.0
 11
22.0
 21
-5.0
 31
0.0
  0
LINE
  8
LY_1
  6
CONTINUOUS
 62
   251
  5
7D
 10
417.000015
 20
-57.5
 30
0.0
 11
474.000015
 21
-57.5
 31
0.0
  0
LINE
  8
LY_1
  6
CONTINUOUS
 62
   251
  5
7E
 10
479.000015
 20
-65.0
 30
0.0
 11
494.000015
 21
-65.0
 31
0.0
  0
LINE
  8
LY_1
  6
CONTINUOUS
 62
   251
  5
7F
 10
417.000015
 20
57.5
 30
0.0
 11
474.000015
 21
57.5
 31
0.0
  0
LINE
  8
LY_1
  6
CONTINUOUS
 62
   251
  5
80
 10
479.000015
 20
65.0
 30
0.0
 11
494.000015
 21
65.0
 31
0.0
  0
LINE
  8
LY_1
  6
CONTINUOUS
 62
   251
  5
81
 10
479.000015
 20
65.0
 30
0.0
 11
479.000015
 21
-65.0
 31
0.0
  0
LINE
  8
LY_1
  6
CONTINUOUS
 62
   251
  5
82
 10
494.000015
 20
65.0
 30
0.0
 11
494.000015
 21
-65.0
 31
0.0
  0
LINE
  8
LY_1
  6
CENTER
 62
     7
  5
83
 10
382.000015
 20
-6.990936
 30
0.0
 11
382.000015
 21
6.990936
 31
0.0
  0
LINE
  8
LY_1
  6
CONTINUOUS
 62
   251
  5
84
 10
377.050262
 20
-0.000005
 30
0.0
 11
382.00001
 21
-4.949752
 31
0.0
  0
LINE
  8
LY_1
  6
CONTINUOUS
 62
   251
  5
85
 10
382.000015
 20
4.949721
 30
0.0
 11
377.050267
 21
-0.000026
 31
0.0
  0
LINE
  8
LY_1
  6
CONTINUOUS
 62
   251
  5
86
 10
386.949762
 20
0.000025
 30
0.0
 11
382.000014
 21
4.949772
 31
0.0
  0
LINE
  8
LY_1
  6
CONTINUOUS
 62
   251
  5
87
 10
382.000014
 20
-4.949774
 30
0.0
 11
386.949762
 21
-0.000027
 31
0.0
  0
LINE
  8
LY_1
  6
CONTINUOUS
 62
   251
  5
88
 10
366.000015
 20
92.5
 30
0.0
 11
366.000015
 21
-92.5
 31
0.0
  0
LINE
  8
LY_1
  6
CONTINUOUS
 62
   251
  5
89
 10
344.000015
 20
92.5
 30
0.0
 11
394.000015
 21
92.5
 31
0.0
  0
LINE
  8
LY_1
  6
CONTINUOUS
 62
   251
  5
8A
 10
344.000015
 20
-92.5
 30
0.0
 11
394.000015
 21
-92.5
 31
0.0
  0
LINE
  8
LY_1
  6
CONTINUOUS
 62
     7
  5
8B
 10
303.000014
 20
160.344961
 30
0.0
 11
307.987461
 21
152.337828
 31
0.0
  0
LINE
  8
LY_1
  6
CONTINUOUS
 62
     7
  5
8C
 10
303.288474
 20
153.093227
 30
0.0
 11
308.950014
 21
158.310034
 31
0.0
  0
LINE
  8
LY_1
  6
CONTINUOUS
 62
     7
  5
8D
 10
297.050014
 20
158.310033
 30
0.0
 11
302.71263
 21
153.092234
 31
0.0
  0
LINE
  8
LY_1
  6
CONTINUOUS
 62
     7
  5
8E
 10
298.012796
 20
152.338196
 30
0.0
 11
303.000016
 21
160.344963
 31
0.0
  0
LINE
  8
LY_1
  6
CONTINUOUS
 62
   251
  5
8F
 10
303.000014
 20
160.344963
 30
0.0
 11
308.950017
 21
158.310032
 31
0.0
  0
LINE
  8
LY_1
  6
CONTINUOUS
 62
   251
  5
90
 10
297.050014
 20
158.310033
 30
0.0
 11
303.000017
 21
160.344964
 31
0.0
  0
LINE
  8
LY_1
  6
CONTINUOUS
 62
   251
  5
91
 10
308.950012
 20
158.310033
 30
0.0
 11
308.950012
 21
151.872862
 31
0.0
  0
LINE
  8
LY_1
  6
CONTINUOUS
 62
   251
  5
92
 10
297.050018
 20
158.310033
 30
0.0
 11
297.050018
 21
151.871888
 31
0.0
  0
LINE
  8
LY_1
  6
CONTINUOUS
 62
   251
  5
93
 10
309.734581
 20
150.766442
 30
0.0
 11
309.657047
 21
148.421019
 31
0.0
  0
LINE
  8
LY_1
  6
CONTINUOUS
 62
   251
  5
94
 10
296.342982
 20
148.420934
 30
0.0
 11
296.265445
 21
150.766441
 31
0.0
  0
LINE
  8
LY_1
  6
CONTINUOUS
 62
   251
  5
95
 10
309.900017
 20
122.611109
 30
0.0
 11
309.900017
 21
73.080605
 31
0.0
  0
LINE
  8
LY_1
  6
CONTINUOUS
 62
   251
  5
96
 10
296.100014
 20
122.611109
 30
0.0
 11
296.100014
 21
77.217361
 31
0.0
  0
LINE
  8
LY_1
  6
CONTINUOUS
 62
   251
  5
97
 10
312.500015
 20
146.103425
 30
0.0
 11
312.500015
 21
122.611109
 31
0.0
  0
LINE
  8
LY_1
  6
CONTINUOUS
 62
   251
  5
98
 10
293.500015
 20
146.103425
 30
0.0
 11
293.500015
 21
122.611109
 31
0.0
  0
LINE
  8
LY_1
  6
CONTINUOUS
 62
   251
  5
99
 10
-44.250217
 20
149.352609
 30
0.0
 11
-62.104377
 21
142.854226
 31
0.0
  0
LINE
  8
LY_1
  6
CONTINUOUS
 62
     7
  5
9A
 10
-57.620128
 20
158.310027
 30
0.0
 11
-60.474897
 21
148.757557
 31
0.0
  0
LINE
  8
LY_1
  6
CONTINUOUS
 62
     7
  5
9B
 10
-63.211062
 20
156.275106
 30
0.0
 11
-54.883959
 21
150.792491
 31
0.0
  0
LINE
  8
LY_1
  6
CONTINUOUS
 62
     7
  5
9C
 10
-57.620126
 20
158.310038
 30
0.0
 11
-49.293049
 21
152.82744
 31
0.0
  0
LINE
  8
LY_1
  6
CONTINUOUS
 62
     7
  5
9D
 10
-52.029208
 20
160.344968
 30
0.0
 11
-54.883979
 21
150.79249
 31
0.0
  0
LINE
  8
LY_1
  6
CONTINUOUS
 62
   251
  5
9E
 10
-57.620141
 20
158.31003
 30
0.0
 11
-54.88398
 21
150.792489
 31
0.0
  0
LINE
  8
LY_1
  6
CONTINUOUS
 62
   251
  5
9F
 10
-63.211065
 20
156.2751
 30
0.0
 11
-60.474904
 21
148.757559
 31
0.0
  0
LINE
  8
LY_1
  6
CONTINUOUS
 62
   251
  5
A0
 10
-52.029216
 20
160.34496
 30
0.0
 11
-49.293055
 21
152.827419
 31
0.0
  0
LINE
  8
LY_1
  6
CONTINUOUS
 62
   251
  5
A1
 10
-61.213684
 20
148.488664
 30
0.0
 11
-59.360472
 21
143.852935
 31
0.0
  0
LINE
  8
LY_1
  6
CONTINUOUS
 62
   251
  5
A2
 10
-48.554264
 20
153.096315
 30
0.0
 11
-46.994119
 21
148.353919
 31
0.0
  0
LINE
  8
LY_1
  6
CONTINUOUS
 62
   251
  5
A3
 10
-48.554275
 20
153.096313
 30
0.0
 11
-61.213685
 21
148.488664
 31
0.0
  0
LINE
  8
LY_1
  6
CONTINUOUS
 62
   251
  5
A4
 10
-52.029216
 20
160.34496
 30
0.0
 11
-63.211065
 21
156.2751
 31
0.0
  0
LINE
  8
LY_1
  6
CONTINUOUS
 62
   251
  5
A5
 10
-36.20346
 20
119.642417
 30
0.0
 11
-38.14292
 21
124.971039
 31
0.0
  0
LINE
  8
LY_1
  6
CONTINUOUS
 62
   251
  5
A6
 10
-49.171207
 20
114.922543
 30
0.0
 11
-51.110667
 21
120.251165
 31
0.0
  0
LINE
  8
LY_1
  6
CONTINUOUS
 62
   251
  5
A7
 10
-53.553873
 20
119.361911
 30
0.0
 11
-62.104377
 21
142.854226
 31
0.0
  0
LINE
  8
LY_1
  6
CONTINUOUS
 62
   251
  5
A8
 10
-35.699713
 20
125.860293
 30
0.0
 11
-44.250217
 21
149.352609
 31
0.0
  0
LINE
  8
LY_1
  6
CONTINUOUS
 62
   251
  5
A9
 10
-35.699713
 20
125.860293
 30
0.0
 11
-53.553873
 21
119.361911
 31
0.0
  0
LINE
  8
LY_1
  6
CENTER
 62
     7
  5
AA
 10
-40.675564
 20
111.75519
 30
0.0
 11
-59.455702
 21
163.353192
 31
0.0
  0
LINE
  8
LY_1
  6
CENTER
 62
     7
  5
AB
 10
303.000015
 20
163.897857
 30
0.0
 11
303.000015
 21
70.706245
 31
0.0
  0
LINE
  8
LY_1
  6
CONTINUOUS
 62
   251
  5
AC
 10
-54.994119
 20
112.252597
 30
0.0
 11
-55.918794
 21
113.854181
 31
0.0
  0
LINE
  8
LY_1
  6
CONTINUOUS
 62
   251
  5
AD
 10
-69.71655
 20
103.752597
 30
0.0
 11
-70.641225
 21
105.354181
 31
0.0
  0
LINE
  8
LY_1
  6
CENTER
 62
     7
  5
AE
 10
-52.451415
 20
115.856073
 30
0.0
 11
-73.675433
 21
103.602381
 31
0.0
  0
LINE
  8
LY_1
  6
CENTER
 62
     7
  5
AF
 10
-59.997043
 20
103.917916
 30
0.0
 11
-69.143596
 21
119.760211
 31
0.0
  0
LINE
  8
LY_1
  6
CONTINUOUS
 62
   251
  5
B0
 10
419.000015
 20
113.306671
 30
0.0
 11
419.000015
 21
118.104187
 31
0.0
  0
LINE
  8
LY_1
  6
CONTINUOUS
 62
     7
  5
B1
 10
430.030027
 20
114.13972
 30
0.0
 11
423.030014
 21
109.604178
 31
0.0
  0
LINE
  8
LY_1
  6
CONTINUOUS
 62
     7
  5
B2
 10
430.030036
 20
109.604199
 30
0.0
 11
423.030036
 21
114.139732
 31
0.0
  0
LINE
  8
LY_1
  6
CONTINUOUS
 62
     7
  5
B3
 10
423.030024
 20
109.604186
 30
0.0
 11
430.030024
 21
105.068652
 31
0.0
  0
LINE
  8
LY_1
  6
CONTINUOUS
 62
     7
  5
B4
 10
423.030043
 20
105.068661
 30
0.0
 11
430.03003
 21
109.604186
 31
0.0
  0
LINE
  8
LY_1
  6
CONTINUOUS
 62
   251
  5
B5
 10
419.000015
 20
101.104187
 30
0.0
 11
419.000015
 21
105.553467
 31
0.0
  0
LINE
  8
LY_1
  6
CONTINUOUS
 62
   251
  5
B6
 10
419.000015
 20
101.104187
 30
0.0
 11
416.906998
 21
101.104187
 31
0.0
  0
LINE
  8
LY_1
  6
CONTINUOUS
 62
   251
  5
B7
 10
419.000015
 20
118.104187
 30
0.0
 11
416.909572
 21
118.104187
 31
0.0
  0
LINE
  8
LY_1
  6
CONTINUOUS
 62
   251
  5
B8
 10
393.500015
 20
94.881744
 30
0.0
 11
393.500015
 21
96.357875
 31
0.0
  0
LINE
  8
LY_1
  6
CONTINUOUS
 62
   251
  5
B9
 10
423.030014
 20
104.613251
 30
0.0
 11
423.030014
 21
114.595123
 31
0.0
  0
LINE
  8
LY_1
  6
CONTINUOUS
 62
   251
  5
BA
 10
430.030014
 20
105.068665
 30
0.0
 11
430.030014
 21
114.139709
 31
0.0
  0
LINE
  8
LY_1
  6
CONTINUOUS
 62
   251
  5
BB
 10
423.030012
 20
114.595115
 30
0.0
 11
419.000028
 21
114.469178
 31
0.0
  0
LINE
  8
LY_1
  6
CONTINUOUS
 62
   251
  5
BC
 10
430.030014
 20
114.139709
 30
0.0
 11
423.030014
 21
114.139709
 31
0.0
  0
LINE
  8
LY_1
  6
CONTINUOUS
 62
   251
  5
BD
 10
430.030014
 20
105.068665
 30
0.0
 11
423.030014
 21
105.068665
 31
0.0
  0
LINE
  8
LY_1
  6
CONTINUOUS
 62
   251
  5
BE
 10
423.030034
 20
104.613259
 30
0.0
 11
419.000019
 21
104.739197
 31
0.0
  0
LINE
  8
LY_1
  6
CONTINUOUS
 62
   251
  5
BF
 10
403.340285
 20
99.612088
 30
0.0
 11
409.130317
 21
97.483465
 31
0.0
  0
LINE
  8
LY_1
  6
CONTINUOUS
 62
   251
  5
C0
 10
396.869754
 20
97.48346
 30
0.0
 11
402.659815
 21
99.612094
 31
0.0
  0
LINE
  8
LY_1
  6
CONTINUOUS
 62
   251
  5
C1
 10
397.55986
 20
97.606293
 30
0.0
 11
408.440201
 21
97.606293
 31
0.0
  0
LINE
  8
LY_1
  6
CONTINUOUS
 62
   251
  5
C2
 10
410.409796
 20
95.953591
 30
0.0
 11
411.000014
 21
92.606302
 31
0.0
  0
LINE
  8
LY_1
  6
CONTINUOUS
 62
   251
  5
C3
 10
395.000031
 20
92.606286
 30
0.0
 11
395.590254
 21
95.953605
 31
0.0
  0
LINE
  8
LY_1
  6
CENTER
 62
     7
  5
C4
 10
383.244034
 20
109.606293
 30
0.0
 11
432.045792
 21
109.606293
 31
0.0
  0
LINE
  8
LY_1
  6
CENTER
 62
     7
  5
C5
 10
403.000015
 20
129.519424
 30
0.0
 11
403.000015
 21
89.840485
 31
0.0
  0
LINE
  8
LY_1
  6
CONTINUOUS
 62
   251
  5
C6
 10
394.000015
 20
92.5
 30
0.0
 11
412.000015
 21
92.5
 31
0.0
  0
LINE
  8
LY_1
  6
CONTINUOUS
 62
   251
  5
C7
 10
394.000015
 20
-92.499985
 30
0.0
 11
412.0
 21
-92.499985
 31
0.0
  0
LINE
  8
LY_1
  6
CONTINUOUS
 62
   251
  5
C8
 10
412.0
 20
92.5
 30
0.0
 11
412.0
 21
-92.499985
 31
0.0
  0
LINE
  8
LY_1
  6
CENTER
 62
     7
  5
C9
 10
-20.667757
 20
117.212714
 30
0.0
 11
-22.97468
 21
130.295926
 31
0.0
  0
LINE
  8
LY_1
  6
CONTINUOUS
 62
   251
  5
CA
 10
329.000015
 20
88.921356
 30
0.0
 11
329.000015
 21
92.5
 31
0.0
  0
LINE
  8
LY_1
  6
CENTER
 62
     7
  5
CB
 10
0.0
 20
137.0
 30
0.0
 11
0.0
 21
-137.0
 31
0.0
  0
LINE
  8
LY_1
  6
CONTINUOUS
 62
   251
  5
CC
 10
200.0
 20
5.0
 30
0.0
 11
248.0
 21
5.0
 31
0.0
  0
LINE
  8
LY_1
  6
CONTINUOUS
 62
   251
  5
CD
 10
200.0
 20
-5.0
 30
0.0
 11
248.0
 21
-5.0
 31
0.0
  0
LINE
  8
LY_1
  6
CONTINUOUS
 62
   251
  5
CE
 10
255.0
 20
56.78537
 30
0.0
 11
255.0
 21
125.0
 31
0.0
  0
LINE
  8
LY_1
  6
CONTINUOUS
 62
   251
  5
CF
 10
251.0
 20
62.678192
 30
0.0
 11
251.0
 21
90.0
 31
0.0
  0
LINE
  8
LY_1
  6
CONTINUOUS
 62
   251
  5
D0
 10
255.0
 20
22.5
 30
0.0
 11
262.191696
 21
22.5
 31
0.0
  0
LINE
  8
LY_1
  6
CONTINUOUS
 62
   251
  5
D1
 10
255.0
 20
-22.5
 30
0.0
 11
260.34523
 21
-22.5
 31
0.0
  0
LINE
  8
LY_1
  6
CONTINUOUS
 62
   251
  5
D2
 10
255.0
 20
-22.5
 30
0.0
 11
255.0
 21
22.5
 31
0.0
  0
LINE
  8
LY_1
  6
CONTINUOUS
 62
   251
  5
D3
 10
200.0
 20
-19.0
 30
0.0
 11
255.0
 21
-19.0
 31
0.0
  0
LINE
  8
LY_1
  6
CONTINUOUS
 62
   251
  5
D4
 10
200.0
 20
19.0
 30
0.0
 11
255.0
 21
19.0
 31
0.0
  0
LINE
  8
LY_1
  6
CONTINUOUS
 62
   251
  5
D5
 10
251.0
 20
90.0
 30
0.0
 11
255.0
 21
90.0
 31
0.0
  0
LINE
  8
LY_1
  6
CONTINUOUS
 62
   251
  5
D6
 10
251.0
 20
-90.0
 30
0.0
 11
255.0
 21
-90.0
 31
0.0
  0
LINE
  8
LY_1
  6
CONTINUOUS
 62
   251
  5
D7
 10
251.0
 20
-90.0
 30
0.0
 11
251.0
 21
-50.414032
 31
0.0
  0
LINE
  8
LY_1
  6
CONTINUOUS
 62
   251
  5
D8
 10
200.0
 20
-19.0
 30
0.0
 11
200.0
 21
19.0
 31
0.0
  0
LINE
  8
LY_1
  6
CONTINUOUS
 62
   251
  5
D9
 10
255.0
 20
125.0
 30
0.0
 11
273.0
 21
125.0
 31
0.0
  0
LINE
  8
LY_1
  6
CONTINUOUS
 62
   251
  5
DA
 10
255.0
 20
-125.000015
 30
0.0
 11
273.0
 21
-125.000015
 31
0.0
  0
LINE
  8
LY_1
  6
CONTINUOUS
 62
   251
  5
DB
 10
255.0
 20
-125.000015
 30
0.0
 11
255.0
 21
-44.810577
 31
0.0
  0
LINE
  8
LY_1
  6
CENTER
 62
     7
  5
DC
 10
188.0
 20
0.0
 30
0.0
 11
648.79166
 21
0.0
 31
0.0
  0
LINE
  8
LY_1
  6
CONTINUOUS
 62
   251
  5
DD
 10
320.473984
 20
36.263031
 30
0.0
 11
320.473984
 21
-35.44162
 31
0.0
  0
LINE
  8
LY_1
  6
CONTINUOUS
 62
   251
  5
DE
 10
313.26064
 20
73.981481
 30
0.0
 11
314.475981
 21
77.048091
 31
0.0
  0
LINE
  8
LY_1
  6
CONTINUOUS
 62
   251
  5
DF
 10
314.0
 20
64.839752
 30
0.0
 11
327.007828
 21
64.839752
 31
0.0
  0
LINE
  8
LY_1
  6
CONTINUOUS
 62
   251
  5
E0
 10
273.000095
 20
84.141912
 30
0.0
 11
310.826945
 21
72.802744
 31
0.0
  0
LINE
  8
LY_1
  6
CONTINUOUS
 62
   251
  5
E1
 10
272.999924
 20
77.321779
 30
0.0
 11
314.000014
 21
64.839728
 31
0.0
  0
LINE
  8
LY_1
  6
CONTINUOUS
 62
   251
  5
E2
 10
272.999858
 20
-84.14145
 30
0.0
 11
328.999887
 21
-65.467032
 31
0.0
  0
LINE
  8
LY_1
  6
CONTINUOUS
 62
   251
  5
E3
 10
272.999916
 20
-77.321755
 30
0.0
 11
328.999939
 21
-58.647371
 31
0.0
  0
LINE
  8
LY_1
  6
CONTINUOUS
 62
   251
  5
E4
 10
320.474036
 20
-39.877427
 30
0.0
 11
329.000026
 21
-44.195823
 31
0.0
  0
LINE
  8
LY_1
  6
CONTINUOUS
 62
   251
  5
E5
 10
273.0
 20
-39.877563
 30
0.0
 11
320.474014
 21
-39.877563
 31
0.0
  0
LINE
  8
LY_1
  6
CONTINUOUS
 62
   251
  5
E6
 10
320.473919
 20
39.877735
 30
0.0
 11
328.999923
 21
44.196137
 31
0.0
  0
LINE
  8
LY_1
  6
CONTINUOUS
 62
   251
  5
E7
 10
273.0
 20
39.877594
 30
0.0
 11
320.474014
 21
39.877594
 31
0.0
  0
LINE
  8
LY_1
  6
CONTINUOUS
 62
   251
  5
E8
 10
329.000015
 20
-92.5
 30
0.0
 11
344.000015
 21
-92.5
 31
0.0
  0
LINE
  8
LY_1
  6
CONTINUOUS
 62
   251
  5
E9
 10
329.000015
 20
-92.5
 30
0.0
 11
329.000015
 21
62.014099
 31
0.0
  0
LINE
  8
LY_1
  6
CONTINUOUS
 62
   251
  5
EA
 10
273.0
 20
-125.000015
 30
0.0
 11
273.0
 21
125.0
 31
0.0
  0
LINE
  8
LY_1
  6
CONTINUOUS
 62
   251
  5
EB
 10
344.000015
 20
92.5
 30
0.0
 11
344.000015
 21
-92.5
 31
0.0
  0
LINE
  8
LY_1
  6
CENTER
 62
     7
  5
EC
 10
137.0
 20
0.0
 30
0.0
 11
-137.0
 21
0.0
 31
0.0
  0
LINE
  8
LY_1
  6
CONTINUOUS
 62
   251
  5
ED
 10
14.0
 20
5.0
 30
0.0
 11
14.0
 21
-5.0
 31
0.0
  0
LINE
  8
LY_1
  6
CONTINUOUS
 62
   251
  5
EE
 10
14.0
 20
5.0
 30
0.0
 11
22.0
 21
5.0
 31
0.0
  0
LINE
  8
LY_1
  6
CONTINUOUS
 62
   251
  5
EF
 10
14.0
 20
-5.0
 30
0.0
 11
22.0
 21
-5.0
 31
0.0
  0
LINE
  8
LY_1
  6
CONTINUOUS
 62
   251
  5
F0
 10
329.000015
 20
92.5
 30
0.0
 11
344.000015
 21
92.5
 31
0.0
  0
LINE
  8
LY_1
  6
CONTINUOUS
 62
   251
  5
F1
 10
394.000015
 20
92.5
 30
0.0
 11
394.000015
 21
-92.5
 31
0.0
  0
ENDSEC
  0
EOF
