  0
SECTION
  2
HEADER
  9
$ACADVER
  1
AC1009
  9
$DWGCODEPAGE
  3
dos932
  9
$INSBASE
 10
0.0
 20
0.0
 30
0.0
  9
$EXTMIN
 10
-109.999939
 20
-109.999947
 30
0.0
  9
$EXTMAX
 10
579.632367
 20
131.375916
 30
0.0
  9
$LIMMIN
 10
-109.999939
 20
-109.999947
  9
$LIMMAX
 10
579.632367
 20
131.375916
  9
$ORTHOMODE
 70
     0
  9
$REGENMODE
 70
     1
  9
$FILLMODE
 70
     1
  9
$QTEXTMODE
 70
     0
  9
$MIRRTEXT
 70
     1
  9
$DRAGMODE
 70
     2
  9
$LTSCALE
 40
1.0
  9
$OSMODE
 70
     0
  9
$ATTMODE
 70
     1
  9
$TEXTSIZE
 40
3.15
  9
$TRACEWID
 40
0.05
  9
$TEXTSTYLE
  7
MX_NOTE_STANDARD
  9
$CLAYER
  8
LY_1
  9
$CELTYPE
  6
CONTINUOUS
  9
$CECOLOR
 62
   256
  9
$DIMSCALE
 40
1.0
  9
$DIMASZ
 40
2.5
  9
$DIMEXO
 40
1.0
  9
$DIMDLI
 40
3.75
  9
$DIMRND
 40
0.0
  9
$DIMDLE
 40
0.0
  9
$DIMEXE
 40
1.5
  9
$DIMTP
 40
0.0
  9
$DIMTM
 40
0.0
  9
$DIMTXT
 40
3.15
  9
$DIMCEN
 40
2.5
  9
$DIMTSZ
 40
0.0
  9
$DIMTOL
 70
     0
  9
$DIMLIM
 70
     0
  9
$DIMTIH
 70
     0
  9
$DIMTOH
 70
     0
  9
$DIMSE1
 70
     0
  9
$DIMSE2
 70
     0
  9
$DIMTAD
 70
     1
  9
$DIMZIN
 70
     8
  9
$DIMBLK
  1

  9
$DIMASO
 70
     1
  9
$DIMSHO
 70
     1
  9
$DIMPOST
  1

  9
$DIMAPOST
  1

  9
$DIMALT
 70
     0
  9
$DIMALTD
 70
     4
  9
$DIMALTF
 40
0.03937
  9
$DIMLFAC
 40
1.0
  9
$DIMTOFL
 70
     1
  9
$DIMTVP
 40
0.0
  9
$DIMTIX
 70
     0
  9
$DIMSOXD
 70
     0
  9
$DIMSAH
 70
     0
  9
$DIMBLK1
  1

  9
$DIMBLK2
  1

  9
$DIMSTYLE
  2
MXDIMSTYLE
  9
$DIMCLRD
 70
     0
  9
$DIMCLRE
 70
     0
  9
$DIMCLRT
 70
     0
  9
$DIMTFAC
 40
1.0
  9
$DIMGAP
 40
1.0
  9
$LUNITS
 70
     2
  9
$LUPREC
 70
     4
  9
$AXISMODE
 70
     0
  9
$AXISUNIT
 10
0.0
 20
0.0
  9
$SKETCHINC
 40
0.1
  9
$FILLETRAD
 40
0.0
  9
$AUNITS
 70
     0
  9
$AUPREC
 70
     0
  9
$MENU
  1
acad
  9
$ELEVATION
 40
0.0
  9
$PELEVATION
 40
0.0
  9
$THICKNESS
 40
0.0
  9
$LIMCHECK
 70
     0
  9
$BLIPMODE
 70
     1
  9
$CHAMFERA
 40
0.0
  9
$CHAMFERB
 40
0.0
  9
$SKPOLY
 70
     0
  9
$TDCREATE
 40
2453665.670127315
  9
$TDUPDATE
 40
2453665.670127315
  9
$TDINDWG
 40
0.0000000000
  9
$TDUSRTIMER
 40
0.0000000000
  9
$USRTIMER
 70
     1
  9
$ANGBASE
 50
0.0
  9
$ANGDIR
 70
     0
  9
$PDMODE
 70
     0
  9
$PDSIZE
 40
0.0
  9
$PLINEWID
 40
0.0
  9
$COORDS
 70
     1
  9
$SPLFRAME
 70
     0
  9
$SPLINETYPE
 70
     6
  9
$SPLINESEGS
 70
     8
  9
$ATTDIA
 70
     0
  9
$ATTREQ
 70
     1
  9
$HANDLING
 70
     1
  9
$HANDSEED
  5
1F8
  9
$SURFTAB1
 70
     6
  9
$SURFTAB2
 70
     6
  9
$SURFTYPE
 70
     6
  9
$SURFU
 70
     6
  9
$SURFV
 70
     6
  9
$UCSNAME
  2

  9
$UCSORG
 10
0.0
 20
0.0
 30
0.0
  9
$UCSXDIR
 10
1.0
 20
0.0
 30
0.0
  9
$UCSYDIR
 10
0.0
 20
1.0
 30
0.0
  9
$PUCSNAME
  2

  9
$PUCSORG
 10
0.0
 20
0.0
 30
0.0
  9
$PUCSXDIR
 10
1.0
 20
0.0
 30
0.0
  9
$PUCSYDIR
 10
0.0
 20
1.0
 30
0.0
  9
$USERI1
 70
     0
  9
$USERI2
 70
     0
  9
$USERI3
 70
     0
  9
$USERI4
 70
     0
  9
$USERI5
 70
     0
  9
$USERR1
 40
0.0
  9
$USERR2
 40
0.0
  9
$USERR3
 40
0.0
  9
$USERR4
 40
0.0
  9
$USERR5
 40
0.0
  9
$WORLDVIEW
 70
     1
  9
$SHADEDGE
 70
     3
  9
$SHADEDIF
 70
    70
  9
$TILEMODE
 70
     1
  9
$MAXACTVP
 70
    16
  9
$PINSBASE
 10
0.0
 20
0.0
 30
0.0
  9
$PLIMCHECK
 70
     0
  9
$PEXTMIN
 10
1.000000E+20
 20
1.000000E+20
 30
1.000000E+20
  9
$PEXTMAX
 10
-1.000000E+20
 20
-1.000000E+20
 30
-1.000000E+20
  9
$PLIMMIN
 10
0.0
 20
0.0
  9
$PLIMMAX
 10
12.0
 20
9.0
  9
$UNITMODE
 70
     0
  9
$VISRETAIN
 70
     0
  9
$PLINEGEN
 70
     1
  9
$PSLTSCALE
 70
     0
  9
$TREEDEPTH
 70
  3020
  9
$DWGCODEPAGE
  3
dos932
  0
ENDSEC
  0
SECTION
  2
TABLES
  0
TABLE
  2
VPORT
 70
     1
  0
VPORT
  2
*ACTIVE
 70
     0
 10
0.0
 20
0.0
 11
1.0
 21
1.0
 12
234.816214
 22
10.687984
 13
0.0
 23
0.0
 14
1.0
 24
1.0
 15
0.0
 25
0.0
 16
0.0
 26
0.0
 36
1.0
 17
0.0
 27
0.0
 37
0.0
 40
243.789621
 41
1.732051
 42
50.0
 43
0.0
 44
0.0
 50
0.0
 51
0.0
 71
     0
 72
   100
 73
     1
 74
     1
 75
     0
 76
     0
 77
     0
 78
     0
  0
ENDTAB
  0
TABLE
  2
LTYPE
 70
     2
  0
LTYPE
  2
CONTINUOUS
 70
    64
  3
Solid line
 72
    65
 73
     0
 40
0.0
  0
LTYPE
  2
CENTER
 70
    64
  3
Center ____ _ ____ _ ____ _ ____ _ ____ _ ____
 72
    65
 73
     4
 40
50.8
 49
31.75
 49
-6.35
 49
6.35
 49
-6.35
  0
ENDTAB
  0
TABLE
  2
LAYER
 70
     3
  0
LAYER
  2
0
 70
     0
 62
     7
  6
CONTINUOUS
  0
LAYER
  2
LY_1
 70
     0
 62
     7
  6
CONTINUOUS
  0
LAYER
  2
DEFPOINTS
 70
     0
 62
     7
  6
CONTINUOUS
  0
ENDTAB
  0
TABLE
  2
STYLE
 70
     1
  0
STYLE
  2
MX_NOTE_STANDARD
 70
     0
 40
0.0
 41
1.0
 50
0.0
 71
     0
 42
3.15
  3
txt.shx
  4
extfont.shx
  0
ENDTAB
  0
TABLE
  2
VIEW
 70
     0
  0
ENDTAB
  0
TABLE
  2
UCS
 70
     0
  0
ENDTAB
  0
TABLE
  2
APPID
 70
     1
  0
APPID
  2
ACAD
 70
     0
  0
ENDTAB
  0
TABLE
  2
DIMSTYLE
 70
     1
  0
DIMSTYLE
  2
MXDIMSTYLE
 70
     0
  3

  4

  5

  6

  7

 40
1.0
 41
2.5
 42
1.0
 43
3.75
 44
1.5
 45
0.0
 46
0.0
 47
0.0
 48
0.0
 71
     0
 72
     0
 73
     0
 74
     0
 75
     0
 76
     0
 77
     1
 78
     8
140
3.15
141
2.5
142
0.0
143
0.03937
144
1.0
145
0.0
146
1.0
147
1.0
170
     0
171
     4
172
     1
173
     0
174
     0
175
     0
176
     0
177
     0
178
     0
  0
ENDTAB
  0
ENDSEC
  0
SECTION
  2
BLOCKS
  0
ENDSEC
  0
SECTION
  2
ENTITIES
  0
LINE
  8
LY_1
  6
CONTINUOUS
 62
   251
  5
1F
 10
486.9
 20
92.00012
 30
0.0
 11
486.9
 21
110.00012
 31
0.0
  0
LINE
  8
LY_1
  6
CONTINUOUS
 62
   251
  5
20
 10
486.90006
 20
110.00018
 30
0.0
 11
485.90006
 21
111.00017
 31
0.0
  0
LINE
  8
LY_1
  6
CONTINUOUS
 62
   251
  5
21
 10
485.9
 20
111.00011
 30
0.0
 11
453.10001
 21
111.00011
 31
0.0
  0
LINE
  8
LY_1
  6
CONTINUOUS
 62
   251
  5
22
 10
453.10013
 20
111.0
 30
0.0
 11
452.1001
 21
109.99997
 31
0.0
  0
LINE
  8
LY_1
  6
CONTINUOUS
 62
   251
  5
23
 10
452.10001
 20
110.00012
 30
0.0
 11
452.10001
 21
92.00012
 31
0.0
  0
LINE
  8
LY_1
  6
CONTINUOUS
 62
   251
  5
24
 10
452.10001
 20
92.00012
 30
0.0
 11
452.10001
 21
95.00012
 31
0.0
  0
LINE
  8
LY_1
  6
CONTINUOUS
 62
   251
  5
25
 10
448.99997
 20
88.20013
 30
0.0
 11
448.99997
 21
92.00012
 31
0.0
  0
LINE
  8
LY_1
  6
CONTINUOUS
 62
   251
  5
26
 10
448.99997
 20
92.00011
 30
0.0
 11
489.99997
 21
92.00011
 31
0.0
  0
LINE
  8
LY_1
  6
CONTINUOUS
 62
   251
  5
27
 10
489.99997
 20
92.00012
 30
0.0
 11
489.99997
 21
88.20013
 31
0.0
  0
LINE
  8
LY_1
  6
CONTINUOUS
 62
   251
  5
28
 10
447.0001
 20
88.19919
 30
0.0
 11
491.99997
 21
88.19919
 31
0.0
  0
LINE
  8
LY_1
  6
CONTINUOUS
 62
   251
  5
29
 10
491.99997
 20
65.02216
 30
0.0
 11
491.99997
 21
88.20013
 31
0.0
  0
LINE
  8
LY_1
  6
CONTINUOUS
 62
   251
  5
2A
 10
436.99997
 20
65.99998
 30
0.0
 11
436.99997
 21
64.99998
 31
0.0
  0
LINE
  8
LY_1
  6
CENTER
 62
     7
  5
2C
 10
469.49997
 20
117.94022
 30
0.0
 11
469.49997
 21
81.06567
 31
0.0
  0
LINE
  8
LY_1
  6
CONTINUOUS
 62
   251
  5
2D
 10
493.79996
 20
-65.0
 30
0.0
 11
493.79996
 21
64.99998
 31
0.0
  0
LINE
  8
LY_1
  6
CONTINUOUS
 62
   251
  5
2E
 10
498.29996
 20
64.99998
 30
0.0
 11
498.29996
 21
-65.0
 31
0.0
  0
LINE
  8
LY_1
  6
CONTINUOUS
 62
   251
  5
2F
 10
409.0
 20
-65.0
 30
0.0
 11
409.0
 21
64.99998
 31
0.0
  0
LINE
  8
LY_1
  6
CONTINUOUS
 62
   251
  5
30
 10
405.0
 20
64.99998
 30
0.0
 11
405.0
 21
-65.0
 31
0.0
  0
LINE
  8
LY_1
  6
CONTINUOUS
 62
   251
  5
31
 10
409.0
 20
28.0
 30
0.0
 11
493.79996
 21
28.0
 31
0.0
  0
LINE
  8
LY_1
  6
CONTINUOUS
 62
   251
  5
32
 10
409.0
 20
25.0
 30
0.0
 11
493.79996
 21
25.0
 31
0.0
  0
LINE
  8
LY_1
  6
CONTINUOUS
 62
   251
  5
33
 10
409.0
 20
22.0
 30
0.0
 11
493.79996
 21
22.0
 31
0.0
  0
LINE
  8
LY_1
  6
CONTINUOUS
 62
   251
  5
34
 10
409.0
 20
19.0
 30
0.0
 11
493.79996
 21
19.0
 31
0.0
  0
LINE
  8
LY_1
  6
CONTINUOUS
 62
   251
  5
35
 10
409.0
 20
-19.0
 30
0.0
 11
493.79996
 21
-19.0
 31
0.0
  0
LINE
  8
LY_1
  6
CONTINUOUS
 62
   251
  5
36
 10
409.0
 20
-22.0
 30
0.0
 11
493.79996
 21
-22.0
 31
0.0
  0
LINE
  8
LY_1
  6
CONTINUOUS
 62
   251
  5
37
 10
409.0
 20
-25.0
 30
0.0
 11
493.79996
 21
-25.0
 31
0.0
  0
LINE
  8
LY_1
  6
CONTINUOUS
 62
   251
  5
38
 10
409.0
 20
-28.0
 30
0.0
 11
493.79996
 21
-28.0
 31
0.0
  0
LINE
  8
LY_1
  6
CONTINUOUS
 62
   251
  5
39
 10
566.29996
 20
62.19998
 30
0.0
 11
566.29996
 21
80.49997
 31
0.0
  0
LINE
  8
LY_1
  6
CONTINUOUS
 62
   251
  5
3A
 10
566.30002
 20
80.49998
 30
0.0
 11
565.30002
 21
81.49997
 31
0.0
  0
LINE
  8
LY_1
  6
CONTINUOUS
 62
   251
  5
3B
 10
565.29996
 20
81.49997
 30
0.0
 11
537.69999
 21
81.49997
 31
0.0
  0
LINE
  8
LY_1
  6
CONTINUOUS
 62
   251
  5
3C
 10
537.70002
 20
81.49994
 30
0.0
 11
536.70002
 21
80.49994
 31
0.0
  0
LINE
  8
LY_1
  6
CONTINUOUS
 62
   251
  5
3D
 10
536.69999
 20
80.49997
 30
0.0
 11
536.69999
 21
62.19998
 31
0.0
  0
LINE
  8
LY_1
  6
CENTER
 62
     7
  5
3E
 10
551.49997
 20
54.9408
 30
0.0
 11
551.49997
 21
88.24274
 31
0.0
  0
LINE
  8
LY_1
  6
CONTINUOUS
 62
   251
  5
3F
 10
532.44999
 20
58.39998
 30
0.0
 11
532.44999
 21
62.19998
 31
0.0
  0
LINE
  8
LY_1
  6
CONTINUOUS
 62
   251
  5
40
 10
532.44999
 20
62.19998
 30
0.0
 11
570.54996
 21
62.19998
 31
0.0
  0
LINE
  8
LY_1
  6
CONTINUOUS
 62
   251
  5
41
 10
570.54996
 20
62.19998
 30
0.0
 11
570.54996
 21
58.39998
 31
0.0
  0
LINE
  8
LY_1
  6
CONTINUOUS
 62
   251
  5
42
 10
526.29996
 20
-64.0
 30
0.0
 11
526.29996
 21
63.99998
 31
0.0
  0
LINE
  8
LY_1
  6
CONTINUOUS
 62
   251
  5
43
 10
526.29996
 20
-27.50369
 30
0.0
 11
544.49997
 21
-27.50369
 31
0.0
  0
LINE
  8
LY_1
  6
CONTINUOUS
 62
   251
  5
44
 10
544.5
 20
-40.03479
 30
0.0
 11
568.85587
 21
-39.18427
 31
0.0
  0
LINE
  8
LY_1
  6
CONTINUOUS
 62
   251
  5
45
 10
544.49997
 20
-42.5
 30
0.0
 11
405.0
 21
-42.5
 31
0.0
  0
LINE
  8
LY_1
  6
CONTINUOUS
 62
   251
  5
46
 10
544.49997
 20
-42.5
 30
0.0
 11
544.49997
 21
42.5
 31
0.0
  0
LINE
  8
LY_1
  6
CONTINUOUS
 62
   251
  5
47
 10
544.49997
 20
27.50345
 30
0.0
 11
526.29996
 21
27.50345
 31
0.0
  0
LINE
  8
LY_1
  6
CONTINUOUS
 62
   251
  5
48
 10
570.99997
 20
58.39998
 30
0.0
 11
531.99997
 21
58.39998
 31
0.0
  0
LINE
  8
LY_1
  6
CONTINUOUS
 62
   251
  5
49
 10
531.99997
 20
58.39998
 30
0.0
 11
531.99997
 21
42.5
 31
0.0
  0
LINE
  8
LY_1
  6
CONTINUOUS
 62
   251
  5
4A
 10
570.99997
 20
58.39998
 30
0.0
 11
570.99997
 21
-30.0
 31
0.0
  0
LINE
  8
LY_1
  6
CONTINUOUS
 62
   251
  5
4B
 10
544.49997
 20
34.34738
 30
0.0
 11
570.99997
 21
34.34738
 31
0.0
  0
LINE
  8
LY_1
  6
CONTINUOUS
 62
   251
  5
4C
 10
544.49997
 20
42.5
 30
0.0
 11
405.0
 21
42.5
 31
0.0
  0
LINE
  8
LY_1
  6
CONTINUOUS
 62
   251
  5
4D
 10
538.49997
 20
-42.5
 30
0.0
 11
538.49997
 21
42.5
 31
0.0
  0
LINE
  8
LY_1
  6
CONTINUOUS
 62
   251
  5
4E
 10
531.49997
 20
-42.5
 30
0.0
 11
531.49997
 21
42.5
 31
0.0
  0
ARC
  8
LY_1
  6
CONTINUOUS
 62
   251
  5
4F
 10
525.29996
 20
63.99998
 30
0.0
 40
1.0
 50
359.99998
 51
90.00003
  0
ARC
  8
LY_1
  6
CONTINUOUS
 62
   251
  5
50
 10
525.29996
 20
-64.0
 30
0.0
 40
1.0
 50
269.999982
 51
359.99996
  0
ARC
  8
LY_1
  6
CONTINUOUS
 62
   251
  5
51
 10
540.95182
 20
-29.99307
 30
0.0
 40
30.048155
 50
343.61989
 51
359.9868
  0
ARC
  8
LY_1
  6
CONTINUOUS
 62
   251
  5
52
 10
568.82096
 20
-38.18491
 30
0.0
 40
1.0
 50
272.000742
 51
343.61965
  0
ARC
  8
LY_1
  6
CONTINUOUS
 62
   251
  5
53
 10
495.56778
 20
52.96881
 30
0.0
 40
60.0
 50
144.04333
 51
167.45615
  0
LINE
  8
LY_1
  6
CONTINUOUS
 62
   251
  5
54
 10
525.29996
 20
-65.0
 30
0.0
 11
393.0
 21
-65.0
 31
0.0
  0
LINE
  8
LY_1
  6
CONTINUOUS
 62
   251
  5
55
 10
393.0
 20
64.99998
 30
0.0
 11
525.29996
 21
64.99998
 31
0.0
  0
LINE
  8
LY_1
  6
CONTINUOUS
 62
   251
  5
56
 10
393.0
 20
-50.80603
 30
0.0
 11
405.0
 21
-50.80603
 31
0.0
  0
LINE
  8
LY_1
  6
CONTINUOUS
 62
   251
  5
57
 10
393.0
 20
50.80597
 30
0.0
 11
405.0
 21
50.80597
 31
0.0
  0
LINE
  8
LY_1
  6
CONTINUOUS
 62
   251
  5
58
 10
17.40002
 20
98.474562
 30
0.0
 11
17.40002
 21
109.99998
 31
0.0
  0
LINE
  8
LY_1
  6
CONTINUOUS
 62
   251
  5
59
 10
17.40002
 20
109.99997
 30
0.0
 11
16.40002
 21
110.99997
 31
0.0
  0
LINE
  8
LY_1
  6
CONTINUOUS
 62
   251
  5
5A
 10
16.40002
 20
110.99998
 30
0.0
 11
-16.40002
 21
110.99998
 31
0.0
  0
LINE
  8
LY_1
  6
CONTINUOUS
 62
   251
  5
5B
 10
-16.39996
 20
110.99997
 30
0.0
 11
-17.40002
 21
109.99995
 31
0.0
  0
LINE
  8
LY_1
  6
CONTINUOUS
 62
   251
  5
5C
 10
-17.40002
 20
109.99998
 30
0.0
 11
-17.40002
 21
106.159692
 31
0.0
  0
LINE
  8
LY_1
  6
CONTINUOUS
 62
   251
  5
5D
 10
-44.794429
 20
123.071547
 30
0.0
 11
-42.05829
 21
115.554068
 31
0.0
  0
LINE
  8
LY_1
  6
CONTINUOUS
 62
   251
  5
5E
 10
332.029991
 20
92.283678
 30
0.0
 11
339.030011
 21
92.283689
 31
0.0
  0
ARC
  8
LY_1
  6
CENTER
 62
     7
  5
5F
 10
0.0
 20
0.0
 30
0.0
 40
82.5
 50
351.636443
 51
8.363644
  0
CIRCLE
  8
LY_1
  6
CONTINUOUS
 62
   251
  5
60
 10
82.5
 20
0.0
 30
0.0
 40
6.0
  0
ARC
  8
LY_1
  6
CENTER
 62
     7
  5
61
 10
0.0
 20
0.0
 30
0.0
 40
82.5
 50
261.636443
 51
278.363644
  0
CIRCLE
  8
LY_1
  6
CONTINUOUS
 62
   251
  5
62
 10
0.0
 20
-82.5
 30
0.0
 40
6.0
  0
ARC
  8
LY_1
  6
CENTER
 62
     7
  5
63
 10
0.0
 20
0.0
 30
0.0
 40
82.5
 50
171.636443
 51
188.363644
  0
CIRCLE
  8
LY_1
  6
CONTINUOUS
 62
   251
  5
64
 10
-82.5
 20
0.0
 30
0.0
 40
6.0
  0
POLYLINE
  8
LY_1
  6
CONTINUOUS
 62
   251
  5
65
 66
     1
 10
0.0
 20
0.0
 30
0.0
  0
VERTEX
  8
LY_1
  6
CONTINUOUS
 62
   251
  5
FC
 10
237.75
 20
115.554005
 30
0.0
  0
VERTEX
  8
LY_1
  6
CONTINUOUS
 62
   251
  5
FD
 10
237.692253
 20
115.854714
 30
0.0
  0
VERTEX
  8
LY_1
  6
CONTINUOUS
 62
   251
  5
FE
 10
237.519999
 20
116.150279
 30
0.0
  0
VERTEX
  8
LY_1
  6
CONTINUOUS
 62
   251
  5
FF
 10
237.236187
 20
116.43564
 30
0.0
  0
VERTEX
  8
LY_1
  6
CONTINUOUS
 62
   251
  5
100
 10
236.845671
 20
116.705917
 30
0.0
  0
VERTEX
  8
LY_1
  6
CONTINUOUS
 62
   251
  5
101
 10
236.355135
 20
116.956485
 30
0.0
  0
VERTEX
  8
LY_1
  6
CONTINUOUS
 62
   251
  5
102
 10
235.772971
 20
117.183055
 30
0.0
  0
VERTEX
  8
LY_1
  6
CONTINUOUS
 62
   251
  5
103
 10
235.10914
 20
117.381752
 30
0.0
  0
VERTEX
  8
LY_1
  6
CONTINUOUS
 62
   251
  5
104
 10
234.375
 20
117.549176
 30
0.0
  0
VERTEX
  8
LY_1
  6
CONTINUOUS
 62
   251
  5
105
 10
233.583113
 20
117.682462
 30
0.0
  0
VERTEX
  8
LY_1
  6
CONTINUOUS
 62
   251
  5
106
 10
232.747029
 20
117.779329
 30
0.0
  0
VERTEX
  8
LY_1
  6
CONTINUOUS
 62
   251
  5
107
 10
231.881052
 20
117.838121
 30
0.0
  0
VERTEX
  8
LY_1
  6
CONTINUOUS
 62
   251
  5
108
 10
231.0
 20
117.85783
 30
0.0
  0
VERTEX
  8
LY_1
  6
CONTINUOUS
 62
   251
  5
109
 10
230.118948
 20
117.838121
 30
0.0
  0
VERTEX
  8
LY_1
  6
CONTINUOUS
 62
   251
  5
10A
 10
229.252971
 20
117.779329
 30
0.0
  0
VERTEX
  8
LY_1
  6
CONTINUOUS
 62
   251
  5
10B
 10
228.416887
 20
117.682462
 30
0.0
  0
VERTEX
  8
LY_1
  6
CONTINUOUS
 62
   251
  5
10C
 10
227.625
 20
117.549176
 30
0.0
  0
VERTEX
  8
LY_1
  6
CONTINUOUS
 62
   251
  5
10D
 10
226.89086
 20
117.381752
 30
0.0
  0
VERTEX
  8
LY_1
  6
CONTINUOUS
 62
   251
  5
10E
 10
226.227029
 20
117.183055
 30
0.0
  0
VERTEX
  8
LY_1
  6
CONTINUOUS
 62
   251
  5
10F
 10
225.644865
 20
116.956485
 30
0.0
  0
VERTEX
  8
LY_1
  6
CONTINUOUS
 62
   251
  5
110
 10
225.154329
 20
116.705917
 30
0.0
  0
VERTEX
  8
LY_1
  6
CONTINUOUS
 62
   251
  5
111
 10
224.763813
 20
116.43564
 30
0.0
  0
VERTEX
  8
LY_1
  6
CONTINUOUS
 62
   251
  5
112
 10
224.480001
 20
116.150279
 30
0.0
  0
VERTEX
  8
LY_1
  6
CONTINUOUS
 62
   251
  5
113
 10
224.307747
 20
115.854714
 30
0.0
  0
VERTEX
  8
LY_1
  6
CONTINUOUS
 62
   251
  5
114
 10
224.25
 20
115.554005
 30
0.0
  0
SEQEND
  8
LY_1
  6
CONTINUOUS
 62
   251
  5
115
  0
POLYLINE
  8
LY_1
  6
CONTINUOUS
 62
   251
  5
66
 66
     1
 10
0.0
 20
0.0
 30
0.0
  0
VERTEX
  8
LY_1
  6
CONTINUOUS
 62
   251
  5
116
 10
237.899994
 20
87.372623
 30
0.0
  0
VERTEX
  8
LY_1
  6
CONTINUOUS
 62
   251
  5
117
 10
237.840963
 20
87.680657
 30
0.0
  0
VERTEX
  8
LY_1
  6
CONTINUOUS
 62
   251
  5
118
 10
237.664882
 20
87.983421
 30
0.0
  0
VERTEX
  8
LY_1
  6
CONTINUOUS
 62
   251
  5
119
 10
237.374763
 20
88.275733
 30
0.0
  0
VERTEX
  8
LY_1
  6
CONTINUOUS
 62
   251
  5
11A
 10
236.97557
 20
88.552593
 30
0.0
  0
VERTEX
  8
LY_1
  6
CONTINUOUS
 62
   251
  5
11B
 10
236.474133
 20
88.809264
 30
0.0
  0
VERTEX
  8
LY_1
  6
CONTINUOUS
 62
   251
  5
11C
 10
235.879032
 20
89.041353
 30
0.0
  0
VERTEX
  8
LY_1
  6
CONTINUOUS
 62
   251
  5
11D
 10
235.20045
 20
89.244889
 30
0.0
  0
VERTEX
  8
LY_1
  6
CONTINUOUS
 62
   251
  5
11E
 10
234.449997
 20
89.416391
 30
0.0
  0
VERTEX
  8
LY_1
  6
CONTINUOUS
 62
   251
  5
11F
 10
233.640513
 20
89.552923
 30
0.0
  0
VERTEX
  8
LY_1
  6
CONTINUOUS
 62
   251
  5
120
 10
232.78585
 20
89.65215
 30
0.0
  0
VERTEX
  8
LY_1
  6
CONTINUOUS
 62
   251
  5
121
 10
231.90063
 20
89.712373
 30
0.0
  0
VERTEX
  8
LY_1
  6
CONTINUOUS
 62
   251
  5
122
 10
231.0
 20
89.732563
 30
0.0
  0
VERTEX
  8
LY_1
  6
CONTINUOUS
 62
   251
  5
123
 10
230.09937
 20
89.712373
 30
0.0
  0
VERTEX
  8
LY_1
  6
CONTINUOUS
 62
   251
  5
124
 10
229.21415
 20
89.65215
 30
0.0
  0
VERTEX
  8
LY_1
  6
CONTINUOUS
 62
   251
  5
125
 10
228.359487
 20
89.552923
 30
0.0
  0
VERTEX
  8
LY_1
  6
CONTINUOUS
 62
   251
  5
126
 10
227.550003
 20
89.416391
 30
0.0
  0
VERTEX
  8
LY_1
  6
CONTINUOUS
 62
   251
  5
127
 10
226.79955
 20
89.244889
 30
0.0
  0
VERTEX
  8
LY_1
  6
CONTINUOUS
 62
   251
  5
128
 10
226.120968
 20
89.041353
 30
0.0
  0
VERTEX
  8
LY_1
  6
CONTINUOUS
 62
   251
  5
129
 10
225.525867
 20
88.809264
 30
0.0
  0
VERTEX
  8
LY_1
  6
CONTINUOUS
 62
   251
  5
12A
 10
225.02443
 20
88.552593
 30
0.0
  0
VERTEX
  8
LY_1
  6
CONTINUOUS
 62
   251
  5
12B
 10
224.625237
 20
88.275733
 30
0.0
  0
VERTEX
  8
LY_1
  6
CONTINUOUS
 62
   251
  5
12C
 10
224.335118
 20
87.983421
 30
0.0
  0
VERTEX
  8
LY_1
  6
CONTINUOUS
 62
   251
  5
12D
 10
224.159037
 20
87.680657
 30
0.0
  0
VERTEX
  8
LY_1
  6
CONTINUOUS
 62
   251
  5
12E
 10
224.100006
 20
87.372623
 30
0.0
  0
SEQEND
  8
LY_1
  6
CONTINUOUS
 62
   251
  5
12F
  0
POLYLINE
  8
LY_1
  6
CONTINUOUS
 62
   251
  5
67
 66
     1
 10
0.0
 20
0.0
 30
0.0
  0
VERTEX
  8
LY_1
  6
CONTINUOUS
 62
   251
  5
130
 10
237.900365
 20
85.139387
 30
0.0
  0
VERTEX
  8
LY_1
  6
CONTINUOUS
 62
   251
  5
131
 10
238.866428
 20
85.550927
 30
0.0
  0
VERTEX
  8
LY_1
  6
CONTINUOUS
 62
   251
  5
132
 10
239.624946
 20
86.010528
 30
0.0
  0
VERTEX
  8
LY_1
  6
CONTINUOUS
 62
   251
  5
133
 10
240.155909
 20
86.506067
 30
0.0
  0
VERTEX
  8
LY_1
  6
CONTINUOUS
 62
   251
  5
134
 10
240.445306
 20
87.024469
 30
0.0
  0
VERTEX
  8
LY_1
  6
CONTINUOUS
 62
   251
  5
135
 10
240.485503
 20
87.552056
 30
0.0
  0
VERTEX
  8
LY_1
  6
CONTINUOUS
 62
   251
  5
136
 10
240.275439
 20
88.074908
 30
0.0
  0
VERTEX
  8
LY_1
  6
CONTINUOUS
 62
   251
  5
137
 10
239.820657
 20
88.579233
 30
0.0
  0
VERTEX
  8
LY_1
  6
CONTINUOUS
 62
   251
  5
138
 10
239.133155
 20
89.051722
 30
0.0
  0
VERTEX
  8
LY_1
  6
CONTINUOUS
 62
   251
  5
139
 10
238.231072
 20
89.479912
 30
0.0
  0
VERTEX
  8
LY_1
  6
CONTINUOUS
 62
   251
  5
13A
 10
237.138208
 20
89.852503
 30
0.0
  0
VERTEX
  8
LY_1
  6
CONTINUOUS
 62
   251
  5
13B
 10
235.883396
 20
90.159667
 30
0.0
  0
VERTEX
  8
LY_1
  6
CONTINUOUS
 62
   251
  5
13C
 10
234.499744
 20
90.393298
 30
0.0
  0
VERTEX
  8
LY_1
  6
CONTINUOUS
 62
   251
  5
13D
 10
233.023756
 20
90.547234
 30
0.0
  0
VERTEX
  8
LY_1
  6
CONTINUOUS
 62
   251
  5
13E
 10
231.494374
 20
90.617412
 30
0.0
  0
VERTEX
  8
LY_1
  6
CONTINUOUS
 62
   251
  5
13F
 10
229.951948
 20
90.601982
 30
0.0
  0
VERTEX
  8
LY_1
  6
CONTINUOUS
 62
   251
  5
140
 10
228.437174
 20
90.501349
 30
0.0
  0
VERTEX
  8
LY_1
  6
CONTINUOUS
 62
   251
  5
141
 10
226.990017
 20
90.31817
 30
0.0
  0
VERTEX
  8
LY_1
  6
CONTINUOUS
 62
   251
  5
142
 10
225.648656
 20
90.057277
 30
0.0
  0
VERTEX
  8
LY_1
  6
CONTINUOUS
 62
   251
  5
143
 10
224.448483
 20
89.725554
 30
0.0
  0
VERTEX
  8
LY_1
  6
CONTINUOUS
 62
   251
  5
144
 10
223.421162
 20
89.331752
 30
0.0
  0
VERTEX
  8
LY_1
  6
CONTINUOUS
 62
   251
  5
145
 10
222.593797
 20
88.886261
 30
0.0
  0
VERTEX
  8
LY_1
  6
CONTINUOUS
 62
   251
  5
146
 10
221.988218
 20
88.400835
 30
0.0
  0
VERTEX
  8
LY_1
  6
CONTINUOUS
 62
   251
  5
147
 10
221.6204
 20
87.888282
 30
0.0
  0
VERTEX
  8
LY_1
  6
CONTINUOUS
 62
   251
  5
148
 10
221.50005
 20
87.362123
 30
0.0
  0
VERTEX
  8
LY_1
  6
CONTINUOUS
 62
   251
  5
149
 10
221.630341
 20
86.836242
 30
0.0
  0
VERTEX
  8
LY_1
  6
CONTINUOUS
 62
   251
  5
14A
 10
222.007837
 20
86.324512
 30
0.0
  0
VERTEX
  8
LY_1
  6
CONTINUOUS
 62
   251
  5
14B
 10
222.622577
 20
85.840435
 30
0.0
  0
VERTEX
  8
LY_1
  6
CONTINUOUS
 62
   251
  5
14C
 10
223.458343
 20
85.396782
 30
0.0
  0
VERTEX
  8
LY_1
  6
CONTINUOUS
 62
   251
  5
14D
 10
223.768928
 20
85.265335
 30
0.0
  0
VERTEX
  8
LY_1
  6
CONTINUOUS
 62
   251
  5
14E
 10
224.099076
 20
85.139589
 30
0.0
  0
SEQEND
  8
LY_1
  6
CONTINUOUS
 62
   251
  5
14F
  0
POLYLINE
  8
LY_1
  6
CONTINUOUS
 62
   251
  5
68
 66
     1
 10
0.0
 20
0.0
 30
0.0
  0
VERTEX
  8
LY_1
  6
CONTINUOUS
 62
   251
  5
150
 10
240.5
 20
110.864937
 30
0.0
  0
VERTEX
  8
LY_1
  6
CONTINUOUS
 62
   251
  5
151
 10
240.418726
 20
111.289041
 30
0.0
  0
VERTEX
  8
LY_1
  6
CONTINUOUS
 62
   251
  5
152
 10
240.176295
 20
111.705889
 30
0.0
  0
VERTEX
  8
LY_1
  6
CONTINUOUS
 62
   251
  5
153
 10
239.776856
 20
112.108349
 30
0.0
  0
VERTEX
  8
LY_1
  6
CONTINUOUS
 62
   251
  5
154
 10
239.227241
 20
112.489532
 30
0.0
  0
VERTEX
  8
LY_1
  6
CONTINUOUS
 62
   251
  5
155
 10
238.536857
 20
112.842919
 30
0.0
  0
VERTEX
  8
LY_1
  6
CONTINUOUS
 62
   251
  5
156
 10
237.717514
 20
113.162462
 30
0.0
  0
VERTEX
  8
LY_1
  6
CONTINUOUS
 62
   251
  5
157
 10
236.783234
 20
113.442694
 30
0.0
  0
VERTEX
  8
LY_1
  6
CONTINUOUS
 62
   251
  5
158
 10
235.75
 20
113.678819
 30
0.0
  0
VERTEX
  8
LY_1
  6
CONTINUOUS
 62
   251
  5
159
 10
234.635493
 20
113.866798
 30
0.0
  0
VERTEX
  8
LY_1
  6
CONTINUOUS
 62
   251
  5
15A
 10
233.458781
 20
114.003415
 30
0.0
  0
VERTEX
  8
LY_1
  6
CONTINUOUS
 62
   251
  5
15B
 10
232.239999
 20
114.086331
 30
0.0
  0
VERTEX
  8
LY_1
  6
CONTINUOUS
 62
   251
  5
15C
 10
231.0
 20
114.114128
 30
0.0
  0
VERTEX
  8
LY_1
  6
CONTINUOUS
 62
   251
  5
15D
 10
229.760001
 20
114.086331
 30
0.0
  0
VERTEX
  8
LY_1
  6
CONTINUOUS
 62
   251
  5
15E
 10
228.541219
 20
114.003415
 30
0.0
  0
VERTEX
  8
LY_1
  6
CONTINUOUS
 62
   251
  5
15F
 10
227.364507
 20
113.866798
 30
0.0
  0
VERTEX
  8
LY_1
  6
CONTINUOUS
 62
   251
  5
160
 10
226.25
 20
113.678819
 30
0.0
  0
VERTEX
  8
LY_1
  6
CONTINUOUS
 62
   251
  5
161
 10
225.216766
 20
113.442694
 30
0.0
  0
VERTEX
  8
LY_1
  6
CONTINUOUS
 62
   251
  5
162
 10
224.282486
 20
113.162462
 30
0.0
  0
VERTEX
  8
LY_1
  6
CONTINUOUS
 62
   251
  5
163
 10
223.463143
 20
112.842919
 30
0.0
  0
VERTEX
  8
LY_1
  6
CONTINUOUS
 62
   251
  5
164
 10
222.772759
 20
112.489532
 30
0.0
  0
VERTEX
  8
LY_1
  6
CONTINUOUS
 62
   251
  5
165
 10
222.223144
 20
112.108349
 30
0.0
  0
VERTEX
  8
LY_1
  6
CONTINUOUS
 62
   251
  5
166
 10
221.823705
 20
111.705889
 30
0.0
  0
VERTEX
  8
LY_1
  6
CONTINUOUS
 62
   251
  5
167
 10
221.581274
 20
111.289041
 30
0.0
  0
VERTEX
  8
LY_1
  6
CONTINUOUS
 62
   251
  5
168
 10
221.5
 20
110.864937
 30
0.0
  0
SEQEND
  8
LY_1
  6
CONTINUOUS
 62
   251
  5
169
  0
POLYLINE
  8
LY_1
  6
CONTINUOUS
 62
     7
  5
69
 66
     1
 10
0.0
 20
0.0
 30
0.0
  0
VERTEX
  8
LY_1
  6
CONTINUOUS
 62
     7
  5
16A
 10
186.000336
 20
52.84555
 30
0.0
  0
VERTEX
  8
LY_1
  6
CONTINUOUS
 62
     7
  5
16B
 10
186.428851
 20
52.442342
 30
0.0
  0
VERTEX
  8
LY_1
  6
CONTINUOUS
 62
     7
  5
16C
 10
186.851459
 20
52.032594
 30
0.0
  0
VERTEX
  8
LY_1
  6
CONTINUOUS
 62
     7
  5
16D
 10
187.267544
 20
51.616375
 30
0.0
  0
VERTEX
  8
LY_1
  6
CONTINUOUS
 62
     7
  5
16E
 10
187.676494
 20
51.193759
 30
0.0
  0
VERTEX
  8
LY_1
  6
CONTINUOUS
 62
     7
  5
16F
 10
188.077694
 20
50.764817
 30
0.0
  0
VERTEX
  8
LY_1
  6
CONTINUOUS
 62
     7
  5
170
 10
188.47053
 20
50.32962
 30
0.0
  0
VERTEX
  8
LY_1
  6
CONTINUOUS
 62
     7
  5
171
 10
188.85439
 20
49.888241
 30
0.0
  0
VERTEX
  8
LY_1
  6
CONTINUOUS
 62
     7
  5
172
 10
189.228657
 20
49.440751
 30
0.0
  0
VERTEX
  8
LY_1
  6
CONTINUOUS
 62
     7
  5
173
 10
189.59272
 20
48.987222
 30
0.0
  0
VERTEX
  8
LY_1
  6
CONTINUOUS
 62
     7
  5
174
 10
189.945964
 20
48.527725
 30
0.0
  0
VERTEX
  8
LY_1
  6
CONTINUOUS
 62
     7
  5
175
 10
190.287775
 20
48.062333
 30
0.0
  0
VERTEX
  8
LY_1
  6
CONTINUOUS
 62
     7
  5
176
 10
190.617539
 20
47.591116
 30
0.0
  0
VERTEX
  8
LY_1
  6
CONTINUOUS
 62
     7
  5
177
 10
190.934642
 20
47.114147
 30
0.0
  0
VERTEX
  8
LY_1
  6
CONTINUOUS
 62
     7
  5
178
 10
191.23847
 20
46.631498
 30
0.0
  0
VERTEX
  8
LY_1
  6
CONTINUOUS
 62
     7
  5
179
 10
191.528411
 20
46.14324
 30
0.0
  0
VERTEX
  8
LY_1
  6
CONTINUOUS
 62
     7
  5
17A
 10
191.803848
 20
45.649445
 30
0.0
  0
VERTEX
  8
LY_1
  6
CONTINUOUS
 62
     7
  5
17B
 10
192.227642
 20
44.818791
 30
0.0
  0
VERTEX
  8
LY_1
  6
CONTINUOUS
 62
     7
  5
17C
 10
192.611468
 20
43.973743
 30
0.0
  0
VERTEX
  8
LY_1
  6
CONTINUOUS
 62
     7
  5
17D
 10
192.956913
 20
43.114931
 30
0.0
  0
VERTEX
  8
LY_1
  6
CONTINUOUS
 62
     7
  5
17E
 10
193.265563
 20
42.242984
 30
0.0
  0
VERTEX
  8
LY_1
  6
CONTINUOUS
 62
     7
  5
17F
 10
193.539002
 20
41.358531
 30
0.0
  0
VERTEX
  8
LY_1
  6
CONTINUOUS
 62
     7
  5
180
 10
193.778818
 20
40.462202
 30
0.0
  0
VERTEX
  8
LY_1
  6
CONTINUOUS
 62
     7
  5
181
 10
193.986594
 20
39.554627
 30
0.0
  0
VERTEX
  8
LY_1
  6
CONTINUOUS
 62
     7
  5
182
 10
194.163917
 20
38.636435
 30
0.0
  0
VERTEX
  8
LY_1
  6
CONTINUOUS
 62
     7
  5
183
 10
194.312372
 20
37.708256
 30
0.0
  0
VERTEX
  8
LY_1
  6
CONTINUOUS
 62
     7
  5
184
 10
194.433545
 20
36.770718
 30
0.0
  0
VERTEX
  8
LY_1
  6
CONTINUOUS
 62
     7
  5
185
 10
194.529022
 20
35.824452
 30
0.0
  0
VERTEX
  8
LY_1
  6
CONTINUOUS
 62
     7
  5
186
 10
194.600388
 20
34.870087
 30
0.0
  0
VERTEX
  8
LY_1
  6
CONTINUOUS
 62
     7
  5
187
 10
194.649228
 20
33.908253
 30
0.0
  0
VERTEX
  8
LY_1
  6
CONTINUOUS
 62
     7
  5
188
 10
194.677129
 20
32.939579
 30
0.0
  0
VERTEX
  8
LY_1
  6
CONTINUOUS
 62
     7
  5
189
 10
194.685676
 20
31.964694
 30
0.0
  0
VERTEX
  8
LY_1
  6
CONTINUOUS
 62
     7
  5
18A
 10
194.676454
 20
30.984229
 30
0.0
  0
VERTEX
  8
LY_1
  6
CONTINUOUS
 62
     7
  5
18B
 10
194.651049
 20
29.998812
 30
0.0
  0
VERTEX
  8
LY_1
  6
CONTINUOUS
 62
     7
  5
18C
 10
194.611047
 20
29.009073
 30
0.0
  0
VERTEX
  8
LY_1
  6
CONTINUOUS
 62
     7
  5
18D
 10
194.558032
 20
28.015642
 30
0.0
  0
VERTEX
  8
LY_1
  6
CONTINUOUS
 62
     7
  5
18E
 10
194.493592
 20
27.019147
 30
0.0
  0
VERTEX
  8
LY_1
  6
CONTINUOUS
 62
     7
  5
18F
 10
194.419311
 20
26.02022
 30
0.0
  0
VERTEX
  8
LY_1
  6
CONTINUOUS
 62
     7
  5
190
 10
194.336775
 20
25.019488
 30
0.0
  0
VERTEX
  8
LY_1
  6
CONTINUOUS
 62
     7
  5
191
 10
194.24757
 20
24.017583
 30
0.0
  0
VERTEX
  8
LY_1
  6
CONTINUOUS
 62
     7
  5
192
 10
194.153281
 20
23.015132
 30
0.0
  0
VERTEX
  8
LY_1
  6
CONTINUOUS
 62
     7
  5
193
 10
194.055493
 20
22.012766
 30
0.0
  0
VERTEX
  8
LY_1
  6
CONTINUOUS
 62
     7
  5
194
 10
193.955793
 20
21.011114
 30
0.0
  0
VERTEX
  8
LY_1
  6
CONTINUOUS
 62
     7
  5
195
 10
193.855766
 20
20.010806
 30
0.0
  0
VERTEX
  8
LY_1
  6
CONTINUOUS
 62
     7
  5
196
 10
193.756997
 20
19.012471
 30
0.0
  0
VERTEX
  8
LY_1
  6
CONTINUOUS
 62
     7
  5
197
 10
193.661073
 20
18.016739
 30
0.0
  0
VERTEX
  8
LY_1
  6
CONTINUOUS
 62
     7
  5
198
 10
193.569578
 20
17.024238
 30
0.0
  0
VERTEX
  8
LY_1
  6
CONTINUOUS
 62
     7
  5
199
 10
193.484098
 20
16.0356
 30
0.0
  0
VERTEX
  8
LY_1
  6
CONTINUOUS
 62
     7
  5
19A
 10
193.406219
 20
15.051453
 30
0.0
  0
VERTEX
  8
LY_1
  6
CONTINUOUS
 62
     7
  5
19B
 10
193.34309
 20
14.159783
 30
0.0
  0
VERTEX
  8
LY_1
  6
CONTINUOUS
 62
     7
  5
19C
 10
193.287715
 20
13.272078
 30
0.0
  0
VERTEX
  8
LY_1
  6
CONTINUOUS
 62
     7
  5
19D
 10
193.240239
 20
12.388058
 30
0.0
  0
VERTEX
  8
LY_1
  6
CONTINUOUS
 62
     7
  5
19E
 10
193.200802
 20
11.507444
 30
0.0
  0
VERTEX
  8
LY_1
  6
CONTINUOUS
 62
     7
  5
19F
 10
193.169546
 20
10.629956
 30
0.0
  0
VERTEX
  8
LY_1
  6
CONTINUOUS
 62
     7
  5
1A0
 10
193.146613
 20
9.755314
 30
0.0
  0
VERTEX
  8
LY_1
  6
CONTINUOUS
 62
     7
  5
1A1
 10
193.132145
 20
8.88324
 30
0.0
  0
VERTEX
  8
LY_1
  6
CONTINUOUS
 62
     7
  5
1A2
 10
193.126282
 20
8.013453
 30
0.0
  0
VERTEX
  8
LY_1
  6
CONTINUOUS
 62
     7
  5
1A3
 10
193.129168
 20
7.145674
 30
0.0
  0
VERTEX
  8
LY_1
  6
CONTINUOUS
 62
     7
  5
1A4
 10
193.140944
 20
6.279623
 30
0.0
  0
VERTEX
  8
LY_1
  6
CONTINUOUS
 62
     7
  5
1A5
 10
193.161751
 20
5.415021
 30
0.0
  0
VERTEX
  8
LY_1
  6
CONTINUOUS
 62
     7
  5
1A6
 10
193.191731
 20
4.551588
 30
0.0
  0
VERTEX
  8
LY_1
  6
CONTINUOUS
 62
     7
  5
1A7
 10
193.231027
 20
3.689045
 30
0.0
  0
VERTEX
  8
LY_1
  6
CONTINUOUS
 62
     7
  5
1A8
 10
193.279779
 20
2.827112
 30
0.0
  0
VERTEX
  8
LY_1
  6
CONTINUOUS
 62
     7
  5
1A9
 10
193.338129
 20
1.965509
 30
0.0
  0
VERTEX
  8
LY_1
  6
CONTINUOUS
 62
     7
  5
1AA
 10
193.406219
 20
1.103958
 30
0.0
  0
VERTEX
  8
LY_1
  6
CONTINUOUS
 62
     7
  5
1AB
 10
193.479715
 20
0.285801
 30
0.0
  0
VERTEX
  8
LY_1
  6
CONTINUOUS
 62
     7
  5
1AC
 10
193.56048
 20
-0.532678
 30
0.0
  0
VERTEX
  8
LY_1
  6
CONTINUOUS
 62
     7
  5
1AD
 10
193.646876
 20
-1.351593
 30
0.0
  0
VERTEX
  8
LY_1
  6
CONTINUOUS
 62
     7
  5
1AE
 10
193.737265
 20
-2.17106
 30
0.0
  0
VERTEX
  8
LY_1
  6
CONTINUOUS
 62
     7
  5
1AF
 10
193.830009
 20
-2.991194
 30
0.0
  0
VERTEX
  8
LY_1
  6
CONTINUOUS
 62
     7
  5
1B0
 10
193.92347
 20
-3.81211
 30
0.0
  0
VERTEX
  8
LY_1
  6
CONTINUOUS
 62
     7
  5
1B1
 10
194.016009
 20
-4.633924
 30
0.0
  0
VERTEX
  8
LY_1
  6
CONTINUOUS
 62
     7
  5
1B2
 10
194.105989
 20
-5.45675
 30
0.0
  0
VERTEX
  8
LY_1
  6
CONTINUOUS
 62
     7
  5
1B3
 10
194.191771
 20
-6.280704
 30
0.0
  0
VERTEX
  8
LY_1
  6
CONTINUOUS
 62
     7
  5
1B4
 10
194.271718
 20
-7.105901
 30
0.0
  0
VERTEX
  8
LY_1
  6
CONTINUOUS
 62
     7
  5
1B5
 10
194.34419
 20
-7.932457
 30
0.0
  0
VERTEX
  8
LY_1
  6
CONTINUOUS
 62
     7
  5
1B6
 10
194.407551
 20
-8.760486
 30
0.0
  0
VERTEX
  8
LY_1
  6
CONTINUOUS
 62
     7
  5
1B7
 10
194.460161
 20
-9.590105
 30
0.0
  0
VERTEX
  8
LY_1
  6
CONTINUOUS
 62
     7
  5
1B8
 10
194.500383
 20
-10.421427
 30
0.0
  0
VERTEX
  8
LY_1
  6
CONTINUOUS
 62
     7
  5
1B9
 10
194.526579
 20
-11.254569
 30
0.0
  0
VERTEX
  8
LY_1
  6
CONTINUOUS
 62
     7
  5
1BA
 10
194.537109
 20
-12.089645
 30
0.0
  0
VERTEX
  8
LY_1
  6
CONTINUOUS
 62
     7
  5
1BB
 10
194.530664
 20
-12.916684
 30
0.0
  0
VERTEX
  8
LY_1
  6
CONTINUOUS
 62
     7
  5
1BC
 10
194.506575
 20
-13.744758
 30
0.0
  0
VERTEX
  8
LY_1
  6
CONTINUOUS
 62
     7
  5
1BD
 10
194.464096
 20
-14.572905
 30
0.0
  0
VERTEX
  8
LY_1
  6
CONTINUOUS
 62
     7
  5
1BE
 10
194.402479
 20
-15.400158
 30
0.0
  0
VERTEX
  8
LY_1
  6
CONTINUOUS
 62
     7
  5
1BF
 10
194.320978
 20
-16.225554
 30
0.0
  0
VERTEX
  8
LY_1
  6
CONTINUOUS
 62
     7
  5
1C0
 10
194.218844
 20
-17.048125
 30
0.0
  0
VERTEX
  8
LY_1
  6
CONTINUOUS
 62
     7
  5
1C1
 10
194.095332
 20
-17.866909
 30
0.0
  0
VERTEX
  8
LY_1
  6
CONTINUOUS
 62
     7
  5
1C2
 10
193.949693
 20
-18.680939
 30
0.0
  0
VERTEX
  8
LY_1
  6
CONTINUOUS
 62
     7
  5
1C3
 10
193.781181
 20
-19.489251
 30
0.0
  0
VERTEX
  8
LY_1
  6
CONTINUOUS
 62
     7
  5
1C4
 10
193.589048
 20
-20.29088
 30
0.0
  0
VERTEX
  8
LY_1
  6
CONTINUOUS
 62
     7
  5
1C5
 10
193.372547
 20
-21.084861
 30
0.0
  0
VERTEX
  8
LY_1
  6
CONTINUOUS
 62
     7
  5
1C6
 10
193.130932
 20
-21.870228
 30
0.0
  0
VERTEX
  8
LY_1
  6
CONTINUOUS
 62
     7
  5
1C7
 10
192.863454
 20
-22.646017
 30
0.0
  0
VERTEX
  8
LY_1
  6
CONTINUOUS
 62
     7
  5
1C8
 10
192.569367
 20
-23.411263
 30
0.0
  0
VERTEX
  8
LY_1
  6
CONTINUOUS
 62
     7
  5
1C9
 10
192.247924
 20
-24.165001
 30
0.0
  0
VERTEX
  8
LY_1
  6
CONTINUOUS
 62
     7
  5
1CA
 10
191.898376
 20
-24.906265
 30
0.0
  0
VERTEX
  8
LY_1
  6
CONTINUOUS
 62
     7
  5
1CB
 10
191.623317
 20
-25.442483
 30
0.0
  0
VERTEX
  8
LY_1
  6
CONTINUOUS
 62
     7
  5
1CC
 10
191.333227
 20
-25.971275
 30
0.0
  0
VERTEX
  8
LY_1
  6
CONTINUOUS
 62
     7
  5
1CD
 10
191.028652
 20
-26.492473
 30
0.0
  0
VERTEX
  8
LY_1
  6
CONTINUOUS
 62
     7
  5
1CE
 10
190.710141
 20
-27.005908
 30
0.0
  0
VERTEX
  8
LY_1
  6
CONTINUOUS
 62
     7
  5
1CF
 10
190.378239
 20
-27.51141
 30
0.0
  0
VERTEX
  8
LY_1
  6
CONTINUOUS
 62
     7
  5
1D0
 10
190.033494
 20
-28.00881
 30
0.0
  0
VERTEX
  8
LY_1
  6
CONTINUOUS
 62
     7
  5
1D1
 10
189.676452
 20
-28.49794
 30
0.0
  0
VERTEX
  8
LY_1
  6
CONTINUOUS
 62
     7
  5
1D2
 10
189.307662
 20
-28.978629
 30
0.0
  0
VERTEX
  8
LY_1
  6
CONTINUOUS
 62
     7
  5
1D3
 10
188.927669
 20
-29.450709
 30
0.0
  0
VERTEX
  8
LY_1
  6
CONTINUOUS
 62
     7
  5
1D4
 10
188.53702
 20
-29.91401
 30
0.0
  0
VERTEX
  8
LY_1
  6
CONTINUOUS
 62
     7
  5
1D5
 10
188.136264
 20
-30.368364
 30
0.0
  0
VERTEX
  8
LY_1
  6
CONTINUOUS
 62
     7
  5
1D6
 10
187.725946
 20
-30.813601
 30
0.0
  0
VERTEX
  8
LY_1
  6
CONTINUOUS
 62
     7
  5
1D7
 10
187.306614
 20
-31.249553
 30
0.0
  0
VERTEX
  8
LY_1
  6
CONTINUOUS
 62
     7
  5
1D8
 10
186.878814
 20
-31.676049
 30
0.0
  0
VERTEX
  8
LY_1
  6
CONTINUOUS
 62
     7
  5
1D9
 10
186.443094
 20
-32.092921
 30
0.0
  0
VERTEX
  8
LY_1
  6
CONTINUOUS
 62
     7
  5
1DA
 10
186.0
 20
-32.5
 30
0.0
  0
SEQEND
  8
LY_1
  6
CONTINUOUS
 62
     7
  5
1DB
  0
POLYLINE
  8
LY_1
  6
CONTINUOUS
 62
   251
  5
6A
 66
     1
 10
0.0
 20
0.0
 30
0.0
  0
VERTEX
  8
LY_1
  6
CONTINUOUS
 62
   251
  5
1DC
 10
248.0
 20
67.992142
 30
0.0
  0
VERTEX
  8
LY_1
  6
CONTINUOUS
 62
   251
  5
1DD
 10
246.042107
 20
67.908263
 30
0.0
  0
VERTEX
  8
LY_1
  6
CONTINUOUS
 62
   251
  5
1DE
 10
244.117714
 20
67.658061
 30
0.0
  0
VERTEX
  8
LY_1
  6
CONTINUOUS
 62
   251
  5
1DF
 10
242.259749
 20
67.245818
 30
0.0
  0
VERTEX
  8
LY_1
  6
CONTINUOUS
 62
   251
  5
1E0
 10
240.5
 20
66.678587
 30
0.0
  0
VERTEX
  8
LY_1
  6
CONTINUOUS
 62
   251
  5
1E1
 10
238.868579
 20
65.966074
 30
0.0
  0
VERTEX
  8
LY_1
  6
CONTINUOUS
 62
   251
  5
1E2
 10
237.393398
 20
65.120469
 30
0.0
  0
VERTEX
  8
LY_1
  6
CONTINUOUS
 62
   251
  5
1E3
 10
236.0997
 20
64.156241
 30
0.0
  0
VERTEX
  8
LY_1
  6
CONTINUOUS
 62
   251
  5
1E4
 10
235.009619
 20
63.08989
 30
0.0
  0
VERTEX
  8
LY_1
  6
CONTINUOUS
 62
   251
  5
1E5
 10
234.141807
 20
61.939659
 30
0.0
  0
VERTEX
  8
LY_1
  6
CONTINUOUS
 62
   251
  5
1E6
 10
233.511113
 20
60.72523
 30
0.0
  0
VERTEX
  8
LY_1
  6
CONTINUOUS
 62
   251
  5
1E7
 10
233.128327
 20
59.467382
 30
0.0
  0
VERTEX
  8
LY_1
  6
CONTINUOUS
 62
   251
  5
1E8
 10
233.0
 20
58.187637
 30
0.0
  0
VERTEX
  8
LY_1
  6
CONTINUOUS
 62
   251
  5
1E9
 10
233.128327
 20
56.907893
 30
0.0
  0
VERTEX
  8
LY_1
  6
CONTINUOUS
 62
   251
  5
1EA
 10
233.511113
 20
55.650045
 30
0.0
  0
VERTEX
  8
LY_1
  6
CONTINUOUS
 62
   251
  5
1EB
 10
234.141807
 20
54.435616
 30
0.0
  0
VERTEX
  8
LY_1
  6
CONTINUOUS
 62
   251
  5
1EC
 10
235.009619
 20
53.285385
 30
0.0
  0
VERTEX
  8
LY_1
  6
CONTINUOUS
 62
   251
  5
1ED
 10
236.0997
 20
52.219033
 30
0.0
  0
VERTEX
  8
LY_1
  6
CONTINUOUS
 62
   251
  5
1EE
 10
237.393398
 20
51.254806
 30
0.0
  0
VERTEX
  8
LY_1
  6
CONTINUOUS
 62
   251
  5
1EF
 10
238.868579
 20
50.409201
 30
0.0
  0
VERTEX
  8
LY_1
  6
CONTINUOUS
 62
   251
  5
1F0
 10
240.5
 20
49.696687
 30
0.0
  0
VERTEX
  8
LY_1
  6
CONTINUOUS
 62
   251
  5
1F1
 10
242.259749
 20
49.129456
 30
0.0
  0
VERTEX
  8
LY_1
  6
CONTINUOUS
 62
   251
  5
1F2
 10
244.117714
 20
48.717213
 30
0.0
  0
VERTEX
  8
LY_1
  6
CONTINUOUS
 62
   251
  5
1F3
 10
246.042107
 20
48.467012
 30
0.0
  0
VERTEX
  8
LY_1
  6
CONTINUOUS
 62
   251
  5
1F4
 10
248.0
 20
48.383133
 30
0.0
  0
VERTEX
  8
LY_1
  6
CONTINUOUS
 62
   251
  5
1F5
 10
248.0
 20
48.383133
 30
0.0
  0
SEQEND
  8
LY_1
  6
CONTINUOUS
 62
   251
  5
1F6
  0
ARC
  8
LY_1
  6
CONTINUOUS
 62
   251
  5
6B
 10
323.0
 20
-52.0
 30
0.0
 40
5.0
 50
90.000003
 51
180.000005
  0
ARC
  8
LY_1
  6
CONTINUOUS
 62
   251
  5
6C
 10
374.0
 20
-52.0
 30
0.0
 40
5.0
 50
0.0
 51
90.000003
  0
ARC
  8
LY_1
  6
CONTINUOUS
 62
   251
  5
6D
 10
374.0
 20
52.0
 30
0.0
 40
5.0
 50
269.999997
 51
0.0
  0
ARC
  8
LY_1
  6
CONTINUOUS
 62
   251
  5
6E
 10
323.0
 20
52.0
 30
0.0
 40
5.0
 50
179.999991
 51
270.000001
  0
CIRCLE
  8
LY_1
  6
CONTINUOUS
 62
   251
  5
6F
 10
294.0
 20
0.0
 30
0.0
 40
4.990937
  0
ARC
  8
LY_1
  6
CONTINUOUS
 62
   251
  5
70
 10
-18.180786
 20
103.107986
 30
0.0
 40
3.15
 50
10.0
 51
190.000003
  0
ARC
  8
LY_1
  6
CONTINUOUS
 62
   251
  5
71
 10
319.5
 20
83.783672
 30
0.0
 40
17.0
 50
111.221045
 51
177.213836
  0
ARC
  8
LY_1
  6
CONTINUOUS
 62
   251
  5
72
 10
-53.28006
 20
92.283672
 30
0.0
 40
8.5
 50
30.000001
 51
209.999999
  0
ARC
  8
LY_1
  6
CONTINUOUS
 62
   251
  5
73
 10
0.0
 20
0.0
 30
0.0
 40
14.0
 50
16.60155
 51
343.39845
  0
CIRCLE
  8
LY_1
  6
CONTINUOUS
 62
   251
  5
74
 10
0.0
 20
0.0
 30
0.0
 40
60.0
  0
ARC
  8
LY_1
  6
CENTER
 62
     7
  5
75
 10
0.0
 20
0.0
 30
0.0
 40
82.5
 50
81.636443
 51
98.363644
  0
CIRCLE
  8
LY_1
  6
CONTINUOUS
 62
   251
  5
76
 10
0.0
 20
82.5
 30
0.0
 40
6.0
  0
CIRCLE
  8
LY_1
  6
CONTINUOUS
 62
   251
  5
77
 10
0.0
 20
0.0
 30
0.0
 40
65.0
  0
CIRCLE
  8
LY_1
  6
CONTINUOUS
 62
   251
  5
78
 10
0.0
 20
0.0
 30
0.0
 40
100.0
  0
ARC
  8
LY_1
  6
CONTINUOUS
 62
   251
  5
79
 10
322.956787
 20
73.505104
 30
0.0
 40
4.0
 50
126.08644
 51
188.554038
  0
ARC
  8
LY_1
  6
CONTINUOUS
 62
   251
  5
7A
 10
299.043213
 20
73.505104
 30
0.0
 40
4.0
 50
351.445928
 51
53.913579
  0
ARC
  8
LY_1
  6
CONTINUOUS
 62
   251
  5
7B
 10
316.440155
 20
75.910133
 30
0.0
 40
2.0
 50
10.000004
 51
89.999982
  0
ARC
  8
LY_1
  6
CONTINUOUS
 62
   251
  5
7C
 10
305.559845
 20
75.910133
 30
0.0
 40
2.0
 50
89.999982
 51
170.000021
  0
CIRCLE
  8
LY_1
  6
CONTINUOUS
 62
   251
  5
7D
 10
311.0
 20
89.910133
 30
0.0
 40
10.0
  0
ARC
  8
LY_1
  6
CONTINUOUS
 62
   251
  5
7E
 10
311.0
 20
89.910133
 30
0.0
 40
16.299999
 50
306.086414
 51
233.913543
  0
ARC
  8
LY_1
  6
CONTINUOUS
 62
   251
  5
7F
 10
184.0
 20
0.0
 30
0.0
 40
4.0
 50
269.999997
 51
90.000003
  0
ARC
  8
LY_1
  6
CONTINUOUS
 62
   251
  5
80
 10
230.102554
 20
57.353043
 30
0.0
 40
2.0
 50
245.556567
 51
339.386001
  0
ARC
  8
LY_1
  6
CONTINUOUS
 62
   251
  5
81
 10
243.0
 20
-40.211441
 30
0.0
 40
8.0
 50
0.0
 51
90.000003
  0
ARC
  8
LY_1
  6
CONTINUOUS
 62
   251
  5
82
 10
243.0
 20
38.467316
 30
0.0
 40
8.0
 50
269.999997
 51
0.0
  0
ARC
  8
LY_1
  6
CONTINUOUS
 62
   251
  5
83
 10
214.0
 20
-42.211441
 30
0.0
 40
10.0
 50
90.000003
 51
180.000005
  0
ARC
  8
LY_1
  6
CONTINUOUS
 62
   251
  5
84
 10
214.0
 20
40.467316
 30
0.0
 40
10.0
 50
179.999991
 51
270.000001
  0
LINE
  8
LY_1
  6
CONTINUOUS
 62
   251
  5
85
 10
182.0
 20
4.0
 30
0.0
 11
182.0
 21
-4.0
 31
0.0
  0
LINE
  8
LY_1
  6
CONTINUOUS
 62
   251
  5
86
 10
17.0
 20
4.0
 30
0.0
 11
17.0
 21
-4.0
 31
0.0
  0
LINE
  8
LY_1
  6
CONTINUOUS
 62
   251
  5
87
 10
323.0
 20
-47.0
 30
0.0
 11
374.0
 21
-47.0
 31
0.0
  0
LINE
  8
LY_1
  6
CONTINUOUS
 62
   251
  5
88
 10
323.0
 20
47.0
 30
0.0
 11
374.0
 21
47.0
 31
0.0
  0
LINE
  8
LY_1
  6
CONTINUOUS
 62
   251
  5
89
 10
379.0
 20
-65.0
 30
0.0
 11
379.0
 21
65.0
 31
0.0
  0
LINE
  8
LY_1
  6
CONTINUOUS
 62
   251
  5
8A
 10
393.0
 20
-65.0
 30
0.0
 11
393.0
 21
65.0
 31
0.0
  0
LINE
  8
LY_1
  6
CONTINUOUS
 62
   251
  5
8B
 10
379.0
 20
-65.0
 30
0.0
 11
393.0
 21
-65.0
 31
0.0
  0
LINE
  8
LY_1
  6
CONTINUOUS
 62
   251
  5
8C
 10
379.0
 20
65.0
 30
0.0
 11
393.0
 21
65.0
 31
0.0
  0
LINE
  8
LY_1
  6
CENTER
 62
     7
  5
8D
 10
294.0
 20
6.990936
 30
0.0
 11
294.0
 21
-6.990936
 31
0.0
  0
LINE
  8
LY_1
  6
CONTINUOUS
 62
   251
  5
8E
 10
298.949749
 20
0.000004
 30
0.0
 11
294.000001
 21
4.949751
 31
0.0
  0
LINE
  8
LY_1
  6
CONTINUOUS
 62
   251
  5
8F
 10
294.000008
 20
-4.949744
 30
0.0
 11
298.949756
 21
0.000002
 31
0.0
  0
LINE
  8
LY_1
  6
CONTINUOUS
 62
   251
  5
90
 10
289.050248
 20
-0.000008
 30
0.0
 11
293.999996
 21
-4.949754
 31
0.0
  0
LINE
  8
LY_1
  6
CONTINUOUS
 62
   251
  5
91
 10
294.00001
 20
4.949751
 30
0.0
 11
289.050261
 21
0.000004
 31
0.0
  0
LINE
  8
LY_1
  6
CONTINUOUS
 62
   251
  5
92
 10
282.0
 20
72.5
 30
0.0
 11
282.0
 21
-72.5
 31
0.0
  0
LINE
  8
LY_1
  6
CONTINUOUS
 62
   251
  5
93
 10
263.0
 20
-72.5
 30
0.0
 11
303.0
 21
-72.5
 31
0.0
  0
LINE
  8
LY_1
  6
CONTINUOUS
 62
   251
  5
94
 10
263.0
 20
72.5
 30
0.0
 11
303.0
 21
72.5
 31
0.0
  0
LINE
  8
LY_1
  6
CONTINUOUS
 62
   251
  5
95
 10
263.0
 20
72.5
 30
0.0
 11
263.0
 21
-72.5
 31
0.0
  0
LINE
  8
LY_1
  6
CONTINUOUS
 62
   251
  5
96
 10
303.0
 20
-72.5
 30
0.0
 11
318.0
 21
-72.5
 31
0.0
  0
LINE
  8
LY_1
  6
CONTINUOUS
 62
   251
  5
97
 10
-14.254096
 20
98.978892
 30
0.0
 11
-15.078617
 21
103.654986
 31
0.0
  0
LINE
  8
LY_1
  6
CONTINUOUS
 62
   251
  5
98
 10
-20.458371
 20
97.884903
 30
0.0
 11
-21.282894
 21
102.561004
 31
0.0
  0
LINE
  8
LY_1
  6
CENTER
 62
     7
  5
99
 10
-16.398237
 20
92.998832
 30
0.0
 11
-19.162344
 21
108.674858
 31
0.0
  0
LINE
  8
LY_1
  6
CONTINUOUS
 62
     7
  5
9A
 10
339.030008
 20
96.819223
 30
0.0
 11
332.029995
 21
92.283681
 31
0.0
  0
LINE
  8
LY_1
  6
CONTINUOUS
 62
     7
  5
9B
 10
339.029997
 20
92.283676
 30
0.0
 11
332.029997
 21
96.819209
 31
0.0
  0
LINE
  8
LY_1
  6
CONTINUOUS
 62
     7
  5
9C
 10
332.029994
 20
92.283676
 30
0.0
 11
339.029994
 21
87.748142
 31
0.0
  0
LINE
  8
LY_1
  6
CONTINUOUS
 62
     7
  5
9D
 10
332.029998
 20
87.748147
 30
0.0
 11
339.030011
 21
92.283689
 31
0.0
  0
LINE
  8
LY_1
  6
CONTINUOUS
 62
   251
  5
9E
 10
328.0
 20
83.783672
 30
0.0
 11
328.0
 21
100.783672
 31
0.0
  0
LINE
  8
LY_1
  6
CONTINUOUS
 62
   251
  5
9F
 10
328.0
 20
83.783672
 30
0.0
 11
326.104849
 21
83.783672
 31
0.0
  0
LINE
  8
LY_1
  6
CONTINUOUS
 62
   251
  5
A0
 10
328.0
 20
100.783672
 30
0.0
 11
323.143158
 21
100.783672
 31
0.0
  0
LINE
  8
LY_1
  6
CONTINUOUS
 62
   251
  5
A1
 10
332.029999
 20
87.292736
 30
0.0
 11
332.029999
 21
97.274609
 31
0.0
  0
LINE
  8
LY_1
  6
CONTINUOUS
 62
   251
  5
A2
 10
339.029999
 20
87.748142
 30
0.0
 11
339.029999
 21
96.81921
 31
0.0
  0
LINE
  8
LY_1
  6
CONTINUOUS
 62
   251
  5
A3
 10
332.029994
 20
97.274609
 30
0.0
 11
328.000009
 21
97.148673
 31
0.0
  0
LINE
  8
LY_1
  6
CONTINUOUS
 62
   251
  5
A4
 10
339.029999
 20
96.81921
 30
0.0
 11
332.029999
 21
96.81921
 31
0.0
  0
LINE
  8
LY_1
  6
CONTINUOUS
 62
   251
  5
A5
 10
339.029999
 20
87.748142
 30
0.0
 11
332.029999
 21
87.748142
 31
0.0
  0
LINE
  8
LY_1
  6
CONTINUOUS
 62
   251
  5
A6
 10
332.029984
 20
87.292738
 30
0.0
 11
328.0
 21
87.418676
 31
0.0
  0
LINE
  8
LY_1
  6
CENTER
 62
     7
  5
A7
 10
344.262177
 20
92.283672
 30
0.0
 11
301.804749
 21
92.283672
 31
0.0
  0
LINE
  8
LY_1
  6
CONTINUOUS
 62
   251
  5
A8
 10
-45.165849
 20
95.229448
 30
0.0
 11
-45.91884
 21
96.533666
 31
0.0
  0
LINE
  8
LY_1
  6
CONTINUOUS
 62
   251
  5
A9
 10
-57.180304
 20
82.039094
 30
0.0
 11
-60.641272
 21
88.033666
 31
0.0
  0
LINE
  8
LY_1
  6
CENTER
 62
     7
  5
AA
 10
-42.451488
 20
98.535543
 30
0.0
 11
-63.675479
 21
86.281865
 31
0.0
  0
LINE
  8
LY_1
  6
CENTER
 62
     7
  5
AB
 10
-45.705341
 20
79.163875
 30
0.0
 11
-59.531933
 21
103.112234
 31
0.0
  0
LINE
  8
LY_1
  6
CONTINUOUS
 62
     7
  5
AC
 10
230.999996
 20
125.106483
 30
0.0
 11
235.981427
 21
117.108668
 31
0.0
  0
LINE
  8
LY_1
  6
CONTINUOUS
 62
     7
  5
AD
 10
231.289503
 20
117.85571
 30
0.0
 11
236.949742
 21
123.071542
 31
0.0
  0
LINE
  8
LY_1
  6
CONTINUOUS
 62
     7
  5
AE
 10
230.710427
 20
117.85578
 30
0.0
 11
225.050256
 21
123.071549
 31
0.0
  0
LINE
  8
LY_1
  6
CONTINUOUS
 62
     7
  5
AF
 10
230.999997
 20
125.106465
 30
0.0
 11
226.018548
 21
117.108621
 31
0.0
  0
LINE
  8
LY_1
  6
CONTINUOUS
 62
   251
  5
B0
 10
231.000004
 20
125.106468
 30
0.0
 11
236.949749
 21
123.071538
 31
0.0
  0
LINE
  8
LY_1
  6
CONTINUOUS
 62
   251
  5
B1
 10
225.050249
 20
123.071546
 30
0.0
 11
230.999994
 21
125.106476
 31
0.0
  0
LINE
  8
LY_1
  6
CONTINUOUS
 62
   251
  5
B2
 10
237.75
 20
115.554005
 30
0.0
 11
237.75
 21
113.151344
 31
0.0
  0
LINE
  8
LY_1
  6
CONTINUOUS
 62
   251
  5
B3
 10
224.25
 20
115.554005
 30
0.0
 11
224.25
 21
113.151222
 31
0.0
  0
LINE
  8
LY_1
  6
CONTINUOUS
 62
   251
  5
B4
 10
237.899994
 20
87.372623
 30
0.0
 11
237.899994
 21
65.436413
 31
0.0
  0
LINE
  8
LY_1
  6
CONTINUOUS
 62
   251
  5
B5
 10
224.100006
 20
87.372623
 30
0.0
 11
224.100006
 21
57.884674
 31
0.0
  0
LINE
  8
LY_1
  6
CONTINUOUS
 62
   251
  5
B6
 10
225.050262
 20
123.071548
 30
0.0
 11
225.050262
 21
116.642006
 31
0.0
  0
LINE
  8
LY_1
  6
CONTINUOUS
 62
   251
  5
B7
 10
236.949753
 20
123.071548
 30
0.0
 11
236.949753
 21
116.641556
 31
0.0
  0
LINE
  8
LY_1
  6
CONTINUOUS
 62
   251
  5
B8
 10
240.5
 20
110.864937
 30
0.0
 11
240.5
 21
87.372623
 31
0.0
  0
LINE
  8
LY_1
  6
CONTINUOUS
 62
   251
  5
B9
 10
221.5
 20
110.864937
 30
0.0
 11
221.5
 21
87.372623
 31
0.0
  0
LINE
  8
LY_1
  6
CONTINUOUS
 62
   251
  5
BA
 10
-31.42451
 20
114.11414
 30
0.0
 11
-49.27867
 21
107.615757
 31
0.0
  0
LINE
  8
LY_1
  6
CONTINUOUS
 62
     7
  5
BB
 10
-44.794455
 20
123.071547
 30
0.0
 11
-47.649225
 21
113.519077
 31
0.0
  0
LINE
  8
LY_1
  6
CONTINUOUS
 62
     7
  5
BC
 10
-50.385374
 20
121.036622
 30
0.0
 11
-42.058272
 21
115.554007
 31
0.0
  0
LINE
  8
LY_1
  6
CONTINUOUS
 62
     7
  5
BD
 10
-44.794438
 20
123.071553
 30
0.0
 11
-36.467335
 21
117.588938
 31
0.0
  0
LINE
  8
LY_1
  6
CONTINUOUS
 62
     7
  5
BE
 10
-39.203535
 20
125.106488
 30
0.0
 11
-42.058307
 21
115.55401
 31
0.0
  0
LINE
  8
LY_1
  6
CONTINUOUS
 62
   251
  5
BF
 10
-50.385358
 20
121.03663
 30
0.0
 11
-47.649197
 21
113.51909
 31
0.0
  0
LINE
  8
LY_1
  6
CONTINUOUS
 62
   251
  5
C0
 10
-39.203509
 20
125.106491
 30
0.0
 11
-36.467348
 21
117.58895
 31
0.0
  0
LINE
  8
LY_1
  6
CONTINUOUS
 62
   251
  5
C1
 10
-48.388016
 20
113.250168
 30
0.0
 11
-46.534799
 21
108.614425
 31
0.0
  0
LINE
  8
LY_1
  6
CONTINUOUS
 62
   251
  5
C2
 10
-35.728557
 20
117.857832
 30
0.0
 11
-34.168408
 21
113.115422
 31
0.0
  0
LINE
  8
LY_1
  6
CONTINUOUS
 62
   251
  5
C3
 10
-35.728567
 20
117.857844
 30
0.0
 11
-48.387977
 21
113.250195
 31
0.0
  0
LINE
  8
LY_1
  6
CONTINUOUS
 62
   251
  5
C4
 10
-39.203509
 20
125.106491
 30
0.0
 11
-50.385358
 21
121.03663
 31
0.0
  0
LINE
  8
LY_1
  6
CONTINUOUS
 62
   251
  5
C5
 10
-42.974453
 20
90.295064
 30
0.0
 11
-49.27867
 21
107.615757
 31
0.0
  0
LINE
  8
LY_1
  6
CONTINUOUS
 62
   251
  5
C6
 10
-25.120293
 20
96.793447
 30
0.0
 11
-31.42451
 21
114.11414
 31
0.0
  0
LINE
  8
LY_1
  6
CENTER
 62
     7
  5
C7
 10
231.0
 20
131.375916
 30
0.0
 11
231.0
 21
52.102226
 31
0.0
  0
LINE
  8
LY_1
  6
CENTER
 62
     7
  5
C8
 10
-30.869538
 20
84.813227
 30
0.0
 11
-46.142479
 21
126.775285
 31
0.0
  0
LINE
  8
LY_1
  6
CONTINUOUS
 62
   251
  5
C9
 10
17.0
 20
-4.0
 30
0.0
 11
10.0
 21
-4.0
 31
0.0
  0
LINE
  8
LY_1
  6
CONTINUOUS
 62
   251
  5
CA
 10
17.0
 20
4.0
 30
0.0
 11
10.0
 21
4.0
 31
0.0
  0
LINE
  8
LY_1
  6
CONTINUOUS
 62
   251
  5
CB
 10
10.0
 20
4.0
 30
0.0
 11
10.0
 21
-4.0
 31
0.0
  0
LINE
  8
LY_1
  6
CONTINUOUS
 62
   251
  5
CC
 10
318.0
 20
70.910133
 30
0.0
 11
318.700012
 21
70.910133
 31
0.0
  0
LINE
  8
LY_1
  6
CONTINUOUS
 62
   251
  5
CD
 10
303.299988
 20
72.910133
 30
0.0
 11
303.299988
 21
72.5
 31
0.0
  0
LINE
  8
LY_1
  6
CONTINUOUS
 62
   251
  5
CE
 10
318.700012
 20
72.910133
 30
0.0
 11
318.700012
 21
70.910133
 31
0.0
  0
LINE
  8
LY_1
  6
CONTINUOUS
 62
   251
  5
CF
 10
302.998718
 20
72.910133
 30
0.0
 11
319.0
 21
72.910133
 31
0.0
  0
LINE
  8
LY_1
  6
CONTINUOUS
 62
   251
  5
D0
 10
311.340233
 20
79.915922
 30
0.0
 11
317.130279
 21
77.787293
 31
0.0
  0
LINE
  8
LY_1
  6
CONTINUOUS
 62
   251
  5
D1
 10
304.86972
 20
77.787296
 30
0.0
 11
310.659752
 21
79.91592
 31
0.0
  0
LINE
  8
LY_1
  6
CONTINUOUS
 62
   251
  5
D2
 10
305.559845
 20
77.910133
 30
0.0
 11
316.440155
 21
77.910133
 31
0.0
  0
LINE
  8
LY_1
  6
CONTINUOUS
 62
   251
  5
D3
 10
318.409785
 20
76.25743
 30
0.0
 11
319.000003
 21
72.910134
 31
0.0
  0
LINE
  8
LY_1
  6
CONTINUOUS
 62
   251
  5
D4
 10
302.999991
 20
72.910139
 30
0.0
 11
303.59021
 21
76.257435
 31
0.0
  0
LINE
  8
LY_1
  6
CENTER
 62
     7
  5
D5
 10
291.578629
 20
89.910133
 30
0.0
 11
330.42572
 21
89.910133
 31
0.0
  0
LINE
  8
LY_1
  6
CENTER
 62
     7
  5
D6
 10
311.0
 20
108.754578
 30
0.0
 11
311.0
 21
62.769878
 31
0.0
  0
LINE
  8
LY_1
  6
CONTINUOUS
 62
   251
  5
D7
 10
184.0
 20
-4.0
 30
0.0
 11
150.0
 21
-4.0
 31
0.0
  0
LINE
  8
LY_1
  6
CONTINUOUS
 62
   251
  5
D8
 10
184.0
 20
4.0
 30
0.0
 11
150.0
 21
4.0
 31
0.0
  0
LINE
  8
LY_1
  6
CONTINUOUS
 62
   251
  5
D9
 10
150.0
 20
14.0
 30
0.0
 11
150.0
 21
-14.0
 31
0.0
  0
LINE
  8
LY_1
  6
CONTINUOUS
 62
   251
  5
DA
 10
231.974516
 20
56.648907
 30
0.0
 11
233.433855
 21
60.528536
 31
0.0
  0
LINE
  8
LY_1
  6
CONTINUOUS
 62
   251
  5
DB
 10
251.0
 20
48.383148
 30
0.0
 11
251.0
 21
-72.5
 31
0.0
  0
LINE
  8
LY_1
  6
CONTINUOUS
 62
   251
  5
DC
 10
248.0
 20
67.992126
 30
0.0
 11
251.0
 21
67.992126
 31
0.0
  0
LINE
  8
LY_1
  6
CONTINUOUS
 62
   251
  5
DD
 10
203.999994
 20
61.564652
 30
0.0
 11
232.999988
 21
48.383158
 31
0.0
  0
LINE
  8
LY_1
  6
CONTINUOUS
 62
   251
  5
DE
 10
204.000004
 20
67.02066
 30
0.0
 11
229.274975
 21
55.532316
 31
0.0
  0
LINE
  8
LY_1
  6
CONTINUOUS
 62
   251
  5
DF
 10
233.0
 20
48.383148
 30
0.0
 11
251.0
 21
48.383148
 31
0.0
  0
LINE
  8
LY_1
  6
CONTINUOUS
 62
   251
  5
E0
 10
203.999975
 20
-67.020655
 30
0.0
 11
250.999982
 21
-53.839155
 31
0.0
  0
LINE
  8
LY_1
  6
CONTINUOUS
 62
   251
  5
E1
 10
203.999996
 20
-61.564631
 30
0.0
 11
251.000003
 21
-48.383133
 31
0.0
  0
LINE
  8
LY_1
  6
CONTINUOUS
 62
   251
  5
E2
 10
186.0
 20
-32.5
 30
0.0
 11
186.0
 21
-65.0
 31
0.0
  0
LINE
  8
LY_1
  6
CONTINUOUS
 62
   251
  5
E3
 10
186.0
 20
65.0
 30
0.0
 11
186.0
 21
52.845459
 31
0.0
  0
LINE
  8
LY_1
  6
CONTINUOUS
 62
   251
  5
E4
 10
190.0
 20
-28.0569
 30
0.0
 11
190.0
 21
-100.0
 31
0.0
  0
LINE
  8
LY_1
  6
CONTINUOUS
 62
   251
  5
E5
 10
190.0
 20
-17.5
 30
0.0
 11
194.153519
 21
-17.5
 31
0.0
  0
LINE
  8
LY_1
  6
CONTINUOUS
 62
   251
  5
E6
 10
190.0
 20
17.5
 30
0.0
 11
193.612823
 21
17.5
 31
0.0
  0
LINE
  8
LY_1
  6
CONTINUOUS
 62
   251
  5
E7
 10
190.0
 20
17.5
 30
0.0
 11
190.0
 21
-17.5
 31
0.0
  0
LINE
  8
LY_1
  6
CONTINUOUS
 62
   251
  5
E8
 10
150.0
 20
-14.0
 30
0.0
 11
190.0
 21
-14.0
 31
0.0
  0
LINE
  8
LY_1
  6
CONTINUOUS
 62
   251
  5
E9
 10
150.0
 20
14.0
 30
0.0
 11
190.0
 21
14.0
 31
0.0
  0
LINE
  8
LY_1
  6
CONTINUOUS
 62
   251
  5
EA
 10
186.0
 20
-65.0
 30
0.0
 11
190.0
 21
-65.0
 31
0.0
  0
LINE
  8
LY_1
  6
CONTINUOUS
 62
   251
  5
EB
 10
186.0
 20
65.0
 30
0.0
 11
190.0
 21
65.0
 31
0.0
  0
LINE
  8
LY_1
  6
CONTINUOUS
 62
   251
  5
EC
 10
214.0
 20
30.467316
 30
0.0
 11
243.0
 21
30.467316
 31
0.0
  0
LINE
  8
LY_1
  6
CONTINUOUS
 62
   251
  5
ED
 10
214.0
 20
-32.211441
 30
0.0
 11
243.0
 21
-32.211441
 31
0.0
  0
LINE
  8
LY_1
  6
CONTINUOUS
 62
   251
  5
EE
 10
251.0
 20
72.5
 30
0.0
 11
263.0
 21
72.5
 31
0.0
  0
LINE
  8
LY_1
  6
CONTINUOUS
 62
   251
  5
EF
 10
251.0
 20
72.5
 30
0.0
 11
251.0
 21
67.992126
 31
0.0
  0
LINE
  8
LY_1
  6
CONTINUOUS
 62
   251
  5
F0
 10
204.0
 20
99.999985
 30
0.0
 11
204.0
 21
-100.0
 31
0.0
  0
LINE
  8
LY_1
  6
CONTINUOUS
 62
   251
  5
F1
 10
190.0
 20
-100.0
 30
0.0
 11
204.0
 21
-100.0
 31
0.0
  0
LINE
  8
LY_1
  6
CONTINUOUS
 62
   251
  5
F2
 10
190.0
 20
99.999985
 30
0.0
 11
204.0
 21
99.999985
 31
0.0
  0
LINE
  8
LY_1
  6
CONTINUOUS
 62
   251
  5
F3
 10
190.0
 20
99.999985
 30
0.0
 11
190.0
 21
48.455551
 31
0.0
  0
LINE
  8
LY_1
  6
CONTINUOUS
 62
   251
  5
F4
 10
251.0
 20
-72.5
 30
0.0
 11
263.0
 21
-72.5
 31
0.0
  0
LINE
  8
LY_1
  6
CONTINUOUS
 62
   251
  5
F5
 10
318.0
 20
72.5
 30
0.0
 11
318.0
 21
-72.5
 31
0.0
  0
LINE
  8
LY_1
  6
CONTINUOUS
 62
   251
  5
F6
 10
303.0
 20
72.5
 30
0.0
 11
318.0
 21
72.5
 31
0.0
  0
LINE
  8
LY_1
  6
CENTER
 62
     7
  5
F7
 10
0.0
 20
121.974302
 30
0.0
 11
0.0
 21
-109.999947
 31
0.0
  0
LINE
  8
LY_1
  6
CENTER
 62
     7
  5
F8
 10
579.632367
 20
0.0
 30
0.0
 11
140.447996
 21
0.0
 31
0.0
  0
LINE
  8
LY_1
  6
CENTER
 62
     7
  5
F9
 10
-109.999939
 20
0.0
 30
0.0
 11
110.000061
 21
0.0
 31
0.0
  0
LINE
  8
LY_1
  6
CONTINUOUS
 62
   251
  5
FA
 10
303.0
 20
72.5
 30
0.0
 11
303.0
 21
-72.5
 31
0.0
  0
ENDSEC
  0
EOF
