  0
SECTION
  2
HEADER
  0
ENDSEC
  0
SECTION
  2
TABLES
  0
TABLE
  2
LTYPE
 70
    22
  0
LTYPE
  2
CONTINUOUS
 70
    64
  3
Solid line
 72
    65
 73
     0
 40
0.000000
  0
LTYPE
  2
DASHED
 70
    64
  3
__ __ __ __ __ __ __ __ __ __ __ __ __ __ __
 72
    65
 73
     2
 40
3.500000
 49
2.000000
 49
-1.500000
  0
LTYPE
  2
CENTER
 70
    64
  3
____ _ ____ _ ____ _ ____ _ ____ _ ____ _ ____
 72
    65
 73
     4
 40
17.500000
 49
13.000000
 49
-1.500000
 49
1.500000
 49
-1.500000
  0
LTYPE
  2
PHANTOM
 70
    64
  3
_____ _ _ _____ _ _ _____ _ _ _____ _ _ ____  
 72
    65
 73
     6
 40
15.500000
 49
8.000000
 49
-1.500000
 49
1.500000
 49
-1.500000
 49
1.500000
 49
-1.500000
  0
LTYPE
  2
DOT
 70
    64
  3
. . . . . . . . . . . . . . . . . . . . . . . .
 72
    65
 73
     2
 40
0.25
 49
0.0
 49
-0.25
  0
ENDTAB
  0
TABLE
  2
LAYER
 70
     1
  0
LAYER
  2
0
 70
     0
 62
     7
  6
CONTINUOUS
  0
ENDTAB
  0
TABLE
  2
STYLE
 70
     1
  0
STYLE
  2
STANDARD
 70
     0
 40
0.000000
 41
1.000000
 50
0.000000
 71
     0
 42
0.200000
  3
txt
  4
BIGFONT
  0
ENDTAB
  0
TABLE
  2
VIEW
 70
     0
  0
ENDTAB
  0
ENDSEC
  0
SECTION
  2
BLOCKS
  0
ENDSEC
  0
SECTION
  2
ENTITIES
  0
LINE
  8
0
  6
CONTINUOUS
 62
     3
 10
480
 20
0
 11
1032
 21
0
  0
LINE
  8
0
  6
CONTINUOUS
 62
     7
 10
640
 20
225
 11
665
 21
225
  0
LINE
  8
0
  6
CONTINUOUS
 62
     7
 10
640
 20
-225
 11
665
 21
-225
  0
LINE
  8
0
  6
CONTINUOUS
 62
     7
 10
640
 20
225
 11
640
 21
97.62188720703125
  0
LINE
  8
0
  6
CONTINUOUS
 62
     7
 10
665
 20
225
 11
665
 21
-225
  0
LINE
  8
0
  6
CONTINUOUS
 62
     7
 10
750
 20
177.5
 11
750
 21
30
  0
LINE
  8
0
  6
CONTINUOUS
 62
     7
 10
750
 20
177.5
 11
775
 21
177.5
  0
LINE
  8
0
  6
CONTINUOUS
 62
     7
 10
750
 20
-177.5
 11
775
 21
-177.5
  0
LINE
  8
0
  6
CONTINUOUS
 62
     7
 10
665
 20
30
 11
750
 21
30
  0
LINE
  8
0
  6
CONTINUOUS
 62
     7
 10
665
 20
-30
 11
750
 21
-30
  0
LINE
  8
0
  6
CONTINUOUS
 62
     7
 10
705.7060546875
 20
-80.00677490234375
 11
750
 21
-80.00677490234375
  0
LINE
  8
0
  6
CONTINUOUS
 62
     7
 10
705.7060546875
 20
80.0068359375
 11
750
 21
80.0068359375
  0
LINE
  8
0
  6
CONTINUOUS
 62
     7
 10
664.9999389648438
 20
106.8068923950195
 11
699.8916015625
 21
81.87101745605469
  0
LINE
  8
0
  6
CONTINUOUS
 62
     7
 10
664.9999389648438
 20
-106.8067932128906
 11
699.8915405273437
 21
-81.87088012695313
  0
LINE
  8
0
  6
CONTINUOUS
 62
     7
 10
668.1578369140625
 20
164.5565795898437
 11
743.1578979492188
 21
134.8322296142578
  0
LINE
  8
0
  6
CONTINUOUS
 62
     7
 10
668.1578369140625
 20
143.3435974121094
 11
743.1578369140625
 21
113.6192398071289
  0
LINE
  8
0
  6
CONTINUOUS
 62
     7
 10
668.1577758789063
 20
-143.3432922363281
 11
743.1577758789062
 21
-113.6189270019531
  0
LINE
  8
0
  6
CONTINUOUS
 62
     7
 10
668.15771484375
 20
-164.5566711425781
 11
743.1577758789062
 21
-134.8323211669922
  0
LINE
  8
0
  6
CONTINUOUS
 62
     7
 10
632
 20
175
 11
632
 21
110.2680053710938
  0
LINE
  8
0
  6
CONTINUOUS
 62
     7
 10
632
 20
175
 11
640
 21
175
  0
LINE
  8
0
  6
CONTINUOUS
 62
     7
 10
632
 20
-175
 11
640
 21
-175
  0
LINE
  8
0
  6
CONTINUOUS
 62
     7
 10
500
 20
47.5
 11
640
 21
47.5
  0
LINE
  8
0
  6
CONTINUOUS
 62
     7
 10
500
 20
-47.5
 11
640
 21
-47.5
  0
LINE
  8
0
  6
CONTINUOUS
 62
     7
 10
500
 20
12.5
 11
617.5
 21
12.5
  0
LINE
  8
0
  6
CONTINUOUS
 62
     7
 10
500
 20
-12.5
 11
617.5
 21
-12.5
  0
LINE
  8
0
  6
CONTINUOUS
 62
     7
 10
500
 20
47.5
 11
500
 21
-47.5
  0
LINE
  8
0
  6
CONTINUOUS
 62
     7
 10
640
 20
55
 11
640
 21
-55
  0
LINE
  8
0
  6
CONTINUOUS
 62
     7
 10
640
 20
55
 11
648.6505126953125
 21
55
  0
LINE
  8
0
  6
CONTINUOUS
 62
     7
 10
640
 20
-55
 11
647.232177734375
 21
-55
  0
LINE
  8
0
  6
CONTINUOUS
 62
     7
 10
632
 20
-126.021484375
 11
632
 21
-175
  0
LINE
  8
0
  6
CONTINUOUS
 62
     7
 10
640
 20
-105.905029296875
 11
640
 21
-225
  0
LINE
  8
0
  6
CONTINUOUS
 62
     7
 10
732.0001220703125
 20
8.485197067260742
 11
723.5148315429688
 21
-8.357845217688009E-05
  0
LINE
  8
0
  6
CONTINUOUS
 62
     7
 10
740.4854125976563
 20
2.092529575747903E-05
 11
732.000244140625
 21
8.485215187072754
  0
LINE
  8
0
  6
CONTINUOUS
 62
     7
 10
731.9998779296875
 20
-8.485365867614746
 11
723.5147094726563
 21
-0.0001698951818980277
  0
LINE
  8
0
  6
CONTINUOUS
 62
     7
 10
740.4853515625
 20
-1.896361027320381E-05
 11
732
 21
-8.485342025756836
  0
LINE
  8
0
  6
CONTINUOUS
 62
     3
 10
732
 20
15.7276611328125
 11
732
 21
-15.8309326171875
  0
LINE
  8
0
  6
CONTINUOUS
 62
     7
 10
750
 20
-30
 11
750
 21
-177.5
  0
LINE
  8
0
  6
CONTINUOUS
 62
     7
 10
610
 20
12.5
 11
610
 21
-12.5
  0
LINE
  8
0
  6
CONTINUOUS
 62
     7
 10
775
 20
177.5
 11
775
 21
-177.5
  0
LINE
  8
0
  6
CONTINUOUS
 62
     7
 10
780
 20
-180
 11
850
 21
-180
  0
LINE
  8
0
  6
CONTINUOUS
 62
     7
 10
780
 20
180
 11
850
 21
180
  0
LINE
  8
0
  6
CONTINUOUS
 62
     7
 10
775
 20
175
 11
780
 21
179.9999847412109
  0
LINE
  8
0
  6
CONTINUOUS
 62
     7
 10
849.9999389648437
 20
179.9999694824219
 11
854.9999389648437
 21
174.9999847412109
  0
LINE
  8
0
  6
CONTINUOUS
 62
     7
 10
774.9999389648438
 20
-174.9999542236328
 11
780
 21
-179.9999847412109
  0
LINE
  8
0
  6
CONTINUOUS
 62
     7
 10
850
 20
-180.0000457763672
 11
855
 21
-175.0000610351562
  0
LINE
  8
0
  6
CONTINUOUS
 62
     7
 10
780
 20
172.9221801757813
 11
850
 21
172.9221801757813
  0
LINE
  8
0
  6
CONTINUOUS
 62
     7
 10
780
 20
157.6149291992188
 11
850
 21
157.6149291992188
  0
LINE
  8
0
  6
CONTINUOUS
 62
     7
 10
780
 20
146.8772583007812
 11
850
 21
146.8772583007812
  0
LINE
  8
0
  6
CONTINUOUS
 62
     7
 10
780
 20
134.4267578125
 11
850
 21
134.4267578125
  0
LINE
  8
0
  6
CONTINUOUS
 62
     7
 10
780
 20
119.7057495117187
 11
850
 21
119.7057495117187
  0
LINE
  8
0
  6
CONTINUOUS
 62
     7
 10
780
 20
49.97906494140625
 11
850
 21
49.97906494140625
  0
LINE
  8
0
  6
CONTINUOUS
 62
     7
 10
780
 20
29.99993896484375
 11
850
 21
29.99993896484375
  0
LINE
  8
0
  6
CONTINUOUS
 62
     7
 10
780
 20
-29.99993896484375
 11
850
 21
-29.99993896484375
  0
LINE
  8
0
  6
CONTINUOUS
 62
     7
 10
780
 20
-49.97900390625
 11
850
 21
-49.97900390625
  0
LINE
  8
0
  6
CONTINUOUS
 62
     7
 10
780
 20
-119.7056274414063
 11
850
 21
-119.7056274414063
  0
LINE
  8
0
  6
CONTINUOUS
 62
     7
 10
780
 20
-134.4266357421875
 11
850
 21
-134.4266357421875
  0
LINE
  8
0
  6
CONTINUOUS
 62
     7
 10
780
 20
-146.8770446777344
 11
850
 21
-146.8770446777344
  0
LINE
  8
0
  6
CONTINUOUS
 62
     7
 10
780
 20
-157.6150207519531
 11
850
 21
-157.6150207519531
  0
LINE
  8
0
  6
CONTINUOUS
 62
     7
 10
780
 20
-172.9222412109375
 11
850
 21
-172.9222412109375
  0
LINE
  8
0
  6
CONTINUOUS
 62
     7
 10
785
 20
5
 11
825
 21
5
  0
LINE
  8
0
  6
CONTINUOUS
 62
     7
 10
785
 20
-5
 11
825
 21
-5
  0
LINE
  8
0
  6
CONTINUOUS
 62
     7
 10
855
 20
177.5
 11
855
 21
-177.5
  0
LINE
  8
0
  6
CONTINUOUS
 62
     3
 10
832.9974975585938
 20
-169.9926147460937
 11
832.9974975585938
 21
-201.6517333984375
  0
LINE
  8
0
  6
CONTINUOUS
 62
     7
 10
824.9264526367188
 20
-194.6499938964844
 11
841.0685424804688
 21
-194.6499938964844
  0
LINE
  8
0
  6
CONTINUOUS
 62
     7
 10
824.4899291992187
 20
-185.6499938964844
 11
841.5050659179687
 21
-185.6499938964844
  0
LINE
  8
0
  6
CONTINUOUS
 62
     7
 10
824.489990234375
 20
-185.6499938964844
 11
824.6665649414063
 21
-180
  0
LINE
  8
0
  6
CONTINUOUS
 62
     7
 10
841.5050659179687
 20
-185.6499938964844
 11
841.3284912109375
 21
-180
  0
LINE
  8
0
  6
CONTINUOUS
 62
     7
 10
824.9264526367188
 20
-194.6499938964844
 11
824.9264526367188
 21
-185.6499938964844
  0
LINE
  8
0
  6
CONTINUOUS
 62
     7
 10
841.0685424804688
 20
-194.6499938964844
 11
841.0685424804688
 21
-185.6499938964844
  0
LINE
  8
0
  6
CONTINUOUS
 62
     7
 10
832.9974975585938
 20
-194.6499938964844
 11
832.9974975585938
 21
-185.6499938964844
  0
LINE
  8
0
  6
CONTINUOUS
 62
     3
 10
824.9263916015625
 20
-185.6500549316406
 11
832.9974365234375
 21
-194.6500091552734
  0
LINE
  8
0
  6
CONTINUOUS
 62
     3
 10
824.92626953125
 20
-194.6499176025391
 11
832.9973754882812
 21
-185.64990234375
  0
LINE
  8
0
  6
CONTINUOUS
 62
     3
 10
832.9974365234375
 20
-185.6500549316406
 11
841.0684814453125
 21
-194.6500549316406
  0
LINE
  8
0
  6
CONTINUOUS
 62
     3
 10
832.9973754882812
 20
-194.6499328613281
 11
841.0684204101563
 21
-185.6499328613281
  0
LINE
  8
0
  6
CONTINUOUS
 62
     3
 10
480
 20
-650
 11
1032
 21
-650
  0
LINE
  8
0
  6
CONTINUOUS
 62
     7
 10
640
 20
-425
 11
665
 21
-425
  0
LINE
  8
0
  6
CONTINUOUS
 62
     7
 10
640
 20
-875
 11
665
 21
-875
  0
LINE
  8
0
  6
CONTINUOUS
 62
     7
 10
775
 20
-472.5
 11
775
 21
-827.5
  0
LINE
  8
0
  6
CONTINUOUS
 62
     7
 10
640
 20
-425
 11
640
 21
-510.2767944335938
  0
LINE
  8
0
  6
CONTINUOUS
 62
     7
 10
665
 20
-425
 11
665
 21
-875
  0
LINE
  8
0
  6
CONTINUOUS
 62
     7
 10
750
 20
-472.5
 11
750
 21
-827.5
  0
LINE
  8
0
  6
CONTINUOUS
 62
     7
 10
675
 20
-472.5
 11
775
 21
-472.5
  0
LINE
  8
0
  6
CONTINUOUS
 62
     7
 10
750
 20
-827.5
 11
775
 21
-827.5
  0
LINE
  8
0
  6
CONTINUOUS
 62
     7
 10
705.7060546875
 20
-569.9932861328125
 11
750
 21
-569.9932861328125
  0
LINE
  8
0
  6
CONTINUOUS
 62
     7
 10
705.7060546875
 20
-730.0067138671875
 11
750
 21
-730.0067138671875
  0
LINE
  8
0
  6
CONTINUOUS
 62
     7
 10
665.0001220703125
 20
-543.1932983398438
 11
699.8916625976563
 21
-568.129150390625
  0
LINE
  8
0
  6
CONTINUOUS
 62
     7
 10
665
 20
-756.8067626953125
 11
699.8916625976563
 21
-731.870849609375
  0
LINE
  8
0
  6
CONTINUOUS
 62
     7
 10
668.15771484375
 20
-793.3434448242188
 11
743.1577758789062
 21
-763.619140625
  0
LINE
  8
0
  6
CONTINUOUS
 62
     7
 10
668.1578369140625
 20
-814.556640625
 11
743.1578369140625
 21
-784.832275390625
  0
LINE
  8
0
  6
CONTINUOUS
 62
     7
 10
668.1578979492188
 20
-506.6565551757812
 11
743.1578979492188
 21
-536.3809204101563
  0
LINE
  8
0
  6
CONTINUOUS
 62
     7
 10
668.1578369140625
 20
-485.4433288574219
 11
743.1578979492188
 21
-515.167724609375
  0
LINE
  8
0
  6
CONTINUOUS
 62
     7
 10
632
 20
-475
 11
632
 21
-505.5072021484375
  0
LINE
  8
0
  6
CONTINUOUS
 62
     7
 10
632
 20
-475
 11
640
 21
-475
  0
LINE
  8
0
  6
CONTINUOUS
 62
     7
 10
632
 20
-825
 11
640
 21
-825
  0
LINE
  8
0
  6
CONTINUOUS
 62
     7
 10
500
 20
-602.5
 11
640
 21
-602.5
  0
LINE
  8
0
  6
CONTINUOUS
 62
     7
 10
500
 20
-697.5
 11
640
 21
-697.5
  0
LINE
  8
0
  6
CONTINUOUS
 62
     7
 10
500
 20
-597.5
 11
500
 21
-697.5
  0
LINE
  8
0
  6
CONTINUOUS
 62
     7
 10
632
 20
-773.54296875
 11
632
 21
-825
  0
LINE
  8
0
  6
CONTINUOUS
 62
     7
 10
640
 20
-766.47412109375
 11
640
 21
-875
  0
LINE
  8
0
  6
CONTINUOUS
 62
     7
 10
500
 20
-597.5
 11
610
 21
-597.5
  0
LINE
  8
0
  6
CONTINUOUS
 62
     7
 10
640
 20
-595
 11
640
 21
-705
  0
LINE
  8
0
  6
CONTINUOUS
 62
     7
 10
640
 20
-595
 11
644.797607421875
 21
-595
  0
LINE
  8
0
  6
CONTINUOUS
 62
     7
 10
640
 20
-705
 11
645.4757080078125
 21
-705
  0
LINE
  8
0
  6
CONTINUOUS
 62
     7
 10
718.5
 20
-435.2000122070313
 11
745.5
 21
-435.2000122070313
  0
LINE
  8
0
  6
CONTINUOUS
 62
     7
 10
723.3499755859375
 20
-435.2000122070313
 11
723.3499755859375
 21
-472.5
  0
LINE
  8
0
  6
CONTINUOUS
 62
     7
 10
740.6500244140625
 20
-435.2000122070313
 11
740.6500244140625
 21
-472.5
  0
LINE
  8
0
  6
CONTINUOUS
 62
     3
 10
732
 20
-380.53759765625
 11
732
 21
-487.5
  0
LINE
  8
0
  6
CONTINUOUS
 62
     7
 10
718.5
 20
-403.2000122070312
 11
745.5
 21
-403.2000122070312
  0
LINE
  8
0
  6
CONTINUOUS
 62
     7
 10
740.071044921875
 20
-388.550048828125
 11
723.928955078125
 21
-388.550048828125
  0
LINE
  8
0
  6
CONTINUOUS
 62
     7
 10
740.507568359375
 20
-397.550048828125
 11
723.492431640625
 21
-397.550048828125
  0
LINE
  8
0
  6
CONTINUOUS
 62
     7
 10
740.507568359375
 20
-397.5500183105469
 11
740.3309936523437
 21
-403.1999816894531
  0
LINE
  8
0
  6
CONTINUOUS
 62
     7
 10
723.4924926757812
 20
-397.550048828125
 11
723.6690673828125
 21
-403.2000122070312
  0
LINE
  8
0
  6
CONTINUOUS
 62
     7
 10
740.071044921875
 20
-388.550048828125
 11
740.071044921875
 21
-397.550048828125
  0
LINE
  8
0
  6
CONTINUOUS
 62
     7
 10
723.928955078125
 20
-388.550048828125
 11
723.928955078125
 21
-397.550048828125
  0
LINE
  8
0
  6
CONTINUOUS
 62
     7
 10
745.5
 20
-403.2000122070312
 11
745.5
 21
-435.2000122070313
  0
LINE
  8
0
  6
CONTINUOUS
 62
     7
 10
718.5
 20
-403.2000122070312
 11
718.5
 21
-435.2000122070313
  0
LINE
  8
0
  6
CONTINUOUS
 62
     3
 10
723.9288940429687
 20
-397.550048828125
 11
731.9999389648437
 21
-388.550048828125
  0
LINE
  8
0
  6
CONTINUOUS
 62
     7
 10
732
 20
-388.550048828125
 11
732
 21
-397.550048828125
  0
LINE
  8
0
  6
CONTINUOUS
 62
     3
 10
732.0000610351563
 20
-397.5500793457031
 11
740.0711059570313
 21
-388.550048828125
  0
LINE
  8
0
  6
CONTINUOUS
 62
     3
 10
740.071044921875
 20
-397.5499877929688
 11
732
 21
-388.5499877929688
  0
LINE
  8
0
  6
CONTINUOUS
 62
     3
 10
723.9290771484375
 20
-388.5499877929688
 11
732.0001220703125
 21
-397.5500183105469
  0
LINE
  8
0
  6
CONTINUOUS
 62
     7
 10
610
 20
-597.5
 11
610
 21
-602.5
  0
LINE
  8
0
  6
CONTINUOUS
 62
     7
 10
780
 20
-830
 11
850
 21
-830
  0
LINE
  8
0
  6
CONTINUOUS
 62
     7
 10
780
 20
-470
 11
850
 21
-470
  0
LINE
  8
0
  6
CONTINUOUS
 62
     7
 10
774.9999389648438
 20
-475.0000305175781
 11
780
 21
-470.0000305175781
  0
LINE
  8
0
  6
CONTINUOUS
 62
     7
 10
849.9999389648437
 20
-470.0000610351563
 11
854.9999389648437
 21
-475.0000915527344
  0
LINE
  8
0
  6
CONTINUOUS
 62
     7
 10
775
 20
-825
 11
780
 21
-830.0000610351563
  0
LINE
  8
0
  6
CONTINUOUS
 62
     7
 10
850
 20
-830.0000610351563
 11
855
 21
-825.0000610351563
  0
LINE
  8
0
  6
CONTINUOUS
 62
     7
 10
789.0001220703125
 20
-460
 11
821.0000610351562
 21
-460
  0
LINE
  8
0
  6
CONTINUOUS
 62
     7
 10
785.3602905273437
 20
-469.9999694824219
 11
788.9999389648438
 21
-460.0000305175781
  0
LINE
  8
0
  6
CONTINUOUS
 62
     7
 10
824.6397705078125
 20
-470
 11
821.0000610351562
 21
-459.9999694824219
  0
LINE
  8
0
  6
CONTINUOUS
 62
     7
 10
780
 20
-477.0777587890625
 11
850
 21
-477.0777587890625
  0
LINE
  8
0
  6
CONTINUOUS
 62
     7
 10
780
 20
-515.5732421875
 11
850
 21
-515.5732421875
  0
LINE
  8
0
  6
CONTINUOUS
 62
     7
 10
780
 20
-530.2942504882813
 11
850
 21
-530.2942504882813
  0
LINE
  8
0
  6
CONTINUOUS
 62
     7
 10
780
 20
-545.9464111328125
 11
850
 21
-545.9464111328125
  0
LINE
  8
0
  6
CONTINUOUS
 62
     7
 10
780
 20
-563.0659790039062
 11
850
 21
-563.0659790039062
  0
LINE
  8
0
  6
CONTINUOUS
 62
     7
 10
780
 20
-600.02099609375
 11
850
 21
-600.02099609375
  0
LINE
  8
0
  6
CONTINUOUS
 62
     7
 10
780
 20
-619.71923828125
 11
850
 21
-619.71923828125
  0
LINE
  8
0
  6
CONTINUOUS
 62
     7
 10
780
 20
-639.5905151367188
 11
850
 21
-639.5905151367188
  0
LINE
  8
0
  6
CONTINUOUS
 62
     7
 10
780
 20
-660.4093627929687
 11
850
 21
-660.4093627929687
  0
LINE
  8
0
  6
CONTINUOUS
 62
     7
 10
780
 20
-680.28076171875
 11
850
 21
-680.28076171875
  0
LINE
  8
0
  6
CONTINUOUS
 62
     7
 10
780
 20
-699.9788208007813
 11
850
 21
-699.9788208007813
  0
LINE
  8
0
  6
CONTINUOUS
 62
     7
 10
780
 20
-736.9341430664063
 11
850
 21
-736.9341430664063
  0
LINE
  8
0
  6
CONTINUOUS
 62
     7
 10
780
 20
-754.0533447265625
 11
850
 21
-754.0533447265625
  0
LINE
  8
0
  6
CONTINUOUS
 62
     7
 10
780
 20
-769.7055053710938
 11
850
 21
-769.7055053710938
  0
LINE
  8
0
  6
CONTINUOUS
 62
     7
 10
780
 20
-784.4265747070313
 11
850
 21
-784.4265747070313
  0
LINE
  8
0
  6
CONTINUOUS
 62
     7
 10
780
 20
-796.8770141601563
 11
850
 21
-796.8770141601563
  0
LINE
  8
0
  6
CONTINUOUS
 62
     7
 10
780
 20
-807.6148681640625
 11
850
 21
-807.6148681640625
  0
LINE
  8
0
  6
CONTINUOUS
 62
     7
 10
780
 20
-822.92236328125
 11
850
 21
-822.92236328125
  0
LINE
  8
0
  6
CONTINUOUS
 62
     7
 10
792.5
 20
-457
 11
793.7954711914063
 21
-449.6527099609375
  0
LINE
  8
0
  6
CONTINUOUS
 62
     7
 10
816.204345703125
 20
-449.6527404785156
 11
817.4998779296875
 21
-457.0000610351563
  0
LINE
  8
0
  6
CONTINUOUS
 62
     7
 10
795.76513671875
 20
-448
 11
814.23486328125
 21
-448
  0
LINE
  8
0
  6
CONTINUOUS
 62
     7
 10
795.341796875
 20
-448.0452575683594
 11
804.57666015625
 21
-446.0452575683594
  0
LINE
  8
0
  6
CONTINUOUS
 62
     7
 10
805.42333984375
 20
-446.0453186035156
 11
814.658203125
 21
-448.0453186035156
  0
LINE
  8
0
  6
CONTINUOUS
 62
     7
 10
792.5
 20
-457
 11
792.5
 21
-460
  0
LINE
  8
0
  6
CONTINUOUS
 62
     7
 10
817.5
 20
-457.0000305175781
 11
817.5
 21
-460
  0
LINE
  8
0
  6
CONTINUOUS
 62
     7
 10
855
 20
-472.5
 11
855
 21
-827.5
  0
LINE
  8
0
  6
CONTINUOUS
 62
     7
 10
832.9999389648438
 20
-641.5145874023438
 11
824.5146484375
 21
-649.9998779296875
  0
LINE
  8
0
  6
CONTINUOUS
 62
     7
 10
841.4853515625
 20
-649.9998779296875
 11
833.0001220703125
 21
-641.5145874023438
  0
LINE
  8
0
  6
CONTINUOUS
 62
     3
 10
833
 20
-639.492431640625
 11
833
 21
-660.507568359375
  0
LINE
  8
0
  6
CONTINUOUS
 62
     7
 10
833
 20
-658.4854125976563
 11
824.5147705078125
 21
-650.0001220703125
  0
LINE
  8
0
  6
CONTINUOUS
 62
     7
 10
841.4851684570312
 20
-649.9999389648438
 11
832.9998779296875
 21
-658.4852294921875
  0
LINE
  8
0
  6
CONTINUOUS
 62
     3
 10
0
 20
-368.550048828125
 11
0
 21
-895
  0
LINE
  8
0
  6
CONTINUOUS
 62
     3
 10
-245
 20
-650
 11
245
 21
-650
  0
LINE
  8
0
  6
CONTINUOUS
 62
     7
 10
-12.5
 20
-597.5
 11
-12.5
 21
-611.5
  0
LINE
  8
0
  6
CONTINUOUS
 62
     7
 10
12.5
 20
-597.5
 11
12.5
 21
-611.5
  0
LINE
  8
0
  6
CONTINUOUS
 62
     3
 10
172.4159393310547
 20
-721.4176025390625
 11
195.4671478271484
 21
-730.9656982421875
  0
LINE
  8
0
  6
CONTINUOUS
 62
     3
 10
172.4160614013672
 20
-578.5828857421875
 11
195.4672698974609
 21
-569.0347290039063
  0
LINE
  8
0
  6
CONTINUOUS
 62
     3
 10
71.41724395751953
 20
-477.5839233398438
 11
80.96536254882813
 21
-454.53271484375
  0
LINE
  8
0
  6
CONTINUOUS
 62
     3
 10
-71.41691589355469
 20
-477.5837707519531
 11
-80.96503448486328
 21
-454.5325927734375
  0
LINE
  8
0
  6
CONTINUOUS
 62
     3
 10
-172.4159698486328
 20
-578.5826416015625
 11
-195.4671783447266
 21
-569.0345458984375
  0
LINE
  8
0
  6
CONTINUOUS
 62
     3
 10
-172.4162139892578
 20
-721.4169311523438
 11
-195.4674224853516
 21
-730.9650268554688
  0
LINE
  8
0
  6
CONTINUOUS
 62
     3
 10
-71.41748046875
 20
-822.4158935546875
 11
-80.96560668945312
 21
-845.4671020507812
  0
LINE
  8
0
  6
CONTINUOUS
 62
     3
 10
71.4166259765625
 20
-822.4163208007812
 11
80.96473693847656
 21
-845.467529296875
  0
LINE
  8
0
  6
CONTINUOUS
 62
     7
 10
-12.5
 20
-611.5
 11
12.5
 21
-611.5
  0
LINE
  8
0
  6
CONTINUOUS
 62
     7
 10
-12.5
 20
-597.5
 11
12.5
 21
-597.5
  0
LINE
  8
0
  6
CONTINUOUS
 62
     7
 10
-13.5
 20
-403.2000122070312
 11
13.5
 21
-403.2000122070312
  0
LINE
  8
0
  6
CONTINUOUS
 62
     7
 10
8.071044921875
 20
-388.550048828125
 11
-8.071044921875
 21
-388.550048828125
  0
LINE
  8
0
  6
CONTINUOUS
 62
     7
 10
8.507568359375
 20
-397.550048828125
 11
-8.507568359375
 21
-397.550048828125
  0
LINE
  8
0
  6
CONTINUOUS
 62
     7
 10
8.507541656494141
 20
-397.5499877929688
 11
8.33098030090332
 21
-403.1999816894531
  0
LINE
  8
0
  6
CONTINUOUS
 62
     7
 10
-8.507637977600098
 20
-397.550048828125
 11
-8.331076622009277
 21
-403.2000122070312
  0
LINE
  8
0
  6
CONTINUOUS
 62
     7
 10
8.071044921875
 20
-388.550048828125
 11
8.071044921875
 21
-397.550048828125
  0
LINE
  8
0
  6
CONTINUOUS
 62
     7
 10
-8.071044921875
 20
-388.550048828125
 11
-8.071044921875
 21
-397.550048828125
  0
LINE
  8
0
  6
CONTINUOUS
 62
     7
 10
13.5
 20
-403.2000122070312
 11
13.5
 21
-425.4053649902344
  0
LINE
  8
0
  6
CONTINUOUS
 62
     7
 10
-13.5
 20
-403.2000122070312
 11
-13.5
 21
-425.4053649902344
  0
LINE
  8
0
  6
CONTINUOUS
 62
     3
 10
-8.071027755737305
 20
-388.5500793457031
 11
6.960085011087358E-05
 21
-397.5501403808594
  0
LINE
  8
0
  6
CONTINUOUS
 62
     3
 10
-8.071139335632324
 20
-397.5499267578125
 11
-0.0001031116044032387
 21
-388.5499572753906
  0
LINE
  8
0
  6
CONTINUOUS
 62
     3
 10
1.189822069136426E-05
 20
-397.550048828125
 11
8.071047782897949
 21
-388.550048828125
  0
LINE
  8
0
  6
CONTINUOUS
 62
     3
 10
8.07109546661377
 20
-397.5501403808594
 11
-1.472784674660943E-06
 21
-388.5500793457031
  0
LINE
  8
0
  6
CONTINUOUS
 62
     7
 10
0
 20
-388.550048828125
 11
0
 21
-397.550048828125
  0
LINE
  8
0
  6
CONTINUOUS
 62
     7
 10
882
 20
-148.5
 11
899
 21
-148.5
  0
LINE
  8
0
  6
CONTINUOUS
 62
     7
 10
910
 20
16
 11
942
 21
16
  0
LINE
  8
0
  6
CONTINUOUS
 62
     7
 10
877
 20
-40.2269287109375
 11
877
 21
-177.5
  0
LINE
  8
0
  6
CONTINUOUS
 62
     7
 10
904
 20
143.5
 11
904
 21
35.4661865234375
  0
LINE
  8
0
  6
CONTINUOUS
 62
     7
 10
909
 20
-120
 11
985
 21
-120
  0
LINE
  8
0
  6
CONTINUOUS
 62
     7
 10
990
 20
-150
 11
1012
 21
-150
  0
LINE
  8
0
  6
CONTINUOUS
 62
     7
 10
990
 20
150
 11
990
 21
-150
  0
LINE
  8
0
  6
CONTINUOUS
 62
     7
 10
1012
 20
150
 11
1012
 21
-150
  0
LINE
  8
0
  6
CONTINUOUS
 62
     7
 10
855
 20
44.10614776611328
 11
935
 21
29.9999885559082
  0
LINE
  8
0
  6
CONTINUOUS
 62
     7
 10
855
 20
-44.10619354248047
 11
935
 21
-30.00003433227539
  0
LINE
  8
0
  6
CONTINUOUS
 62
     7
 10
904
 20
-35.4661865234375
 11
904
 21
-143.5
  0
LINE
  8
0
  6
CONTINUOUS
 62
     7
 10
935
 20
30
 11
935
 21
16
  0
LINE
  8
0
  6
CONTINUOUS
 62
     7
 10
855
 20
177.5
 11
877
 21
177.5
  0
LINE
  8
0
  6
CONTINUOUS
 62
     7
 10
877
 20
177.5
 11
877
 21
40.2269287109375
  0
LINE
  8
0
  6
CONTINUOUS
 62
     7
 10
855
 20
-177.5
 11
877
 21
-177.5
  0
LINE
  8
0
  6
CONTINUOUS
 62
     7
 10
990
 20
150
 11
1012
 21
150
  0
LINE
  8
0
  6
CONTINUOUS
 62
     7
 10
909
 20
120
 11
985
 21
120
  0
LINE
  8
0
  6
CONTINUOUS
 62
     7
 10
882
 20
148.5
 11
899
 21
148.5
  0
LINE
  8
0
  6
CONTINUOUS
 62
     7
 10
910
 20
-16
 11
942
 21
-16
  0
LINE
  8
0
  6
CONTINUOUS
 62
     7
 10
942
 20
16
 11
942
 21
-16
  0
LINE
  8
0
  6
CONTINUOUS
 62
     7
 10
961
 20
-11.1923828125
 11
961
 21
11.1925048828125
  0
LINE
  8
0
  6
CONTINUOUS
 62
     7
 10
950
 20
-13.453369140625
 11
950
 21
13.4534912109375
  0
LINE
  8
0
  6
CONTINUOUS
 62
     7
 10
950
 20
-13.45350360870361
 11
942
 21
-13.20350360870361
  0
LINE
  8
0
  6
CONTINUOUS
 62
     7
 10
950
 20
13.45349216461182
 11
942
 21
13.20349216461182
  0
LINE
  8
0
  6
CONTINUOUS
 62
     7
 10
961
 20
-11.1923828125
 11
950
 21
-11.1923828125
  0
LINE
  8
0
  6
CONTINUOUS
 62
     7
 10
961
 20
11.1925048828125
 11
950
 21
11.1925048828125
  0
LINE
  8
0
  6
CONTINUOUS
 62
     7
 10
961
 20
0
 11
950
 21
0
  0
LINE
  8
0
  6
CONTINUOUS
 62
     7
 10
961
 20
11.19247436523438
 11
950
 21
7.397169974865392E-05
  0
LINE
  8
0
  6
CONTINUOUS
 62
     7
 10
960.9998779296875
 20
-1.616526242287364E-05
 11
949.9998779296875
 21
11.19238376617432
  0
LINE
  8
0
  6
CONTINUOUS
 62
     7
 10
949.9999389648438
 20
4.732058005174622E-05
 11
961
 21
-11.19235324859619
  0
LINE
  8
0
  6
CONTINUOUS
 62
     7
 10
950.0001220703125
 20
-11.19226169586182
 11
961
 21
5.189231160329655E-05
  0
LINE
  8
0
  6
CONTINUOUS
 62
     7
 10
935
 20
-16
 11
935
 21
-30
  0
LINE
  8
0
  6
CONTINUOUS
 62
     7
 10
923.5
 20
-451.56005859375
 11
923.5
 21
-472.5
  0
LINE
  8
0
  6
CONTINUOUS
 62
     7
 10
926
 20
-440.56005859375
 11
926
 21
-451.56005859375
  0
LINE
  8
0
  6
CONTINUOUS
 62
     7
 10
894
 20
-435.56005859375
 11
894
 21
-451.56005859375
  0
LINE
  8
0
  6
CONTINUOUS
 62
     7
 10
961
 20
-430.75244140625
 11
961
 21
-408.3675537109375
  0
LINE
  8
0
  6
CONTINUOUS
 62
     7
 10
942
 20
-435.56005859375
 11
931
 21
-435.56005859375
  0
LINE
  8
0
  6
CONTINUOUS
 62
     7
 10
910
 20
-389.7567138671875
 11
910
 21
-480.6129150390625
  0
LINE
  8
0
  6
CONTINUOUS
 62
     7
 10
966
 20
-419.56005859375
 11
891.802490234375
 21
-419.56005859375
  0
LINE
  8
0
  6
CONTINUOUS
 62
     7
 10
896.5
 20
-451.56005859375
 11
896.5
 21
-472.5
  0
LINE
  8
0
  6
CONTINUOUS
 62
     7
 10
926
 20
-451.56005859375
 11
894
 21
-451.56005859375
  0
LINE
  8
0
  6
CONTINUOUS
 62
     7
 10
880.765380859375
 20
-509.0736083984375
 11
899.9642333984375
 21
-509.0736083984375
  0
LINE
  8
0
  6
CONTINUOUS
 62
     7
 10
942
 20
-403.56005859375
 11
926
 21
-403.56005859375
  0
LINE
  8
0
  6
CONTINUOUS
 62
     7
 10
1012
 20
-500
 11
1012
 21
-800
  0
LINE
  8
0
  6
CONTINUOUS
 62
     7
 10
990
 20
-500
 11
990
 21
-800
  0
LINE
  8
0
  6
CONTINUOUS
 62
     7
 10
990
 20
-800
 11
1012
 21
-800
  0
LINE
  8
0
  6
CONTINUOUS
 62
     7
 10
990
 20
-500
 11
1012
 21
-500
  0
LINE
  8
0
  6
CONTINUOUS
 62
     7
 10
909
 20
-770
 11
985
 21
-770
  0
LINE
  8
0
  6
CONTINUOUS
 62
     7
 10
940
 20
-530
 11
985
 21
-530
  0
LINE
  8
0
  6
CONTINUOUS
 62
     7
 10
904
 20
-514.349609375
 11
904
 21
-793.5
  0
LINE
  8
0
  6
CONTINUOUS
 62
     7
 10
882
 20
-798.5
 11
899
 21
-798.5
  0
LINE
  8
0
  6
CONTINUOUS
 62
     7
 10
950
 20
-433.013427734375
 11
950
 21
-406.1065673828125
  0
LINE
  8
0
  6
CONTINUOUS
 62
     7
 10
877
 20
-478.3736572265625
 11
877
 21
-827.5
  0
LINE
  8
0
  6
CONTINUOUS
 62
     7
 10
855
 20
-827.5
 11
877
 21
-827.5
  0
LINE
  8
0
  6
CONTINUOUS
 62
     7
 10
855
 20
-472.5
 11
935
 21
-472.5
  0
LINE
  8
0
  6
CONTINUOUS
 62
     7
 10
942
 20
-403.56005859375
 11
942
 21
-435.56005859375
  0
LINE
  8
0
  6
CONTINUOUS
 62
     7
 10
935
 20
-472.5
 11
935
 21
-540.7249755859375
  0
LINE
  8
0
  6
CONTINUOUS
 62
     7
 10
950
 20
-433.013427734375
 11
942
 21
-432.763427734375
  0
LINE
  8
0
  6
CONTINUOUS
 62
     7
 10
950
 20
-406.1065673828125
 11
942
 21
-406.3565673828125
  0
LINE
  8
0
  6
CONTINUOUS
 62
     7
 10
961
 20
-430.75244140625
 11
950
 21
-430.75244140625
  0
LINE
  8
0
  6
CONTINUOUS
 62
     7
 10
961
 20
-408.3675537109375
 11
950
 21
-408.3675537109375
  0
LINE
  8
0
  6
CONTINUOUS
 62
     7
 10
961
 20
-419.56005859375
 11
950
 21
-419.56005859375
  0
LINE
  8
0
  6
CONTINUOUS
 62
     7
 10
961
 20
-408.3674621582031
 11
950
 21
-419.5598754882812
  0
LINE
  8
0
  6
CONTINUOUS
 62
     7
 10
960.9998779296875
 20
-419.5599670410156
 11
949.9998779296875
 21
-408.3675537109375
  0
LINE
  8
0
  6
CONTINUOUS
 62
     7
 10
950
 20
-419.5599060058594
 11
961
 21
-430.7522888183594
  0
LINE
  8
0
  6
CONTINUOUS
 62
     7
 10
950.0001220703125
 20
-430.752197265625
 11
961
 21
-419.5599060058594
  0
LINE
  8
0
  6
CONTINUOUS
 62
     7
 10
805
 20
-399.302734375
 11
805
 21
-480.8299255371094
  0
LINE
  8
0
  6
CONTINUOUS
 62
     7
 10
769.2111206054687
 20
-431
 11
839.8969116210938
 21
-431
  0
ARC
  8
0
  6
CONTINUOUS
 62
     7
 10
705.7060546875
 20
90.0068359375
 40
9.99999999999998
 50
234.4478861485543
 51
270.0000179860891
  0
ARC
  8
0
  6
CONTINUOUS
 62
     7
 10
705.7060546875
 20
-90.00677490234375
 40
9.999999999999995
 50
89.99998201391097
 51
125.5522504552292
  0
ARC
  8
0
  6
CONTINUOUS
 62
     7
 10
745
 20
139.48046875
 40
4.999999999999996
 50
248.3803587345459
 51
0
  0
ARC
  8
0
  6
CONTINUOUS
 62
     7
 10
745
 20
118.2672729492188
 40
4.999999999999982
 50
248.3803587345459
 51
0
  0
ARC
  8
0
  6
CONTINUOUS
 62
     7
 10
670
 20
169.204833984375
 40
4.999999999999943
 50
179.999991348578
 51
248.3803482618903
  0
ARC
  8
0
  6
CONTINUOUS
 62
     7
 10
670
 20
147.9916381835937
 40
4.999999999999943
 50
179.999991348578
 51
248.3803482618903
  0
ARC
  8
0
  6
CONTINUOUS
 62
     7
 10
745
 20
-139.48046875
 40
5
 50
0
 51
111.6196412654541
  0
ARC
  8
0
  6
CONTINUOUS
 62
     7
 10
745
 20
-118.2672729492188
 40
5
 50
0
 51
111.6196412654542
  0
ARC
  8
0
  6
CONTINUOUS
 62
     7
 10
670
 20
-147.9916381835937
 40
4.999999999999996
 50
111.6196412654541
 51
180.0000050089563
  0
ARC
  8
0
  6
CONTINUOUS
 62
     7
 10
670
 20
-169.204833984375
 40
4.999999999999996
 50
111.6196412654541
 51
180.0000050089563
  0
ARC
  8
0
  6
CONTINUOUS
 62
     7
 10
617.5
 20
0
 40
12.5
 50
270.0000179860895
 51
89.99998201391058
  0
CIRCLE
  8
0
  6
CONTINUOUS
 62
     7
 10
732
 20
0
 40
13.5
  0
ARC
  8
0
  6
CONTINUOUS
 62
     7
 10
805
 20
0
 40
20.0472869873047
 50
194.4426212363324
 51
345.557383999995
  0
ARC
  8
0
  6
CONTINUOUS
 62
     7
 10
805
 20
0
 40
12.5
 50
23.57817843000461
 51
156.4218368242355
  0
ARC
  8
0
  6
CONTINUOUS
 62
     7
 10
785
 20
0
 40
5
 50
89.99998201391031
 51
270.0000006832456
  0
ARC
  8
0
  6
CONTINUOUS
 62
     7
 10
825
 20
0
 40
5
 50
270.0000179860897
 51
89.99998201391031
  0
ARC
  8
0
  6
CONTINUOUS
 62
     7
 10
805
 20
0
 40
12.50000000000001
 50
203.5781631757645
 51
336.4218215699954
  0
ARC
  8
0
  6
CONTINUOUS
 62
     7
 10
805
 20
0
 40
20.04728698730464
 50
14.44260916981583
 51
165.5573787636676
  0
ARC
  8
0
  6
CONTINUOUS
 62
     7
 10
675
 20
-462.5
 40
9.999999999999963
 50
179.9999776881996
 51
270.0000280040023
  0
ARC
  8
0
  6
CONTINUOUS
 62
     7
 10
705.7060546875
 20
-559.9932861328125
 40
9.99999999999998
 50
234.4477495447707
 51
270.0000179860891
  0
ARC
  8
0
  6
CONTINUOUS
 62
     7
 10
705.7060546875
 20
-740.0067138671875
 40
10.00000000000004
 50
89.99998201391097
 51
125.5520592099326
  0
ARC
  8
0
  6
CONTINUOUS
 62
     7
 10
745
 20
-768.2672729492188
 40
5
 50
0
 51
111.6196412654544
  0
ARC
  8
0
  6
CONTINUOUS
 62
     7
 10
745
 20
-789.48046875
 40
5
 50
0
 51
111.6196412654544
  0
ARC
  8
0
  6
CONTINUOUS
 62
     7
 10
670
 20
-819.204833984375
 40
4.999999999999943
 50
111.6196412654544
 51
180.0000050089569
  0
ARC
  8
0
  6
CONTINUOUS
 62
     7
 10
670
 20
-797.9916381835938
 40
4.999999999999943
 50
111.6196412654544
 51
180.0000050089569
  0
ARC
  8
0
  6
CONTINUOUS
 62
     7
 10
670
 20
-480.795166015625
 40
4.999999999999943
 50
179.999991348578
 51
248.3803482618904
  0
ARC
  8
0
  6
CONTINUOUS
 62
     7
 10
670
 20
-502.0083618164062
 40
4.999999999999943
 50
179.999991348578
 51
248.3803482618904
  0
ARC
  8
0
  6
CONTINUOUS
 62
     7
 10
745
 20
-510.51953125
 40
4.999999999999943
 50
248.3803587345457
 51
0
  0
ARC
  8
0
  6
CONTINUOUS
 62
     7
 10
745
 20
-531.7327270507812
 40
4.999999999999943
 50
248.3803587345457
 51
0
  0
ARC
  8
0
  6
CONTINUOUS
 62
     7
 10
805
 20
-431
 40
25
 50
306.4238458862582
 51
233.5761318019415
  0
CIRCLE
  8
0
  6
CONTINUOUS
 62
     7
 10
805
 20
-431
 40
15
  0
ARC
  8
0
  6
CONTINUOUS
 62
     7
 10
795.76513671875
 20
-450
 40
1.999999999999985
 50
89.99998201391097
 51
170.0000206677889
  0
ARC
  8
0
  6
CONTINUOUS
 62
     7
 10
814.23486328125
 20
-450
 40
1.999999999999964
 50
9.999994586450628
 51
89.99998201391097
  0
ARC
  8
0
  6
CONTINUOUS
 62
     7
 10
786.5936279296875
 20
-455.9440612792969
 40
6.000000000000009
 50
349.8636347103541
 51
53.57615411374161
  0
ARC
  8
0
  6
CONTINUOUS
 62
     7
 10
823.4063720703125
 20
-455.9440612792969
 40
6.000000000000024
 50
126.4238645555929
 51
189.9999620293671
  0
CIRCLE
  8
0
  6
CONTINUOUS
 62
     3
 10
833
 20
-650
 40
8.507550239562988
  0
CIRCLE
  8
0
  6
CONTINUOUS
 62
     7
 10
0
 20
-650
 40
225
  0
ARC
  8
0
  6
CONTINUOUS
 62
     7
 10
0
 20
-650
 40
47.49999999999995
 50
105.2575454498303
 51
74.74246957703872
  0
ARC
  8
0
  6
CONTINUOUS
 62
     3
 10
0
 20
-650
 40
200
 50
333.5707059500407
 51
341.4592534225145
  0
CIRCLE
  8
0
  6
CONTINUOUS
 62
     7
 10
184.7759399414062
 20
-726.536865234375
 40
9.5
  0
CIRCLE
  8
0
  6
CONTINUOUS
 62
     7
 10
184.7759399414062
 20
-573.46337890625
 40
9.5
  0
ARC
  8
0
  6
CONTINUOUS
 62
     3
 10
0
 20
-650
 40
200
 50
18.57071915511085
 51
26.45925979739542
  0
CIRCLE
  8
0
  6
CONTINUOUS
 62
     7
 10
76.5367431640625
 20
-465.2240905761719
 40
9.5
  0
ARC
  8
0
  6
CONTINUOUS
 62
     3
 10
0
 20
-650
 40
200
 50
63.57071528470806
 51
71.45925592699263
  0
CIRCLE
  8
0
  6
CONTINUOUS
 62
     7
 10
-76.53662109375
 20
-465.2240600585938
 40
9.5
  0
ARC
  8
0
  6
CONTINUOUS
 62
     3
 10
0
 20
-650
 40
200
 50
108.5707131218526
 51
116.4592605943263
  0
CIRCLE
  8
0
  6
CONTINUOUS
 62
     7
 10
-184.77587890625
 20
-573.4632568359375
 40
9.5
  0
ARC
  8
0
  6
CONTINUOUS
 62
     3
 10
0
 20
-650
 40
200
 50
153.5707109589971
 51
161.4592516012816
  0
CIRCLE
  8
0
  6
CONTINUOUS
 62
     7
 10
-184.7760009765625
 20
-726.53662109375
 40
9.5
  0
ARC
  8
0
  6
CONTINUOUS
 62
     3
 10
0
 20
-650
 40
200
 50
198.5707192687964
 51
206.4592599110809
  0
CIRCLE
  8
0
  6
CONTINUOUS
 62
     7
 10
-76.536865234375
 20
-834.77587890625
 40
9.5
  0
ARC
  8
0
  6
CONTINUOUS
 62
     3
 10
0
 20
-650
 40
200
 50
243.5707102757517
 51
251.4592577482255
  0
CIRCLE
  8
0
  6
CONTINUOUS
 62
     7
 10
76.53656005859375
 20
-834.7760620117188
 40
9.5
  0
ARC
  8
0
  6
CONTINUOUS
 62
     3
 10
0
 20
-650
 40
200
 50
288.5707081128962
 51
296.4592555853699
  0
CIRCLE
  8
0
  6
CONTINUOUS
 62
     7
 10
0
 20
-650
 40
90
  0
CIRCLE
  8
0
  6
CONTINUOUS
 62
     7
 10
0
 20
-650
 40
132.5
  0
ARC
  8
0
  6
CONTINUOUS
 62
     7
 10
0
 20
-650
 40
175
 50
14.86316782267558
 51
185.1368263591828
  0
CIRCLE
  8
0
  6
CONTINUOUS
 62
     3
 10
0
 20
-650
 40
8
  0
CIRCLE
  8
0
  6
CONTINUOUS
 62
     7
 10
0
 20
-650
 40
7
  0
ARC
  8
0
  6
CONTINUOUS
 62
     7
 10
0
 20
-650
 40
165
 50
16.59408973006584
 51
183.4059061593399
  0
CIRCLE
  8
0
  6
CONTINUOUS
 62
     7
 10
-160.03125
 20
-678.2178344726563
 40
19
  0
CIRCLE
  8
0
  6
CONTINUOUS
 62
     7
 10
160.03125
 20
-621.7821655273437
 40
19
  0
ARC
  8
0
  6
CONTINUOUS
 62
     7
 10
0
 20
-650
 40
175
 50
194.8631696439084
 51
5.136832022397078
  0
ARC
  8
0
  6
CONTINUOUS
 62
     7
 10
0
 20
-650
 40
165
 50
196.5940898437514
 51
3.405909688119992
  0
ARC
  8
0
  6
CONTINUOUS
 62
     7
 10
-166
 20
-590.009033203125
 40
6.000000000000025
 50
54.63405479352847
 51
67.49996601986538
  0
ARC
  8
0
  6
CONTINUOUS
 62
     7
 10
882
 20
-153.5
 40
5.000000000000004
 50
90.00000250447782
 51
180.0000050089563
  0
ARC
  8
0
  6
CONTINUOUS
 62
     7
 10
909
 20
-125
 40
5.000000000000004
 50
90.00000250447782
 51
180.0000050089563
  0
ARC
  8
0
  6
CONTINUOUS
 62
     7
 10
985
 20
-125
 40
5
 50
0
 51
90.00000250447782
  0
ARC
  8
0
  6
CONTINUOUS
 62
     7
 10
899
 20
-143.5
 40
5.000000000000004
 50
269.9999974955222
 51
0
  0
ARC
  8
0
  6
CONTINUOUS
 62
     7
 10
899
 20
143.5
 40
5
 50
0
 51
90.00000250447782
  0
ARC
  8
0
  6
CONTINUOUS
 62
     7
 10
985
 20
125
 40
5.000000000000004
 50
269.9999974955222
 51
0
  0
ARC
  8
0
  6
CONTINUOUS
 62
     7
 10
909
 20
125
 40
4.999999999999943
 50
179.999991348578
 51
270.0000006832456
  0
ARC
  8
0
  6
CONTINUOUS
 62
     7
 10
882
 20
153.5
 40
4.999999999999943
 50
179.999991348578
 51
270.0000006832456
  0
ARC
  8
0
  6
CONTINUOUS
 62
     7
 10
910
 20
0
 40
16
 50
90.00000250447806
 51
270.0000006832454
  0
ARC
  8
0
  6
CONTINUOUS
 62
     7
 10
899
 20
-793.5
 40
5.000000000000004
 50
269.9999974955222
 51
0
  0
ARC
  8
0
  6
CONTINUOUS
 62
     7
 10
985
 20
-525
 40
5.000000000000004
 50
269.9999974955222
 51
0
  0
ARC
  8
0
  6
CONTINUOUS
 62
     7
 10
985
 20
-775
 40
5
 50
0
 51
90.00000250447782
  0
ARC
  8
0
  6
CONTINUOUS
 62
     7
 10
940
 20
-525
 40
4.999999999999943
 50
179.9999913485786
 51
270.0000006832456
  0
ARC
  8
0
  6
CONTINUOUS
 62
     7
 10
909
 20
-775
 40
5.000000000000004
 50
90.00000250447782
 51
180.0000050089569
  0
ARC
  8
0
  6
CONTINUOUS
 62
     7
 10
882
 20
-803.5
 40
5.000000000000004
 50
90.00000250447782
 51
180.0000050089569
  0
ARC
  8
0
  6
CONTINUOUS
 62
     7
 10
926
 20
-435.56005859375
 40
31.99999999999997
 50
90.00000250447806
 51
180.0000050089563
  0
ARC
  8
0
  6
CONTINUOUS
 62
     7
 10
931
 20
-440.56005859375
 40
5.000000000000004
 50
90.00000250447782
 51
180.0000050089563
  0
POLYLINE
  8
0
  6
CONTINUOUS
 62
     7
 66
     1
 10
0
 20
0
  0
VERTEX
  8
0
  6
CONTINUOUS
 62
     7
 10
632.0011872312218
 20
110.2675954269668
 42
-0.0997667608488097
  0
VERTEX
  8
0
  6
CONTINUOUS
 62
     7
 10
644.2704285915615
 20
86.5064686282446
 42
-0.06191153535550636
  0
VERTEX
  8
0
  6
CONTINUOUS
 62
     7
 10
648.5088584178297
 20
59.99300949213698
 42
-0.0290761281065847
  0
VERTEX
  8
0
  6
CONTINUOUS
 62
     7
 10
647.8377022739057
 20
33.09813250809201
 42
0.005408466366135648
  0
VERTEX
  8
0
  6
CONTINUOUS
 62
     7
 10
645.9008852844918
 20
6.249867672563959
 42
0.02393001135615349
  0
VERTEX
  8
0
  6
CONTINUOUS
 62
     7
 10
645.9334325391219
 20
-20.6587828516168
 42
-0.003105128370322935
  0
VERTEX
  8
0
  6
CONTINUOUS
 62
     7
 10
647.1044952710124
 20
-47.55184328345833
 42
-0.03121806729564453
  0
VERTEX
  8
0
  6
CONTINUOUS
 62
     7
 10
646.4334418684555
 20
-74.44466549727146
 42
-0.04386661126074926
  0
VERTEX
  8
0
  6
CONTINUOUS
 62
     7
 10
641.4992634302475
 20
-100.8723761917105
 42
-0.04471112530991426
  0
VERTEX
  8
0
  6
CONTINUOUS
 62
     7
 10
632.0000658848159
 20
-126.0213293568032
 42
0
  0
SEQEND
  8
0
  0
POLYLINE
  8
0
  6
CONTINUOUS
 62
     7
 66
     1
 10
0
 20
0
  0
VERTEX
  8
0
  6
CONTINUOUS
 62
     7
 10
631.9994920301355
 20
-505.5069501295717
 42
-0.2644326269996368
  0
VERTEX
  8
0
  6
CONTINUOUS
 62
     7
 10
648.1872835806142
 20
-523.8381373814453
 42
-0.06854697365971188
  0
VERTEX
  8
0
  6
CONTINUOUS
 62
     7
 10
647.2546241594615
 20
-549.2896236931485
 42
0.01629666087066212
  0
VERTEX
  8
0
  6
CONTINUOUS
 62
     7
 10
645.3136229000365
 20
-574.7761298487621
 42
0.01055544634422955
  0
VERTEX
  8
0
  6
CONTINUOUS
 62
     7
 10
644.7662635116354
 20
-600.3335560552608
 42
0.001925991637677493
  0
VERTEX
  8
0
  6
CONTINUOUS
 62
     7
 10
644.8694812085047
 20
-625.8972454239859
 42
-0.007108203117617376
  0
VERTEX
  8
0
  6
CONTINUOUS
 62
     7
 10
644.6979837645272
 20
-651.4599895377222
 42
0.004663514352172373
  0
VERTEX
  8
0
  6
CONTINUOUS
 62
     7
 10
644.2104778264385
 20
-677.0193891037113
 42
0.0251212041161284
  0
VERTEX
  8
0
  6
CONTINUOUS
 62
     7
 10
645.2366896234884
 20
-702.5527034668174
 42
-0.001802712672571223
  0
VERTEX
  8
0
  6
CONTINUOUS
 62
     7
 10
647.9368058882305
 20
-727.9734455537795
 42
-0.0835472247761314
  0
VERTEX
  8
0
  6
CONTINUOUS
 62
     7
 10
646.7529757199342
 20
-753.3868953012948
 42
-0.1909403768173553
  0
VERTEX
  8
0
  6
CONTINUOUS
 62
     7
 10
631.9993381559516
 20
-773.54305947508
 42
0
  0
SEQEND
  8
0
  0
TEXT
  8
0
  6
CONTINUOUS
 62
     7
 10
-234.2857208251953
 20
-20
 40
40
 41
0.8437661014112678
  1
ＥＲＫＶ－ＮＦ－５５００
  0
ENDSEC
  0
EOF
