  0
SECTION
  2
HEADER
  0
ENDSEC
  0
SECTION
  2
TABLES
  0
TABLE
  2
LTYPE
 70
    22
  0
LTYPE
  2
CONTINUOUS
 70
    64
  3
Solid line
 72
    65
 73
     0
 40
0.000000
  0
LTYPE
  2
DASHED
 70
    64
  3
__ __ __ __ __ __ __ __ __ __ __ __ __ __ __
 72
    65
 73
     2
 40
3.500000
 49
2.000000
 49
-1.500000
  0
LTYPE
  2
CENTER
 70
    64
  3
____ _ ____ _ ____ _ ____ _ ____ _ ____ _ ____
 72
    65
 73
     4
 40
17.500000
 49
13.000000
 49
-1.500000
 49
1.500000
 49
-1.500000
  0
LTYPE
  2
PHANTOM
 70
    64
  3
_____ _ _ _____ _ _ _____ _ _ _____ _ _ ____  
 72
    65
 73
     6
 40
15.500000
 49
8.000000
 49
-1.500000
 49
1.500000
 49
-1.500000
 49
1.500000
 49
-1.500000
  0
LTYPE
  2
DOT
 70
    64
  3
. . . . . . . . . . . . . . . . . . . . . . . .
 72
    65
 73
     2
 40
0.25
 49
0.0
 49
-0.25
  0
ENDTAB
  0
TABLE
  2
LAYER
 70
     1
  0
LAYER
  2
0
 70
     0
 62
     7
  6
CONTINUOUS
  0
ENDTAB
  0
TABLE
  2
STYLE
 70
     1
  0
STYLE
  2
STANDARD
 70
     0
 40
0.000000
 41
1.000000
 50
0.000000
 71
     0
 42
0.200000
  3
txt
  4
BIGFONT
  0
ENDTAB
  0
TABLE
  2
VIEW
 70
     0
  0
ENDTAB
  0
ENDSEC
  0
SECTION
  2
BLOCKS
  0
ENDSEC
  0
SECTION
  2
ENTITIES
  0
LINE
  8
0
  6
CONTINUOUS
 62
     3
 10
430
 20
0
 11
879
 21
0
  0
LINE
  8
0
  6
CONTINUOUS
 62
     7
 10
753
 20
148
 11
753
 21
-148
  0
LINE
  8
0
  6
CONTINUOUS
 62
     7
 10
674.9999389648437
 20
-144.9998016357422
 11
680
 21
-149.9998626708984
  0
LINE
  8
0
  6
CONTINUOUS
 62
     7
 10
748.0001831054688
 20
-150.0001220703125
 11
753.0001831054688
 21
-145.0001373291016
  0
LINE
  8
0
  6
CONTINUOUS
 62
     7
 10
680
 20
-150
 11
748
 21
-150
  0
LINE
  8
0
  6
CONTINUOUS
 62
     7
 10
680.0001831054688
 20
-143.6275329589844
 11
747.9999389648438
 21
-143.6275329589844
  0
LINE
  8
0
  6
CONTINUOUS
 62
     7
 10
680.0001831054688
 20
-132.1470336914063
 11
747.9999389648438
 21
-132.1470336914063
  0
LINE
  8
0
  6
CONTINUOUS
 62
     7
 10
680.0001831054688
 20
-121.9132690429687
 11
747.9999389648438
 21
-121.9132690429687
  0
LINE
  8
0
  6
CONTINUOUS
 62
     7
 10
680.0001831054688
 20
-112.5755615234375
 11
747.9999389648438
 21
-112.5755615234375
  0
LINE
  8
0
  6
CONTINUOUS
 62
     7
 10
680.0001831054688
 20
-99.12994384765625
 11
747.9999389648438
 21
-99.12994384765625
  0
LINE
  8
0
  6
CONTINUOUS
 62
     7
 10
680.0001831054688
 20
-43.25653076171875
 11
747.9999389648438
 21
-43.25653076171875
  0
LINE
  8
0
  6
CONTINUOUS
 62
     7
 10
680.0001831054688
 20
-25
 11
747.9999389648438
 21
-25
  0
LINE
  8
0
  6
CONTINUOUS
 62
     7
 10
680.0001831054688
 20
25.00006103515625
 11
747.9999389648438
 21
25.00006103515625
  0
LINE
  8
0
  6
CONTINUOUS
 62
     7
 10
680.0001831054688
 20
43.2567138671875
 11
747.9999389648438
 21
43.2567138671875
  0
LINE
  8
0
  6
CONTINUOUS
 62
     7
 10
680.0001831054688
 20
99.1300048828125
 11
747.9999389648438
 21
99.1300048828125
  0
LINE
  8
0
  6
CONTINUOUS
 62
     7
 10
680.0001831054688
 20
112.5756225585938
 11
747.9999389648438
 21
112.5756225585938
  0
LINE
  8
0
  6
CONTINUOUS
 62
     7
 10
680.0001831054688
 20
121.913330078125
 11
747.9999389648438
 21
121.913330078125
  0
LINE
  8
0
  6
CONTINUOUS
 62
     7
 10
680.0001831054688
 20
132.1470336914063
 11
747.9999389648438
 21
132.1470336914063
  0
LINE
  8
0
  6
CONTINUOUS
 62
     7
 10
680.0001831054688
 20
143.6275634765625
 11
747.9999389648438
 21
143.6275634765625
  0
LINE
  8
0
  6
CONTINUOUS
 62
     7
 10
680
 20
150.0000610351562
 11
748
 21
150.0000610351562
  0
LINE
  8
0
  6
CONTINUOUS
 62
     7
 10
747.999755859375
 20
150.0001373291016
 11
752.999755859375
 21
145.0001525878906
  0
LINE
  8
0
  6
CONTINUOUS
 62
     7
 10
675.0001220703125
 20
144.9998779296875
 11
680.0001220703125
 21
149.9998626708984
  0
LINE
  8
0
  6
CONTINUOUS
 62
     7
 10
682.9999389648438
 20
5
 11
722.9999389648438
 21
5
  0
LINE
  8
0
  6
CONTINUOUS
 62
     7
 10
682.9999389648438
 20
-5
 11
722.9999389648438
 21
-5
  0
LINE
  8
0
  6
CONTINUOUS
 62
     7
 10
675
 20
148
 11
675
 21
-148
  0
LINE
  8
0
  6
CONTINUOUS
 62
     7
 10
560
 20
200
 11
560
 21
90.97784423828125
  0
LINE
  8
0
  6
CONTINUOUS
 62
     7
 10
560
 20
-200
 11
585
 21
-200
  0
LINE
  8
0
  6
CONTINUOUS
 62
     7
 10
560
 20
200
 11
585
 21
200
  0
LINE
  8
0
  6
CONTINUOUS
 62
     7
 10
653
 20
148
 11
675
 21
148
  0
LINE
  8
0
  6
CONTINUOUS
 62
     7
 10
653
 20
-148
 11
675
 21
-148
  0
LINE
  8
0
  6
CONTINUOUS
 62
     7
 10
653
 20
148
 11
653
 21
20
  0
LINE
  8
0
  6
CONTINUOUS
 62
     7
 10
626.3798828125
 20
-62.3431396484375
 11
648
 21
-62.3431396484375
  0
LINE
  8
0
  6
CONTINUOUS
 62
     7
 10
626.3798828125
 20
62.3431396484375
 11
648
 21
62.3431396484375
  0
LINE
  8
0
  6
CONTINUOUS
 62
     7
 10
585
 20
-20
 11
653
 21
-20
  0
LINE
  8
0
  6
CONTINUOUS
 62
     7
 10
585
 20
20
 11
653
 21
20
  0
LINE
  8
0
  6
CONTINUOUS
 62
     7
 10
653
 20
-20
 11
653
 21
-148
  0
LINE
  8
0
  6
CONTINUOUS
 62
     7
 10
585.0001220703125
 20
148.0839996337891
 11
653.0000610351563
 21
111.1651916503906
  0
LINE
  8
0
  6
CONTINUOUS
 62
     7
 10
585.0000610351562
 20
126.8708190917969
 11
653.0001220703125
 21
89.95197296142578
  0
LINE
  8
0
  6
CONTINUOUS
 62
     7
 10
588.9332885742187
 20
88.34130859375
 11
620.3131713867187
 21
64.39366912841797
  0
LINE
  8
0
  6
CONTINUOUS
 62
     7
 10
588.9332885742187
 20
-88.34125518798828
 11
620.3131713867187
 21
-64.39362335205078
  0
LINE
  8
0
  6
CONTINUOUS
 62
     7
 10
584.9999389648438
 20
-126.8706436157227
 11
652.9999389648438
 21
-89.95179748535156
  0
LINE
  8
0
  6
CONTINUOUS
 62
     7
 10
585
 20
-148.0838165283203
 11
652.9999389648438
 21
-111.1650009155273
  0
LINE
  8
0
  6
CONTINUOUS
 62
     7
 10
585
 20
200
 11
585
 21
-200
  0
LINE
  8
0
  6
CONTINUOUS
 62
     7
 10
560
 20
42.5
 11
565.1341552734375
 21
42.5
  0
LINE
  8
0
  6
CONTINUOUS
 62
     7
 10
560
 20
-42.5
 11
566.2838134765625
 21
-42.5
  0
LINE
  8
0
  6
CONTINUOUS
 62
     7
 10
552
 20
150
 11
552
 21
97.3695068359375
  0
LINE
  8
0
  6
CONTINUOUS
 62
     7
 10
552
 20
150
 11
560
 21
150
  0
LINE
  8
0
  6
CONTINUOUS
 62
     7
 10
552
 20
-150
 11
560
 21
-150
  0
LINE
  8
0
  6
CONTINUOUS
 62
     7
 10
450
 20
37.5
 11
450
 21
-37.5
  0
LINE
  8
0
  6
CONTINUOUS
 62
     7
 10
450
 20
37.5
 11
560
 21
37.5
  0
LINE
  8
0
  6
CONTINUOUS
 62
     7
 10
450
 20
-37.5
 11
560
 21
-37.5
  0
LINE
  8
0
  6
CONTINUOUS
 62
     7
 10
552
 20
-94.56884765625
 11
552
 21
-150
  0
LINE
  8
0
  6
CONTINUOUS
 62
     7
 10
560
 20
-88.9996337890625
 11
560
 21
-200
  0
LINE
  8
0
  6
CONTINUOUS
 62
     7
 10
450
 20
-10
 11
545
 21
-10
  0
LINE
  8
0
  6
CONTINUOUS
 62
     7
 10
450
 20
10
 11
545
 21
10
  0
LINE
  8
0
  6
CONTINUOUS
 62
     7
 10
560
 20
42.4000244140625
 11
560
 21
-42.5
  0
LINE
  8
0
  6
CONTINUOUS
 62
     7
 10
633.4853515625
 20
-1.384585721098119E-05
 11
625.0001220703125
 21
8.485223770141602
  0
LINE
  8
0
  6
CONTINUOUS
 62
     7
 10
625.0000610351563
 20
8.485250473022461
 11
616.5147705078125
 21
-3.022053351742215E-05
  0
LINE
  8
0
  6
CONTINUOUS
 62
     7
 10
625
 20
-8.485371589660645
 11
616.5147705078125
 21
-0.0001327216741628945
  0
LINE
  8
0
  6
CONTINUOUS
 62
     7
 10
633.4852905273437
 20
-5.25124924024567E-05
 11
625
 21
-8.485332489013672
  0
LINE
  8
0
  6
CONTINUOUS
 62
     3
 10
625
 20
15.7276611328125
 11
625
 21
-15.8309326171875
  0
LINE
  8
0
  6
CONTINUOUS
 62
     7
 10
540
 20
10
 11
540
 21
-10
  0
LINE
  8
0
  6
CONTINUOUS
 62
     3
 10
731.0000610351562
 20
-139.9926147460938
 11
731.0000610351562
 21
-171.6517333984375
  0
LINE
  8
0
  6
CONTINUOUS
 62
     7
 10
722.9290161132813
 20
-164.6499938964844
 11
739.0711059570312
 21
-164.6499938964844
  0
LINE
  8
0
  6
CONTINUOUS
 62
     7
 10
722.4924926757813
 20
-155.6499938964844
 11
739.5076293945312
 21
-155.6499938964844
  0
LINE
  8
0
  6
CONTINUOUS
 62
     7
 10
722.4924926757813
 20
-155.6500091552734
 11
722.6690673828125
 21
-150
  0
LINE
  8
0
  6
CONTINUOUS
 62
     7
 10
739.5076293945312
 20
-155.6499938964844
 11
739.3310546875
 21
-150
  0
LINE
  8
0
  6
CONTINUOUS
 62
     7
 10
722.9290161132813
 20
-164.6499938964844
 11
722.9290161132813
 21
-155.6499938964844
  0
LINE
  8
0
  6
CONTINUOUS
 62
     7
 10
739.0711059570312
 20
-164.6499938964844
 11
739.0711059570312
 21
-155.6499938964844
  0
LINE
  8
0
  6
CONTINUOUS
 62
     7
 10
731.0000610351562
 20
-164.6499938964844
 11
731.0000610351562
 21
-155.6499938964844
  0
LINE
  8
0
  6
CONTINUOUS
 62
     3
 10
722.928955078125
 20
-155.6500244140625
 11
731
 21
-164.6499786376953
  0
LINE
  8
0
  6
CONTINUOUS
 62
     3
 10
722.928955078125
 20
-164.6499633789063
 11
731
 21
-155.6499633789062
  0
LINE
  8
0
  6
CONTINUOUS
 62
     3
 10
731
 20
-155.6500244140625
 11
739.0711059570312
 21
-164.6500244140625
  0
LINE
  8
0
  6
CONTINUOUS
 62
     3
 10
731
 20
-164.6499938964844
 11
739.0711059570312
 21
-155.6499938964844
  0
LINE
  8
0
  6
CONTINUOUS
 62
     3
 10
430
 20
-550
 11
859.5322875976562
 21
-550
  0
LINE
  8
0
  6
CONTINUOUS
 62
     7
 10
753
 20
-402
 11
753
 21
-698
  0
LINE
  8
0
  6
CONTINUOUS
 62
     7
 10
680
 20
-400
 11
748
 21
-400
  0
LINE
  8
0
  6
CONTINUOUS
 62
     7
 10
680
 20
-700
 11
748
 21
-700
  0
LINE
  8
0
  6
CONTINUOUS
 62
     7
 10
674.9999389648437
 20
-405.0000305175781
 11
680
 21
-400
  0
LINE
  8
0
  6
CONTINUOUS
 62
     7
 10
748
 20
-400.0000610351562
 11
753
 21
-405.0000610351563
  0
LINE
  8
0
  6
CONTINUOUS
 62
     7
 10
675
 20
-695
 11
680
 21
-700
  0
LINE
  8
0
  6
CONTINUOUS
 62
     7
 10
747.9999389648438
 20
-699.9999389648438
 11
752.9999389648437
 21
-695
  0
LINE
  8
0
  6
CONTINUOUS
 62
     7
 10
719
 20
-390.0000305175781
 11
687
 21
-390.0000305175781
  0
LINE
  8
0
  6
CONTINUOUS
 62
     7
 10
719
 20
-390.0000305175781
 11
722.6397094726562
 21
-400.0000305175781
  0
LINE
  8
0
  6
CONTINUOUS
 62
     7
 10
687
 20
-390.0001525878906
 11
683.3603515625
 21
-400
  0
LINE
  8
0
  6
CONTINUOUS
 62
     7
 10
680
 20
-406.3724670410156
 11
748
 21
-406.3724670410156
  0
LINE
  8
0
  6
CONTINUOUS
 62
     7
 10
680
 20
-437.4244689941406
 11
748
 21
-437.4244689941406
  0
LINE
  8
0
  6
CONTINUOUS
 62
     7
 10
680
 20
-450.8700866699219
 11
748
 21
-450.8700866699219
  0
LINE
  8
0
  6
CONTINUOUS
 62
     7
 10
680
 20
-462.6091613769531
 11
748
 21
-462.6091613769531
  0
LINE
  8
0
  6
CONTINUOUS
 62
     7
 10
680
 20
-479.0270385742187
 11
748
 21
-479.0270385742187
  0
LINE
  8
0
  6
CONTINUOUS
 62
     7
 10
680
 20
-506.7433471679687
 11
748
 21
-506.7433471679687
  0
LINE
  8
0
  6
CONTINUOUS
 62
     7
 10
680
 20
-525.5888671875
 11
748
 21
-525.5888671875
  0
LINE
  8
0
  6
CONTINUOUS
 62
     7
 10
680
 20
-540.4924926757813
 11
748
 21
-540.4924926757813
  0
LINE
  8
0
  6
CONTINUOUS
 62
     7
 10
680
 20
-559.5074462890625
 11
748
 21
-559.5074462890625
  0
LINE
  8
0
  6
CONTINUOUS
 62
     7
 10
680
 20
-574.4110107421875
 11
748
 21
-574.4110107421875
  0
LINE
  8
0
  6
CONTINUOUS
 62
     7
 10
680
 20
-593.256591796875
 11
748
 21
-593.256591796875
  0
LINE
  8
0
  6
CONTINUOUS
 62
     7
 10
680
 20
-620.9730224609375
 11
748
 21
-620.9730224609375
  0
LINE
  8
0
  6
CONTINUOUS
 62
     7
 10
680
 20
-637.3909301757812
 11
748
 21
-637.3909301757812
  0
LINE
  8
0
  6
CONTINUOUS
 62
     7
 10
680
 20
-649.1300048828125
 11
748
 21
-649.1300048828125
  0
LINE
  8
0
  6
CONTINUOUS
 62
     7
 10
680
 20
-662.5756225585938
 11
748
 21
-662.5756225585938
  0
LINE
  8
0
  6
CONTINUOUS
 62
     7
 10
680
 20
-671.9133911132812
 11
748
 21
-671.9133911132812
  0
LINE
  8
0
  6
CONTINUOUS
 62
     7
 10
680
 20
-682.14697265625
 11
748
 21
-682.14697265625
  0
LINE
  8
0
  6
CONTINUOUS
 62
     7
 10
680
 20
-693.6275634765625
 11
748
 21
-693.6275634765625
  0
LINE
  8
0
  6
CONTINUOUS
 62
     7
 10
690.5
 20
-387.0000305175781
 11
691.7955322265625
 21
-379.6527404785156
  0
LINE
  8
0
  6
CONTINUOUS
 62
     7
 10
714.2044067382813
 20
-379.6527099609375
 11
715.4999389648438
 21
-387.0000305175781
  0
LINE
  8
0
  6
CONTINUOUS
 62
     7
 10
693.76513671875
 20
-378.0000305175781
 11
712.23486328125
 21
-378.0000305175781
  0
LINE
  8
0
  6
CONTINUOUS
 62
     7
 10
693.341796875
 20
-378.0453186035156
 11
702.5767211914063
 21
-376.0453186035156
  0
LINE
  8
0
  6
CONTINUOUS
 62
     7
 10
703.4234008789063
 20
-376.0452880859375
 11
712.658203125
 21
-378.0452880859375
  0
LINE
  8
0
  6
CONTINUOUS
 62
     7
 10
690.5
 20
-387.0000305175781
 11
690.5
 21
-390.0000305175781
  0
LINE
  8
0
  6
CONTINUOUS
 62
     7
 10
715.5
 20
-387.0000305175781
 11
715.5
 21
-390.0000305175781
  0
LINE
  8
0
  6
CONTINUOUS
 62
     7
 10
675
 20
-402
 11
675
 21
-698
  0
LINE
  8
0
  6
CONTINUOUS
 62
     7
 10
560
 20
-350
 11
560
 21
-437.8723754882812
  0
LINE
  8
0
  6
CONTINUOUS
 62
     7
 10
560
 20
-750
 11
585
 21
-750
  0
LINE
  8
0
  6
CONTINUOUS
 62
     7
 10
560
 20
-350
 11
585
 21
-350
  0
LINE
  8
0
  6
CONTINUOUS
 62
     7
 10
585
 20
-350
 11
585
 21
-750
  0
LINE
  8
0
  6
CONTINUOUS
 62
     7
 10
595
 20
-402
 11
675
 21
-402
  0
LINE
  8
0
  6
CONTINUOUS
 62
     7
 10
653
 20
-698
 11
675
 21
-698
  0
LINE
  8
0
  6
CONTINUOUS
 62
     7
 10
653
 20
-402
 11
653
 21
-698
  0
LINE
  8
0
  6
CONTINUOUS
 62
     7
 10
626.3798828125
 20
-487.6568298339844
 11
648
 21
-487.6568298339844
  0
LINE
  8
0
  6
CONTINUOUS
 62
     7
 10
585.0000610351562
 20
-401.9160461425781
 11
653.0000610351563
 21
-438.8348999023438
  0
LINE
  8
0
  6
CONTINUOUS
 62
     7
 10
585.0000610351562
 20
-423.1293029785156
 11
653.0000610351563
 21
-460.0481262207031
  0
LINE
  8
0
  6
CONTINUOUS
 62
     7
 10
588.9332885742187
 20
-461.6587219238281
 11
620.3131713867187
 21
-485.6063842773438
  0
LINE
  8
0
  6
CONTINUOUS
 62
     7
 10
588.9332885742187
 20
-638.34130859375
 11
620.3131713867187
 21
-614.3936157226563
  0
LINE
  8
0
  6
CONTINUOUS
 62
     7
 10
626.3798828125
 20
-612.3431396484375
 11
648
 21
-612.3431396484375
  0
LINE
  8
0
  6
CONTINUOUS
 62
     7
 10
585.0000610351562
 20
-676.8706665039063
 11
653.0000610351563
 21
-639.9518432617188
  0
LINE
  8
0
  6
CONTINUOUS
 62
     7
 10
585.0000610351562
 20
-698.083984375
 11
653
 21
-661.1651000976562
  0
LINE
  8
0
  6
CONTINUOUS
 62
     7
 10
552
 20
-400
 11
552
 21
-429.2485961914063
  0
LINE
  8
0
  6
CONTINUOUS
 62
     7
 10
552
 20
-400
 11
560
 21
-400
  0
LINE
  8
0
  6
CONTINUOUS
 62
     7
 10
552
 20
-700
 11
560
 21
-700
  0
LINE
  8
0
  6
CONTINUOUS
 62
     7
 10
450
 20
-508
 11
450
 21
-587.5
  0
LINE
  8
0
  6
CONTINUOUS
 62
     7
 10
450
 20
-512.5
 11
560
 21
-512.5
  0
LINE
  8
0
  6
CONTINUOUS
 62
     7
 10
450
 20
-587.5
 11
560
 21
-587.5
  0
LINE
  8
0
  6
CONTINUOUS
 62
     7
 10
552
 20
-651.3932495117187
 11
552
 21
-700
  0
LINE
  8
0
  6
CONTINUOUS
 62
     7
 10
560
 20
-641.0530395507812
 11
560
 21
-750
  0
LINE
  8
0
  6
CONTINUOUS
 62
     7
 10
450
 20
-508
 11
540
 21
-508
  0
LINE
  8
0
  6
CONTINUOUS
 62
     7
 10
560
 20
-592.5
 11
567.0518188476562
 21
-592.5
  0
LINE
  8
0
  6
CONTINUOUS
 62
     7
 10
560
 20
-507.5
 11
563.872314453125
 21
-507.5
  0
LINE
  8
0
  6
CONTINUOUS
 62
     7
 10
560
 20
-507.6000061035156
 11
560
 21
-592.5
  0
LINE
  8
0
  6
CONTINUOUS
 62
     7
 10
611.5
 20
-364.7000122070312
 11
638.5
 21
-364.7000122070312
  0
LINE
  8
0
  6
CONTINUOUS
 62
     7
 10
616.3499755859375
 20
-364.7000122070312
 11
616.3499755859375
 21
-402
  0
LINE
  8
0
  6
CONTINUOUS
 62
     7
 10
633.6500244140625
 20
-364.7000122070312
 11
633.6500244140625
 21
-402
  0
LINE
  8
0
  6
CONTINUOUS
 62
     3
 10
625
 20
-310.0375671386719
 11
625
 21
-417
  0
LINE
  8
0
  6
CONTINUOUS
 62
     7
 10
611.5
 20
-332.7000122070313
 11
638.5
 21
-332.7000122070313
  0
LINE
  8
0
  6
CONTINUOUS
 62
     7
 10
633.071044921875
 20
-318.0500183105469
 11
616.928955078125
 21
-318.0500183105469
  0
LINE
  8
0
  6
CONTINUOUS
 62
     7
 10
633.507568359375
 20
-327.0500183105469
 11
616.492431640625
 21
-327.0500183105469
  0
LINE
  8
0
  6
CONTINUOUS
 62
     7
 10
633.507568359375
 20
-327.0500183105469
 11
633.3309936523438
 21
-332.7000122070313
  0
LINE
  8
0
  6
CONTINUOUS
 62
     7
 10
616.4923095703125
 20
-327.0499877929688
 11
616.6688842773438
 21
-332.6999816894531
  0
LINE
  8
0
  6
CONTINUOUS
 62
     7
 10
633.071044921875
 20
-318.0500183105469
 11
633.071044921875
 21
-327.0500183105469
  0
LINE
  8
0
  6
CONTINUOUS
 62
     7
 10
616.928955078125
 20
-318.0500183105469
 11
616.928955078125
 21
-327.0500183105469
  0
LINE
  8
0
  6
CONTINUOUS
 62
     7
 10
638.5
 20
-332.7000122070313
 11
638.5
 21
-364.7000122070312
  0
LINE
  8
0
  6
CONTINUOUS
 62
     7
 10
611.5
 20
-332.7000122070313
 11
611.5
 21
-364.7000122070312
  0
LINE
  8
0
  6
CONTINUOUS
 62
     3
 10
616.928955078125
 20
-327.0499877929688
 11
625
 21
-318.0499877929687
  0
LINE
  8
0
  6
CONTINUOUS
 62
     7
 10
625
 20
-318.0500183105469
 11
625
 21
-327.0500183105469
  0
LINE
  8
0
  6
CONTINUOUS
 62
     3
 10
625
 20
-327.0499572753906
 11
633.071044921875
 21
-318.0500183105469
  0
LINE
  8
0
  6
CONTINUOUS
 62
     3
 10
633.071044921875
 20
-327.0499877929688
 11
625.0000610351563
 21
-318.0500183105469
  0
LINE
  8
0
  6
CONTINUOUS
 62
     3
 10
616.9290161132812
 20
-318.0499877929687
 11
625.0000610351563
 21
-327.0499572753906
  0
LINE
  8
0
  6
CONTINUOUS
 62
     7
 10
540
 20
-508
 11
540
 21
-512.5
  0
LINE
  8
0
  6
CONTINUOUS
 62
     7
 10
730.9999389648438
 20
-541.5145874023438
 11
722.5146484375
 21
-549.9998779296875
  0
LINE
  8
0
  6
CONTINUOUS
 62
     7
 10
739.4853515625
 20
-549.9999389648437
 11
731.0000610351562
 21
-541.5146484375
  0
LINE
  8
0
  6
CONTINUOUS
 62
     3
 10
731
 20
-539.492431640625
 11
731
 21
-560.507568359375
  0
LINE
  8
0
  6
CONTINUOUS
 62
     7
 10
731.0000610351562
 20
-558.4853515625
 11
722.5147705078125
 21
-550.0000610351562
  0
LINE
  8
0
  6
CONTINUOUS
 62
     7
 10
739.4852294921875
 20
-550
 11
730.9999389648438
 21
-558.4852905273437
  0
LINE
  8
0
  6
CONTINUOUS
 62
     3
 10
0
 20
-305.25
 11
0
 21
-770
  0
LINE
  8
0
  6
CONTINUOUS
 62
     3
 10
-220
 20
-550
 11
220
 21
-550
  0
LINE
  8
0
  6
CONTINUOUS
 62
     7
 10
-10
 20
-508
 11
-10
 21
-520
  0
LINE
  8
0
  6
CONTINUOUS
 62
     7
 10
10
 20
-508
 11
10
 21
-520
  0
LINE
  8
0
  6
CONTINUOUS
 62
     7
 10
-10
 20
-520
 11
10
 21
-520
  0
LINE
  8
0
  6
CONTINUOUS
 62
     7
 10
-10
 20
-508
 11
10
 21
-508
  0
LINE
  8
0
  6
CONTINUOUS
 62
     3
 10
149.4212036132813
 20
-611.8924560546875
 11
173.5414276123047
 21
-621.8834228515625
  0
LINE
  8
0
  6
CONTINUOUS
 62
     3
 10
149.4212646484375
 20
-488.1076354980469
 11
173.5415344238281
 21
-478.11669921875
  0
LINE
  8
0
  6
CONTINUOUS
 62
     3
 10
61.89229965209961
 20
-400.5787963867187
 11
71.88324737548828
 21
-376.45849609375
  0
LINE
  8
0
  6
CONTINUOUS
 62
     3
 10
-61.89223098754883
 20
-400.5787658691406
 11
-71.8831787109375
 21
-376.4584655761719
  0
LINE
  8
0
  6
CONTINUOUS
 62
     3
 10
-149.4211883544922
 20
-488.1076354980469
 11
-173.5414123535156
 21
-478.1167297363281
  0
LINE
  8
0
  6
CONTINUOUS
 62
     3
 10
-149.4212493896484
 20
-611.8922119140625
 11
-173.5414733886719
 21
-621.8831787109375
  0
LINE
  8
0
  6
CONTINUOUS
 62
     3
 10
-61.89248657226562
 20
-699.4210815429688
 11
-71.88341522216797
 21
-723.5413208007813
  0
LINE
  8
0
  6
CONTINUOUS
 62
     3
 10
61.89203262329102
 20
-699.4213256835937
 11
71.88294982910156
 21
-723.5415649414062
  0
LINE
  8
0
  6
CONTINUOUS
 62
     7
 10
-13.5
 20
-332.7000122070313
 11
13.5
 21
-332.7000122070313
  0
LINE
  8
0
  6
CONTINUOUS
 62
     7
 10
8.071044921875
 20
-318.0500183105469
 11
-8.071044921875
 21
-318.0500183105469
  0
LINE
  8
0
  6
CONTINUOUS
 62
     7
 10
8.507568359375
 20
-327.0500183105469
 11
-8.507568359375
 21
-327.0500183105469
  0
LINE
  8
0
  6
CONTINUOUS
 62
     7
 10
8.507533073425293
 20
-327.0499877929688
 11
8.330971717834473
 21
-332.6999816894531
  0
LINE
  8
0
  6
CONTINUOUS
 62
     7
 10
-8.507612228393555
 20
-327.050048828125
 11
-8.331049919128418
 21
-332.7000427246094
  0
LINE
  8
0
  6
CONTINUOUS
 62
     7
 10
8.071044921875
 20
-318.0500183105469
 11
8.071044921875
 21
-327.0500183105469
  0
LINE
  8
0
  6
CONTINUOUS
 62
     7
 10
-8.071044921875
 20
-318.0500183105469
 11
-8.071044921875
 21
-327.0500183105469
  0
LINE
  8
0
  6
CONTINUOUS
 62
     7
 10
13.5
 20
-332.7000122070313
 11
13.5
 21
-350.4561462402344
  0
LINE
  8
0
  6
CONTINUOUS
 62
     7
 10
-13.5
 20
-332.7000122070313
 11
-13.5
 21
-350.4561462402344
  0
LINE
  8
0
  6
CONTINUOUS
 62
     3
 10
-8.071043014526367
 20
-327.0500183105469
 11
3.621029463829473E-06
 21
-318.0500183105469
  0
LINE
  8
0
  6
CONTINUOUS
 62
     3
 10
-8.071052551269531
 20
-318.0500183105469
 11
3.983222541137366E-06
 21
-327.0500183105469
  0
LINE
  8
0
  6
CONTINUOUS
 62
     3
 10
1.639154470467474E-05
 20
-327.0500183105469
 11
8.071052551269531
 21
-318.0500183105469
  0
LINE
  8
0
  6
CONTINUOUS
 62
     3
 10
8.071042060852051
 20
-327.0500183105469
 11
2.576858241809532E-05
 21
-318.0500793457031
  0
LINE
  8
0
  6
CONTINUOUS
 62
     7
 10
0
 20
-318.0500183105469
 11
0
 21
-327.0500183105469
  0
LINE
  8
0
  6
CONTINUOUS
 62
     7
 10
773
 20
148
 11
773
 21
40.57962036132812
  0
LINE
  8
0
  6
CONTINUOUS
 62
     7
 10
859
 20
-11.19244384765625
 11
859
 21
11.19244384765625
  0
LINE
  8
0
  6
CONTINUOUS
 62
     7
 10
753
 20
-148
 11
773
 21
-148
  0
LINE
  8
0
  6
CONTINUOUS
 62
     7
 10
833
 20
30
 11
833
 21
15.99993896484375
  0
LINE
  8
0
  6
CONTINUOUS
 62
     7
 10
840
 20
15.99993896484375
 11
840
 21
-16.00006103515625
  0
LINE
  8
0
  6
CONTINUOUS
 62
     7
 10
808
 20
25.97744178771973
 11
808
 21
-25.4776439666748
  0
LINE
  8
0
  6
CONTINUOUS
 62
     7
 10
808
 20
-16.00006103515625
 11
840
 21
-16.00006103515625
  0
LINE
  8
0
  6
CONTINUOUS
 62
     7
 10
773
 20
40.57962417602539
 11
833
 21
30.00000381469727
  0
LINE
  8
0
  6
CONTINUOUS
 62
     7
 10
773
 20
-40.57962036132812
 11
833
 21
-30.00000190734863
  0
LINE
  8
0
  6
CONTINUOUS
 62
     7
 10
773
 20
-40.57962036132812
 11
773
 21
-148
  0
LINE
  8
0
  6
CONTINUOUS
 62
     7
 10
773
 20
-120
 11
838
 21
-120
  0
LINE
  8
0
  6
CONTINUOUS
 62
     7
 10
838
 20
120
 11
838
 21
15.99993896484375
  0
LINE
  8
0
  6
CONTINUOUS
 62
     7
 10
773
 20
120
 11
838
 21
120
  0
LINE
  8
0
  6
CONTINUOUS
 62
     7
 10
753
 20
148
 11
773
 21
148
  0
LINE
  8
0
  6
CONTINUOUS
 62
     7
 10
848
 20
-13.45343017578125
 11
848
 21
13.45343017578125
  0
LINE
  8
0
  6
CONTINUOUS
 62
     7
 10
848
 20
-13.45348739624023
 11
840
 21
-13.20348739624023
  0
LINE
  8
0
  6
CONTINUOUS
 62
     7
 10
848
 20
13.45341300964355
 11
840
 21
13.20341300964355
  0
LINE
  8
0
  6
CONTINUOUS
 62
     7
 10
859
 20
-11.19244384765625
 11
848
 21
-11.19244384765625
  0
LINE
  8
0
  6
CONTINUOUS
 62
     7
 10
859
 20
11.19244384765625
 11
848
 21
11.19244384765625
  0
LINE
  8
0
  6
CONTINUOUS
 62
     7
 10
859
 20
-6.103515625E-05
 11
848
 21
-6.103515625E-05
  0
LINE
  8
0
  6
CONTINUOUS
 62
     7
 10
858.9999389648438
 20
11.19239234924316
 11
847.9999389648438
 21
-8.093893484328873E-06
  0
LINE
  8
0
  6
CONTINUOUS
 62
     7
 10
859
 20
-8.865866220730823E-06
 11
848
 21
11.19239044189453
  0
LINE
  8
0
  6
CONTINUOUS
 62
     7
 10
848.0000610351562
 20
5.325963866198435E-05
 11
859.0000610351563
 21
-11.19234561920166
  0
LINE
  8
0
  6
CONTINUOUS
 62
     7
 10
848.0000610351562
 20
-11.19234371185303
 11
859
 21
-3.017328162968624E-05
  0
LINE
  8
0
  6
CONTINUOUS
 62
     7
 10
808
 20
15.99993896484375
 11
840
 21
15.99993896484375
  0
LINE
  8
0
  6
CONTINUOUS
 62
     7
 10
838
 20
-16.00006103515625
 11
838
 21
-120
  0
LINE
  8
0
  6
CONTINUOUS
 62
     7
 10
833
 20
-16.00006103515625
 11
833
 21
-30
  0
LINE
  8
0
  6
CONTINUOUS
 62
     7
 10
773
 20
-406.4696044921875
 11
773
 21
-698
  0
LINE
  8
0
  6
CONTINUOUS
 62
     7
 10
753
 20
-698
 11
773
 21
-698
  0
LINE
  8
0
  6
CONTINUOUS
 62
     7
 10
753
 20
-402
 11
833
 21
-402
  0
LINE
  8
0
  6
CONTINUOUS
 62
     7
 10
808
 20
-319.2567138671875
 11
808
 21
-410.1129150390625
  0
LINE
  8
0
  6
CONTINUOUS
 62
     7
 10
840
 20
-333.06005859375
 11
824
 21
-333.06005859375
  0
LINE
  8
0
  6
CONTINUOUS
 62
     7
 10
864
 20
-349.06005859375
 11
789.802490234375
 21
-349.06005859375
  0
LINE
  8
0
  6
CONTINUOUS
 62
     7
 10
840
 20
-365.06005859375
 11
829
 21
-365.06005859375
  0
LINE
  8
0
  6
CONTINUOUS
 62
     7
 10
824
 20
-370.06005859375
 11
824
 21
-381.06005859375
  0
LINE
  8
0
  6
CONTINUOUS
 62
     7
 10
792
 20
-365.06005859375
 11
792
 21
-381.06005859375
  0
LINE
  8
0
  6
CONTINUOUS
 62
     7
 10
840
 20
-333.06005859375
 11
840
 21
-365.06005859375
  0
LINE
  8
0
  6
CONTINUOUS
 62
     7
 10
824
 20
-381.06005859375
 11
792
 21
-381.06005859375
  0
LINE
  8
0
  6
CONTINUOUS
 62
     7
 10
794.5
 20
-381.06005859375
 11
794.5
 21
-402
  0
LINE
  8
0
  6
CONTINUOUS
 62
     7
 10
821.5
 20
-381.06005859375
 11
821.5
 21
-402
  0
LINE
  8
0
  6
CONTINUOUS
 62
     7
 10
859
 20
-360.25244140625
 11
859
 21
-337.8675537109375
  0
LINE
  8
0
  6
CONTINUOUS
 62
     7
 10
848
 20
-362.513427734375
 11
848
 21
-335.6065673828125
  0
LINE
  8
0
  6
CONTINUOUS
 62
     7
 10
848
 20
-362.5134887695313
 11
840
 21
-362.2634887695313
  0
LINE
  8
0
  6
CONTINUOUS
 62
     7
 10
848
 20
-335.6065979003906
 11
840
 21
-335.8565979003906
  0
LINE
  8
0
  6
CONTINUOUS
 62
     7
 10
859
 20
-360.25244140625
 11
848
 21
-360.25244140625
  0
LINE
  8
0
  6
CONTINUOUS
 62
     7
 10
859
 20
-337.8675537109375
 11
848
 21
-337.8675537109375
  0
LINE
  8
0
  6
CONTINUOUS
 62
     7
 10
859
 20
-349.06005859375
 11
848
 21
-349.06005859375
  0
LINE
  8
0
  6
CONTINUOUS
 62
     7
 10
859
 20
-337.8676147460938
 11
848
 21
-349.0599975585937
  0
LINE
  8
0
  6
CONTINUOUS
 62
     7
 10
859
 20
-349.0599975585937
 11
848
 21
-337.8676147460938
  0
LINE
  8
0
  6
CONTINUOUS
 62
     7
 10
848.0000610351562
 20
-349.0599365234375
 11
859.0000610351563
 21
-360.2523498535156
  0
LINE
  8
0
  6
CONTINUOUS
 62
     7
 10
848.0000610351562
 20
-360.2523498535156
 11
859
 21
-349.0600280761719
  0
LINE
  8
0
  6
CONTINUOUS
 62
     7
 10
833
 20
-430
 11
838
 21
-430
  0
LINE
  8
0
  6
CONTINUOUS
 62
     7
 10
773
 20
-670
 11
838
 21
-670
  0
LINE
  8
0
  6
CONTINUOUS
 62
     7
 10
838
 20
-430
 11
838
 21
-670
  0
LINE
  8
0
  6
CONTINUOUS
 62
     7
 10
833
 20
-402
 11
833
 21
-434.124755859375
  0
LINE
  8
0
  6
CONTINUOUS
 62
     7
 10
776.4271850585937
 20
-435.31982421875
 11
827.7868041992188
 21
-435.31982421875
  0
LINE
  8
0
  6
CONTINUOUS
 62
     7
 10
-16
 20
-349.06005859375
 11
-16
 21
-350.6410217285156
  0
LINE
  8
0
  6
CONTINUOUS
 62
     7
 10
16
 20
-349.06005859375
 11
16
 21
-350.6410217285156
  0
LINE
  8
0
  6
CONTINUOUS
 62
     7
 10
-22.5
 20
-349.06005859375
 11
22.5
 21
-349.06005859375
  0
LINE
  8
0
  6
CONTINUOUS
 62
     7
 10
665.54541015625
 20
-361.0000305175781
 11
741.3009033203125
 21
-361.0000305175781
  0
LINE
  8
0
  6
CONTINUOUS
 62
     7
 10
703
 20
-327.7119750976562
 11
703
 21
-403.4674682617187
  0
ARC
  8
0
  6
CONTINUOUS
 62
     7
 10
703
 20
0
 40
20.13370323181152
 50
14.37929160866249
 51
165.620708277652
  0
ARC
  8
0
  6
CONTINUOUS
 62
     7
 10
702.9999389648437
 20
0
 40
12.5
 50
23.57817843000461
 51
156.4218368242355
  0
ARC
  8
0
  6
CONTINUOUS
 62
     7
 10
722.9999389648438
 20
0
 40
5
 50
270.0000179860897
 51
89.99998201391031
  0
ARC
  8
0
  6
CONTINUOUS
 62
     7
 10
682.9999389648438
 20
0
 40
5
 50
89.99998201391031
 51
270.0000006832456
  0
ARC
  8
0
  6
CONTINUOUS
 62
     7
 10
702.9999389648437
 20
0
 40
12.50000000000001
 50
203.5781631757645
 51
336.4218215699954
  0
ARC
  8
0
  6
CONTINUOUS
 62
     7
 10
703
 20
0
 40
20.13370323181157
 50
194.379291722348
 51
345.6207083913375
  0
ARC
  8
0
  6
CONTINUOUS
 62
     7
 10
626.3798828125
 20
72.3431396484375
 40
9.999999999999998
 50
232.6508497175454
 51
269.9999974955215
  0
ARC
  8
0
  6
CONTINUOUS
 62
     7
 10
595
 20
96.29083251953125
 40
10
 50
179.999991348578
 51
232.6508597354581
  0
ARC
  8
0
  6
CONTINUOUS
 62
     7
 10
648
 20
67.3431396484375
 40
4.999999999999997
 50
269.9999974955222
 51
0
  0
ARC
  8
0
  6
CONTINUOUS
 62
     7
 10
626.3798828125
 20
-72.3431396484375
 40
10
 50
90.00000250447847
 51
127.3491502824545
  0
ARC
  8
0
  6
CONTINUOUS
 62
     7
 10
648
 20
-67.3431396484375
 40
5
 50
0
 51
90.00000250447782
  0
ARC
  8
0
  6
CONTINUOUS
 62
     7
 10
595
 20
-96.29083251953125
 40
10.00000000000001
 50
127.3491502824545
 51
180.0000050089563
  0
ARC
  8
0
  6
CONTINUOUS
 62
     7
 10
545
 20
0
 40
10
 50
270.0000179860891
 51
89.99998201391097
  0
CIRCLE
  8
0
  6
CONTINUOUS
 62
     7
 10
625
 20
0
 40
13.5
  0
ARC
  8
0
  6
CONTINUOUS
 62
     7
 10
703
 20
-361.0000305175781
 40
25
 50
306.4238458862582
 51
233.5761318019415
  0
CIRCLE
  8
0
  6
CONTINUOUS
 62
     7
 10
703
 20
-361.0000305175781
 40
15
  0
ARC
  8
0
  6
CONTINUOUS
 62
     7
 10
693.76513671875
 20
-380.0000305175781
 40
1.999999999999985
 50
89.99998201391097
 51
170.0000206677889
  0
ARC
  8
0
  6
CONTINUOUS
 62
     7
 10
712.23486328125
 20
-380.0000305175781
 40
1.999999999999964
 50
9.999994586450628
 51
89.99998201391097
  0
ARC
  8
0
  6
CONTINUOUS
 62
     7
 10
684.5936279296875
 20
-385.944091796875
 40
6.000000000000009
 50
349.8636347103541
 51
53.57615411374161
  0
ARC
  8
0
  6
CONTINUOUS
 62
     7
 10
721.4063720703125
 20
-385.944091796875
 40
6.000000000000024
 50
126.4238645555929
 51
189.9999620293671
  0
ARC
  8
0
  6
CONTINUOUS
 62
     7
 10
595
 20
-392
 40
10
 50
179.999991348578
 51
270.0000006832456
  0
ARC
  8
0
  6
CONTINUOUS
 62
     7
 10
595
 20
-646.2908325195312
 40
9.999999999999964
 50
127.3491502824547
 51
180.0000050089563
  0
ARC
  8
0
  6
CONTINUOUS
 62
     7
 10
626.3798828125
 20
-477.6568298339844
 40
10.00000000000001
 50
232.6508497175455
 51
269.9999974955215
  0
ARC
  8
0
  6
CONTINUOUS
 62
     7
 10
595
 20
-453.7091979980469
 40
10
 50
179.999991348578
 51
232.650859735458
  0
ARC
  8
0
  6
CONTINUOUS
 62
     7
 10
648
 20
-482.6568298339844
 40
5.000000000000004
 50
269.9999974955222
 51
0
  0
ARC
  8
0
  6
CONTINUOUS
 62
     7
 10
626.3798828125
 20
-622.3431396484375
 40
10.00000000000001
 50
90.00000250447847
 51
127.3491502824547
  0
ARC
  8
0
  6
CONTINUOUS
 62
     7
 10
648
 20
-617.3431396484375
 40
5
 50
0
 51
90.00000250447782
  0
CIRCLE
  8
0
  6
CONTINUOUS
 62
     3
 10
731
 20
-550
 40
8.507550239562988
  0
CIRCLE
  8
0
  6
CONTINUOUS
 62
     7
 10
0
 20
-550
 40
200
  0
ARC
  8
0
  6
CONTINUOUS
 62
     7
 10
0
 20
-550
 40
37.50000000000002
 50
105.4660233138666
 51
74.53398488281326
  0
ARC
  8
0
  6
CONTINUOUS
 62
     3
 10
0
 20
-550
 40
175
 50
333.6566024090428
 51
341.8562240170756
  0
CIRCLE
  8
0
  6
CONTINUOUS
 62
     7
 10
161.678955078125
 20
-616.9696044921875
 40
9.5
  0
ARC
  8
0
  6
CONTINUOUS
 62
     3
 10
0
 20
-550
 40
175
 50
18.6566224443021
 51
26.85623892969302
  0
CIRCLE
  8
0
  6
CONTINUOUS
 62
     7
 10
161.6788940429688
 20
-483.0303955078125
 40
9.5
  0
ARC
  8
0
  6
CONTINUOUS
 62
     3
 10
0
 20
-550
 40
175
 50
63.65661857389931
 51
71.85624018193211
  0
CIRCLE
  8
0
  6
CONTINUOUS
 62
     7
 10
66.9696044921875
 20
-388.3211059570313
 40
9.5
  0
ARC
  8
0
  6
CONTINUOUS
 62
     3
 10
0
 20
-550
 40
175
 50
108.6566164110438
 51
116.8562311888874
  0
CIRCLE
  8
0
  6
CONTINUOUS
 62
     7
 10
-66.9696044921875
 20
-388.3211059570313
 40
9.5
  0
ARC
  8
0
  6
CONTINUOUS
 62
     3
 10
0
 20
-550
 40
175
 50
153.6566074179991
 51
161.8562221958428
  0
CIRCLE
  8
0
  6
CONTINUOUS
 62
     7
 10
-161.678955078125
 20
-483.0303955078125
 40
9.5
  0
ARC
  8
0
  6
CONTINUOUS
 62
     3
 10
0
 20
-550
 40
175
 50
198.6566157277985
 51
206.8562305056421
  0
CIRCLE
  8
0
  6
CONTINUOUS
 62
     7
 10
-161.678955078125
 20
-616.9696044921875
 40
9.5
  0
ARC
  8
0
  6
CONTINUOUS
 62
     3
 10
0
 20
-550
 40
175
 50
243.6566067347538
 51
251.8562283427866
  0
CIRCLE
  8
0
  6
CONTINUOUS
 62
     7
 10
-66.9696044921875
 20
-711.678955078125
 40
9.5
  0
ARC
  8
0
  6
CONTINUOUS
 62
     3
 10
0
 20
-550
 40
175.0000000000001
 50
288.6566045718983
 51
296.8562261799311
  0
CIRCLE
  8
0
  6
CONTINUOUS
 62
     7
 10
66.9696044921875
 20
-711.678955078125
 40
9.5
  0
CIRCLE
  8
0
  6
CONTINUOUS
 62
     7
 10
0
 20
-550
 40
75
  0
CIRCLE
  8
0
  6
CONTINUOUS
 62
     7
 10
0
 20
-550
 40
110
  0
CIRCLE
  8
0
  6
CONTINUOUS
 62
     3
 10
0
 20
-550
 40
8
  0
CIRCLE
  8
0
  6
CONTINUOUS
 62
     7
 10
0
 20
-550
 40
7
  0
ARC
  8
0
  6
CONTINUOUS
 62
     7
 10
0
 20
-550
 40
150
 50
13.00753690632465
 51
186.9924658132702
  0
ARC
  8
0
  6
CONTINUOUS
 62
     7
 10
0
 20
-550
 40
142
 50
16.87726083531811
 51
183.1227401767295
  0
CIRCLE
  8
0
  6
CONTINUOUS
 62
     7
 10
-130.4869995117188
 20
-573.0083618164062
 40
19
  0
CIRCLE
  8
0
  6
CONTINUOUS
 62
     7
 10
130.4869995117188
 20
-526.9915771484375
 40
19
  0
ARC
  8
0
  6
CONTINUOUS
 62
     7
 10
0
 20
-550
 40
142
 50
196.8772558263618
 51
3.122739223197954
  0
ARC
  8
0
  6
CONTINUOUS
 62
     7
 10
0
 20
-550
 40
150
 50
193.0075438501993
 51
6.992462938748019
  0
ARC
  8
0
  6
CONTINUOUS
 62
     7
 10
808
 20
-6.103515625E-05
 40
16
 50
90.00000250447806
 51
270.0000006832454
  0
ARC
  8
0
  6
CONTINUOUS
 62
     7
 10
824
 20
-365.06005859375
 40
31.99999999999997
 50
90.00000250447806
 51
180.0000050089563
  0
ARC
  8
0
  6
CONTINUOUS
 62
     7
 10
829
 20
-370.06005859375
 40
5.000000000000004
 50
90.00000250447782
 51
180.0000050089563
  0
ARC
  8
0
  6
CONTINUOUS
 62
     7
 10
0
 20
-349.06005859375
 40
16
 50
0
 51
32.46174444567117
  0
ARC
  8
0
  6
CONTINUOUS
 62
     7
 10
0
 20
-349.06005859375
 40
16
 50
147.5382605632851
 51
180.0000050089563
  0
POLYLINE
  8
0
  6
CONTINUOUS
 62
     7
 66
     1
 10
0
 20
0
  0
VERTEX
  8
0
  6
CONTINUOUS
 62
     7
 10
552.0004853474954
 20
97.36923259784126
 42
-0.2005716000776518
  0
VERTEX
  8
0
  6
CONTINUOUS
 62
     7
 10
565.9153947793135
 20
80.30384650547965
 42
-0.08979221175604229
  0
VERTEX
  8
0
  6
CONTINUOUS
 62
     7
 10
566.7932810270553
 20
57.85379265402825
 42
0.01006560156098885
  0
VERTEX
  8
0
  6
CONTINUOUS
 62
     7
 10
564.5456143214169
 20
35.37202938485723
 42
0.01797330539969634
  0
VERTEX
  8
0
  6
CONTINUOUS
 62
     7
 10
563.7961281656823
 20
12.79354197353022
 42
0.0131126102188373
  0
VERTEX
  8
0
  6
CONTINUOUS
 62
     7
 10
564.4686457945728
 20
-9.789904443707279
 42
0.000180532038942718
  0
VERTEX
  8
0
  6
CONTINUOUS
 62
     7
 10
565.8135932209773
 20
-32.34514858251024
 42
-0.01242988914959938
  0
VERTEX
  8
0
  6
CONTINUOUS
 62
     7
 10
566.5531327550588
 20
-54.92570087252365
 42
-0.05260470440110059
  0
VERTEX
  8
0
  6
CONTINUOUS
 62
     7
 10
564.952114510626
 20
-77.41982139447839
 42
-0.2794032111900129
  0
VERTEX
  8
0
  6
CONTINUOUS
 62
     7
 10
552.0011119371985
 20
-94.5684117123959
 42
0
  0
SEQEND
  8
0
  0
POLYLINE
  8
0
  6
CONTINUOUS
 62
     7
 66
     1
 10
0
 20
0
  0
VERTEX
  8
0
  6
CONTINUOUS
 62
     7
 10
552.0004784336098
 20
-429.2489833012394
 42
-0.1887441510142563
  0
VERTEX
  8
0
  6
CONTINUOUS
 62
     7
 10
565.0519316582208
 20
-450.6487900503292
 42
-0.0603812340718657
  0
VERTEX
  8
0
  6
CONTINUOUS
 62
     7
 10
565.6954102018393
 20
-476.2089032751213
 42
-0.0004320041193993732
  0
VERTEX
  8
0
  6
CONTINUOUS
 62
     7
 10
564.1862695133468
 20
-501.8004335198619
 42
0.008397385326041219
  0
VERTEX
  8
0
  6
CONTINUOUS
 62
     7
 10
563.0761653191682
 20
-527.4113333607493
 42
0.01779795977906306
  0
VERTEX
  8
0
  6
CONTINUOUS
 62
     7
 10
563.311073816464
 20
-553.0406161783935
 42
0.01884743833308264
  0
VERTEX
  8
0
  6
CONTINUOUS
 62
     7
 10
565.6108302787779
 20
-578.5670076109935
 42
-0.0252159416016413
  0
VERTEX
  8
0
  6
CONTINUOUS
 62
     7
 10
567.6467062405654
 20
-604.1104393842804
 42
-0.07191669214873897
  0
VERTEX
  8
0
  6
CONTINUOUS
 62
     7
 10
564.7201460755541
 20
-629.4892553001877
 42
-0.1364460769450566
  0
VERTEX
  8
0
  6
CONTINUOUS
 62
     7
 10
552.0005633228299
 20
-651.3925060362421
 42
0
  0
SEQEND
  8
0
  0
TEXT
  8
0
  6
CONTINUOUS
 62
     7
 10
-175.7142906188965
 20
-15
 40
30
 41
0.8437661014112678
  1
ＥＲＫＶ－ＮＥ－２２００
  0
ENDSEC
  0
EOF
