  0
SECTION
  2
HEADER
  0
ENDSEC
  0
SECTION
  2
TABLES
  0
TABLE
  2
LTYPE
 70
    22
  0
LTYPE
  2
CONTINUOUS
 70
    64
  3
Solid line
 72
    65
 73
     0
 40
0.000000
  0
LTYPE
  2
DASHED
 70
    64
  3
__ __ __ __ __ __ __ __ __ __ __ __ __ __ __
 72
    65
 73
     2
 40
3.500000
 49
2.000000
 49
-1.500000
  0
LTYPE
  2
CENTER
 70
    64
  3
____ _ ____ _ ____ _ ____ _ ____ _ ____ _ ____
 72
    65
 73
     4
 40
17.500000
 49
13.000000
 49
-1.500000
 49
1.500000
 49
-1.500000
  0
LTYPE
  2
PHANTOM
 70
    64
  3
_____ _ _ _____ _ _ _____ _ _ _____ _ _ ____  
 72
    65
 73
     6
 40
15.500000
 49
8.000000
 49
-1.500000
 49
1.500000
 49
-1.500000
 49
1.500000
 49
-1.500000
  0
LTYPE
  2
DOT
 70
    64
  3
. . . . . . . . . . . . . . . . . . . . . . . .
 72
    65
 73
     2
 40
0.25
 49
0.0
 49
-0.25
  0
ENDTAB
  0
TABLE
  2
LAYER
 70
     1
  0
LAYER
  2
0
 70
     0
 62
     7
  6
CONTINUOUS
  0
ENDTAB
  0
TABLE
  2
STYLE
 70
     1
  0
STYLE
  2
STANDARD
 70
     0
 40
0.000000
 41
1.000000
 50
0.000000
 71
     0
 42
0.200000
  3
txt
  0
ENDTAB
  0
TABLE
  2
VIEW
 70
     0
  0
ENDTAB
  0
ENDSEC
  0
SECTION
  2
BLOCKS
  0
ENDSEC
  0
SECTION
  2
ENTITIES
  0
LINE
  8
0
  6
CONTINUOUS
 62
     3
 10
430
 20
-600
 11
1132.4033203125
 21
-600
  0
LINE
  8
0
  6
CONTINUOUS
 62
     7
 10
858.705810546875
 20
-477.5955200195313
 11
898.9231567382812
 21
-488.3717041015625
  0
LINE
  8
0
  6
CONTINUOUS
 62
     7
 10
805
 20
-422.5
 11
805
 21
-777.5
  0
LINE
  8
0
  6
CONTINUOUS
 62
     7
 10
805
 20
-777.5
 11
827
 21
-777.5
  0
LINE
  8
0
  6
CONTINUOUS
 62
     7
 10
805
 20
-422.5
 11
840
 21
-422.5
  0
LINE
  8
0
  6
CONTINUOUS
 62
     7
 10
855
 20
-469.1954956054688
 11
855
 21
-730.8045043945313
  0
LINE
  8
0
  6
CONTINUOUS
 62
     7
 10
923
 20
-485
 11
923
 21
-715
  0
LINE
  8
0
  6
CONTINUOUS
 62
     7
 10
905
 20
-485
 11
905
 21
-715
  0
LINE
  8
0
  6
CONTINUOUS
 62
     7
 10
905
 20
-485
 11
923
 21
-485
  0
LINE
  8
0
  6
CONTINUOUS
 62
     7
 10
905
 20
-715
 11
923
 21
-715
  0
LINE
  8
0
  6
CONTINUOUS
 62
     7
 10
876.9904174804687
 20
-672.5
 11
902.5
 21
-687.2279663085937
  0
LINE
  8
0
  6
CONTINUOUS
 62
     7
 10
860
 20
-672.5
 11
876.9903564453125
 21
-672.5
  0
LINE
  8
0
  6
CONTINUOUS
 62
     7
 10
831.1317749023437
 20
-739.2086181640625
 11
850.8682250976563
 21
-735.7285766601562
  0
LINE
  8
0
  6
CONTINUOUS
 62
     7
 10
827
 20
-422.5
 11
827
 21
-777.5
  0
LINE
  8
0
  6
CONTINUOUS
 62
     7
 10
840
 20
-422.5
 11
840
 21
-458.1596069335937
  0
LINE
  8
0
  6
CONTINUOUS
 62
     7
 10
860
 20
-527.5
 11
876.9903564453125
 21
-527.5
  0
LINE
  8
0
  6
CONTINUOUS
 62
     7
 10
876.9903564453125
 20
-527.5
 11
902.5
 21
-512.77197265625
  0
LINE
  8
0
  6
CONTINUOUS
 62
     7
 10
855
 20
-596
 11
905
 21
-596
  0
LINE
  8
0
  6
CONTINUOUS
 62
     7
 10
855
 20
-604
 11
905
 21
-604
  0
LINE
  8
0
  6
CONTINUOUS
 62
     7
 10
831.1317138671875
 20
-460.7914123535156
 11
850.8682250976563
 21
-464.271484375
  0
LINE
  8
0
  6
CONTINUOUS
 62
     7
 10
858.705810546875
 20
-722.4044799804688
 11
898.923095703125
 21
-711.6282958984375
  0
LINE
  8
0
  6
CONTINUOUS
 62
     7
 10
927
 20
-482.5
 11
971
 21
-482.5
  0
LINE
  8
0
  6
CONTINUOUS
 62
     7
 10
927
 20
-717.5
 11
971
 21
-717.5
  0
LINE
  8
0
  6
CONTINUOUS
 62
     7
 10
927
 20
-711.4676513671875
 11
971
 21
-711.4676513671875
  0
LINE
  8
0
  6
CONTINUOUS
 62
     7
 10
923.0000610351562
 20
-486.5000305175781
 11
927.0000610351562
 21
-482.5000305175781
  0
LINE
  8
0
  6
CONTINUOUS
 62
     7
 10
970.9999389648438
 20
-482.4999694824219
 11
975
 21
-486.4999694824219
  0
LINE
  8
0
  6
CONTINUOUS
 62
     7
 10
975.0000610351562
 20
-713.5
 11
971.0000610351563
 21
-717.5
  0
LINE
  8
0
  6
CONTINUOUS
 62
     7
 10
927
 20
-717.5
 11
923
 21
-713.5
  0
LINE
  8
0
  6
CONTINUOUS
 62
     7
 10
927
 20
-525.0578002929687
 11
971
 21
-525.0578002929687
  0
LINE
  8
0
  6
CONTINUOUS
 62
     7
 10
927
 20
-538.7132568359375
 11
971
 21
-538.7132568359375
  0
LINE
  8
0
  6
CONTINUOUS
 62
     7
 10
927
 20
-547.4596557617187
 11
971
 21
-547.4596557617187
  0
LINE
  8
0
  6
CONTINUOUS
 62
     7
 10
927
 20
-562.8353271484375
 11
971
 21
-562.8353271484375
  0
LINE
  8
0
  6
CONTINUOUS
 62
     7
 10
927
 20
-572.447998046875
 11
971
 21
-572.447998046875
  0
LINE
  8
0
  6
CONTINUOUS
 62
     7
 10
927
 20
-589.00048828125
 11
971
 21
-589.00048828125
  0
LINE
  8
0
  6
CONTINUOUS
 62
     7
 10
927
 20
-611.0003051757812
 11
971
 21
-611.0003051757812
  0
LINE
  8
0
  6
CONTINUOUS
 62
     7
 10
927
 20
-627.5516357421875
 11
971
 21
-627.5516357421875
  0
LINE
  8
0
  6
CONTINUOUS
 62
     7
 10
927
 20
-637.1639404296875
 11
971
 21
-637.1639404296875
  0
LINE
  8
0
  6
CONTINUOUS
 62
     7
 10
927
 20
-652.5404052734375
 11
971
 21
-652.5404052734375
  0
LINE
  8
0
  6
CONTINUOUS
 62
     7
 10
927
 20
-661.2864379882813
 11
971
 21
-661.2864379882813
  0
LINE
  8
0
  6
CONTINUOUS
 62
     7
 10
927
 20
-674.94091796875
 11
971
 21
-674.94091796875
  0
LINE
  8
0
  6
CONTINUOUS
 62
     7
 10
927
 20
-690.4974365234375
 11
971
 21
-690.4974365234375
  0
LINE
  8
0
  6
CONTINUOUS
 62
     7
 10
927
 20
-700.2504272460937
 11
971
 21
-700.2504272460937
  0
LINE
  8
0
  6
CONTINUOUS
 62
     7
 10
927
 20
-705.0982055664062
 11
971
 21
-705.0982055664062
  0
LINE
  8
0
  6
CONTINUOUS
 62
     7
 10
730
 20
-780
 11
800
 21
-780
  0
LINE
  8
0
  6
CONTINUOUS
 62
     7
 10
730
 20
-420
 11
800
 21
-420
  0
LINE
  8
0
  6
CONTINUOUS
 62
     7
 10
725.0000610351562
 20
-425.0000915527344
 11
730.0000610351562
 21
-420.0000915527344
  0
LINE
  8
0
  6
CONTINUOUS
 62
     7
 10
800
 20
-420
 11
805
 21
-424.9999694824219
  0
LINE
  8
0
  6
CONTINUOUS
 62
     7
 10
725
 20
-775
 11
730
 21
-780
  0
LINE
  8
0
  6
CONTINUOUS
 62
     7
 10
799.9999389648437
 20
-779.9999389648437
 11
804.9999389648437
 21
-774.9999389648438
  0
LINE
  8
0
  6
CONTINUOUS
 62
     7
 10
739.0001220703125
 20
-410
 11
771.0000610351563
 21
-410
  0
LINE
  8
0
  6
CONTINUOUS
 62
     7
 10
735.3603515625
 20
-420
 11
739
 21
-410.0000305175781
  0
LINE
  8
0
  6
CONTINUOUS
 62
     7
 10
774.6397094726562
 20
-419.9999389648437
 11
771
 21
-409.9999389648438
  0
LINE
  8
0
  6
CONTINUOUS
 62
     7
 10
730
 20
-427.0777587890625
 11
800
 21
-427.0777587890625
  0
LINE
  8
0
  6
CONTINUOUS
 62
     7
 10
730
 20
-465.5732421875
 11
800
 21
-465.5732421875
  0
LINE
  8
0
  6
CONTINUOUS
 62
     7
 10
730
 20
-480.2942504882812
 11
800
 21
-480.2942504882812
  0
LINE
  8
0
  6
CONTINUOUS
 62
     7
 10
730
 20
-495.9463806152344
 11
800
 21
-495.9463806152344
  0
LINE
  8
0
  6
CONTINUOUS
 62
     7
 10
730
 20
-513.0659790039063
 11
800
 21
-513.0659790039063
  0
LINE
  8
0
  6
CONTINUOUS
 62
     7
 10
730
 20
-550.02099609375
 11
800
 21
-550.02099609375
  0
LINE
  8
0
  6
CONTINUOUS
 62
     7
 10
730
 20
-569.71923828125
 11
800
 21
-569.71923828125
  0
LINE
  8
0
  6
CONTINUOUS
 62
     7
 10
730
 20
-589.5905151367187
 11
800
 21
-589.5905151367187
  0
LINE
  8
0
  6
CONTINUOUS
 62
     7
 10
730
 20
-610.4093627929687
 11
800
 21
-610.4093627929687
  0
LINE
  8
0
  6
CONTINUOUS
 62
     7
 10
730
 20
-630.28076171875
 11
800
 21
-630.28076171875
  0
LINE
  8
0
  6
CONTINUOUS
 62
     7
 10
730
 20
-649.9788208007813
 11
800
 21
-649.9788208007813
  0
LINE
  8
0
  6
CONTINUOUS
 62
     7
 10
730
 20
-686.9341430664062
 11
800
 21
-686.9341430664062
  0
LINE
  8
0
  6
CONTINUOUS
 62
     7
 10
730
 20
-704.0533447265625
 11
800
 21
-704.0533447265625
  0
LINE
  8
0
  6
CONTINUOUS
 62
     7
 10
730
 20
-719.7055053710938
 11
800
 21
-719.7055053710938
  0
LINE
  8
0
  6
CONTINUOUS
 62
     7
 10
730
 20
-734.4265747070312
 11
800
 21
-734.4265747070312
  0
LINE
  8
0
  6
CONTINUOUS
 62
     7
 10
730
 20
-746.8770141601562
 11
800
 21
-746.8770141601562
  0
LINE
  8
0
  6
CONTINUOUS
 62
     7
 10
730
 20
-757.6148681640625
 11
800
 21
-757.6148681640625
  0
LINE
  8
0
  6
CONTINUOUS
 62
     7
 10
730
 20
-772.92236328125
 11
800
 21
-772.92236328125
  0
LINE
  8
0
  6
CONTINUOUS
 62
     7
 10
742.5000610351563
 20
-407.0000305175781
 11
743.7955932617188
 21
-399.6527404785156
  0
LINE
  8
0
  6
CONTINUOUS
 62
     7
 10
766.2045288085938
 20
-399.6526794433594
 11
767.5000610351563
 21
-407.0000305175781
  0
LINE
  8
0
  6
CONTINUOUS
 62
     7
 10
745.76513671875
 20
-398
 11
764.23486328125
 21
-398
  0
LINE
  8
0
  6
CONTINUOUS
 62
     7
 10
745.341796875
 20
-398.0452575683594
 11
754.57666015625
 21
-396.0452575683594
  0
LINE
  8
0
  6
CONTINUOUS
 62
     7
 10
755.4234008789063
 20
-396.0453186035156
 11
764.658203125
 21
-398.0453186035156
  0
LINE
  8
0
  6
CONTINUOUS
 62
     7
 10
742.5
 20
-407
 11
742.5
 21
-410
  0
LINE
  8
0
  6
CONTINUOUS
 62
     7
 10
767.5
 20
-407.0000305175781
 11
767.5
 21
-410
  0
LINE
  8
0
  6
CONTINUOUS
 62
     7
 10
590
 20
-375
 11
615
 21
-375
  0
LINE
  8
0
  6
CONTINUOUS
 62
     7
 10
590
 20
-825
 11
615
 21
-825
  0
LINE
  8
0
  6
CONTINUOUS
 62
     7
 10
725
 20
-422.5
 11
725
 21
-777.5
  0
LINE
  8
0
  6
CONTINUOUS
 62
     7
 10
590
 20
-375
 11
590
 21
-460.2767944335938
  0
LINE
  8
0
  6
CONTINUOUS
 62
     7
 10
615
 20
-375
 11
615
 21
-825
  0
LINE
  8
0
  6
CONTINUOUS
 62
     7
 10
700
 20
-422.5
 11
700
 21
-777.5
  0
LINE
  8
0
  6
CONTINUOUS
 62
     7
 10
625
 20
-422.5
 11
725
 21
-422.5
  0
LINE
  8
0
  6
CONTINUOUS
 62
     7
 10
700
 20
-777.5
 11
725
 21
-777.5
  0
LINE
  8
0
  6
CONTINUOUS
 62
     7
 10
655.7060546875
 20
-519.9932861328125
 11
700
 21
-519.9932861328125
  0
LINE
  8
0
  6
CONTINUOUS
 62
     7
 10
655.7060546875
 20
-680.0067138671875
 11
700
 21
-680.0067138671875
  0
LINE
  8
0
  6
CONTINUOUS
 62
     7
 10
615
 20
-493.1932983398437
 11
649.8916015625
 21
-518.129150390625
  0
LINE
  8
0
  6
CONTINUOUS
 62
     7
 10
615
 20
-706.8067626953125
 11
649.8916015625
 21
-681.870849609375
  0
LINE
  8
0
  6
CONTINUOUS
 62
     7
 10
618.1577758789062
 20
-743.3433837890625
 11
693.1577758789062
 21
-713.6190185546875
  0
LINE
  8
0
  6
CONTINUOUS
 62
     7
 10
618.1577758789062
 20
-764.5565795898438
 11
693.1577758789062
 21
-734.8322143554687
  0
LINE
  8
0
  6
CONTINUOUS
 62
     7
 10
618.1578369140625
 20
-456.6566162109375
 11
693.1578369140625
 21
-486.3809814453125
  0
LINE
  8
0
  6
CONTINUOUS
 62
     7
 10
618.1577758789062
 20
-435.4434204101562
 11
693.1577758789062
 21
-465.1677551269531
  0
LINE
  8
0
  6
CONTINUOUS
 62
     7
 10
582
 20
-425
 11
582
 21
-455.5072021484375
  0
LINE
  8
0
  6
CONTINUOUS
 62
     7
 10
582
 20
-425
 11
590
 21
-425
  0
LINE
  8
0
  6
CONTINUOUS
 62
     7
 10
582
 20
-775
 11
590
 21
-775
  0
LINE
  8
0
  6
CONTINUOUS
 62
     7
 10
450
 20
-552.5
 11
590
 21
-552.5
  0
LINE
  8
0
  6
CONTINUOUS
 62
     7
 10
450
 20
-647.5
 11
590
 21
-647.5
  0
LINE
  8
0
  6
CONTINUOUS
 62
     7
 10
450
 20
-547.5
 11
450
 21
-647.5
  0
LINE
  8
0
  6
CONTINUOUS
 62
     7
 10
582
 20
-723.54296875
 11
582
 21
-775
  0
LINE
  8
0
  6
CONTINUOUS
 62
     7
 10
590
 20
-716.47412109375
 11
590
 21
-825
  0
LINE
  8
0
  6
CONTINUOUS
 62
     7
 10
450
 20
-547.5
 11
560
 21
-547.5
  0
LINE
  8
0
  6
CONTINUOUS
 62
     7
 10
590
 20
-545
 11
590
 21
-655
  0
LINE
  8
0
  6
CONTINUOUS
 62
     7
 10
590
 20
-545
 11
594.797607421875
 21
-545
  0
LINE
  8
0
  6
CONTINUOUS
 62
     7
 10
590
 20
-655
 11
595.4757080078125
 21
-655
  0
LINE
  8
0
  6
CONTINUOUS
 62
     7
 10
668.5
 20
-385.2000122070313
 11
695.5
 21
-385.2000122070313
  0
LINE
  8
0
  6
CONTINUOUS
 62
     7
 10
673.3499755859375
 20
-385.2000122070313
 11
673.3499755859375
 21
-422.5
  0
LINE
  8
0
  6
CONTINUOUS
 62
     7
 10
690.6500244140625
 20
-385.2000122070313
 11
690.6500244140625
 21
-422.5
  0
LINE
  8
0
  6
CONTINUOUS
 62
     3
 10
682
 20
-330.53759765625
 11
682
 21
-437.5
  0
LINE
  8
0
  6
CONTINUOUS
 62
     7
 10
668.5
 20
-353.2000122070312
 11
695.5
 21
-353.2000122070312
  0
LINE
  8
0
  6
CONTINUOUS
 62
     7
 10
690.071044921875
 20
-338.550048828125
 11
673.928955078125
 21
-338.550048828125
  0
LINE
  8
0
  6
CONTINUOUS
 62
     7
 10
690.507568359375
 20
-347.550048828125
 11
673.492431640625
 21
-347.550048828125
  0
LINE
  8
0
  6
CONTINUOUS
 62
     7
 10
690.507568359375
 20
-347.5500183105469
 11
690.3309936523437
 21
-353.1999816894531
  0
LINE
  8
0
  6
CONTINUOUS
 62
     7
 10
673.4923706054687
 20
-347.550048828125
 11
673.6689453125
 21
-353.2000122070312
  0
LINE
  8
0
  6
CONTINUOUS
 62
     7
 10
690.071044921875
 20
-338.550048828125
 11
690.071044921875
 21
-347.550048828125
  0
LINE
  8
0
  6
CONTINUOUS
 62
     7
 10
673.928955078125
 20
-338.550048828125
 11
673.928955078125
 21
-347.550048828125
  0
LINE
  8
0
  6
CONTINUOUS
 62
     7
 10
695.5
 20
-353.2000122070312
 11
695.5
 21
-385.2000122070313
  0
LINE
  8
0
  6
CONTINUOUS
 62
     7
 10
668.5
 20
-353.2000122070312
 11
668.5
 21
-385.2000122070313
  0
LINE
  8
0
  6
CONTINUOUS
 62
     3
 10
673.9288940429687
 20
-347.550048828125
 11
681.9999389648437
 21
-338.550048828125
  0
LINE
  8
0
  6
CONTINUOUS
 62
     7
 10
682
 20
-338.550048828125
 11
682
 21
-347.550048828125
  0
LINE
  8
0
  6
CONTINUOUS
 62
     3
 10
682
 20
-347.550048828125
 11
690.071044921875
 21
-338.5500793457031
  0
LINE
  8
0
  6
CONTINUOUS
 62
     3
 10
690.071044921875
 20
-347.550048828125
 11
682
 21
-338.550048828125
  0
LINE
  8
0
  6
CONTINUOUS
 62
     3
 10
673.928955078125
 20
-338.5500183105469
 11
682
 21
-347.550048828125
  0
LINE
  8
0
  6
CONTINUOUS
 62
     7
 10
560
 20
-547.5
 11
560
 21
-552.5
  0
LINE
  8
0
  6
CONTINUOUS
 62
     7
 10
975
 20
-485
 11
975
 21
-715
  0
LINE
  8
0
  6
CONTINUOUS
 62
     3
 10
960
 20
-590.135009765625
 11
960
 21
-609.864990234375
  0
LINE
  8
0
  6
CONTINUOUS
 62
     7
 10
960
 20
-595.05029296875
 11
955.0502319335938
 21
-600
  0
LINE
  8
0
  6
CONTINUOUS
 62
     7
 10
955.05029296875
 20
-600.0000610351562
 11
960
 21
-604.9497680664062
  0
LINE
  8
0
  6
CONTINUOUS
 62
     7
 10
960
 20
-604.9497680664062
 11
964.9497680664063
 21
-600
  0
LINE
  8
0
  6
CONTINUOUS
 62
     7
 10
964.94970703125
 20
-599.9999389648438
 11
959.9999389648438
 21
-595.0502319335938
  0
LINE
  8
0
  6
CONTINUOUS
 62
     3
 10
430
 20
0
 11
1130.486694335938
 21
0
  0
LINE
  8
0
  6
CONTINUOUS
 62
     7
 10
805
 20
177.5000152587891
 11
805
 21
-177.4999847412109
  0
LINE
  8
0
  6
CONTINUOUS
 62
     7
 10
805
 20
-177.5
 11
827
 21
-177.5
  0
LINE
  8
0
  6
CONTINUOUS
 62
     7
 10
805
 20
177.5
 11
827
 21
177.5
  0
LINE
  8
0
  6
CONTINUOUS
 62
     7
 10
923
 20
115.0000152587891
 11
923
 21
-114.9999847412109
  0
LINE
  8
0
  6
CONTINUOUS
 62
     7
 10
905
 20
115.0000152587891
 11
905
 21
-114.9999847412109
  0
LINE
  8
0
  6
CONTINUOUS
 62
     7
 10
905
 20
115
 11
923
 21
115
  0
LINE
  8
0
  6
CONTINUOUS
 62
     7
 10
905
 20
-115
 11
923
 21
-115
  0
LINE
  8
0
  6
CONTINUOUS
 62
     7
 10
876.9903564453125
 20
-72.5
 11
902.5
 21
-87.22799682617187
  0
LINE
  8
0
  6
CONTINUOUS
 62
     7
 10
860
 20
-72.5
 11
876.9904174804687
 21
-72.5
  0
LINE
  8
0
  6
CONTINUOUS
 62
     7
 10
831.1317749023437
 20
-139.2087097167969
 11
850.8682861328125
 21
-135.7286224365234
  0
LINE
  8
0
  6
CONTINUOUS
 62
     7
 10
827
 20
177.5000152587891
 11
827
 21
27.2213249206543
  0
LINE
  8
0
  6
CONTINUOUS
 62
     7
 10
860
 20
72.5
 11
876.9903564453125
 21
72.5
  0
LINE
  8
0
  6
CONTINUOUS
 62
     7
 10
876.9902954101563
 20
72.50012969970703
 11
902.4999389648438
 21
87.22812652587891
  0
LINE
  8
0
  6
CONTINUOUS
 62
     7
 10
855
 20
4
 11
905
 21
4
  0
LINE
  8
0
  6
CONTINUOUS
 62
     7
 10
855
 20
-4
 11
905
 21
-4
  0
LINE
  8
0
  6
CONTINUOUS
 62
     7
 10
831.1318359375
 20
139.2084808349609
 11
850.8682861328125
 21
135.7284088134766
  0
LINE
  8
0
  6
CONTINUOUS
 62
     7
 10
827
 20
-27.2213020324707
 11
827
 21
-177.4999847412109
  0
LINE
  8
0
  6
CONTINUOUS
 62
     7
 10
858.7058715820313
 20
122.4044570922852
 11
898.9231567382812
 21
111.6282730102539
  0
LINE
  8
0
  6
CONTINUOUS
 62
     7
 10
858.7058715820313
 20
-122.4045181274414
 11
898.9231567382812
 21
-111.6283264160156
  0
LINE
  8
0
  6
CONTINUOUS
 62
     7
 10
927
 20
117.5
 11
971
 21
117.5
  0
LINE
  8
0
  6
CONTINUOUS
 62
     7
 10
927
 20
-117.5
 11
971
 21
-117.5
  0
LINE
  8
0
  6
CONTINUOUS
 62
     7
 10
927
 20
-111.4677734375
 11
971
 21
-111.4677734375
  0
LINE
  8
0
  6
CONTINUOUS
 62
     7
 10
923.0001220703125
 20
113.4999923706055
 11
927.0001220703125
 21
117.5
  0
LINE
  8
0
  6
CONTINUOUS
 62
     7
 10
970.9998168945312
 20
117.4999160766602
 11
974.9998168945312
 21
113.4999160766602
  0
LINE
  8
0
  6
CONTINUOUS
 62
     7
 10
975.0000610351562
 20
-113.5000915527344
 11
971.0000610351563
 21
-117.5000991821289
  0
LINE
  8
0
  6
CONTINUOUS
 62
     7
 10
927.0000610351562
 20
-117.4998168945312
 11
923.0000610351562
 21
-113.4997940063477
  0
LINE
  8
0
  6
CONTINUOUS
 62
     7
 10
927
 20
111.4676513671875
 11
971
 21
111.4676513671875
  0
LINE
  8
0
  6
CONTINUOUS
 62
     7
 10
927
 20
105.0982666015625
 11
971
 21
105.0982666015625
  0
LINE
  8
0
  6
CONTINUOUS
 62
     7
 10
927
 20
100.2501831054688
 11
971
 21
100.2501831054688
  0
LINE
  8
0
  6
CONTINUOUS
 62
     7
 10
927
 20
90.495849609375
 11
971
 21
90.495849609375
  0
LINE
  8
0
  6
CONTINUOUS
 62
     7
 10
927
 20
74.94110107421875
 11
971
 21
74.94110107421875
  0
LINE
  8
0
  6
CONTINUOUS
 62
     7
 10
927
 20
61.28466796875
 11
971
 21
61.28466796875
  0
LINE
  8
0
  6
CONTINUOUS
 62
     7
 10
927
 20
52.53948974609375
 11
971
 21
52.53948974609375
  0
LINE
  8
0
  6
CONTINUOUS
 62
     7
 10
927
 20
37.16400146484375
 11
971
 21
37.16400146484375
  0
LINE
  8
0
  6
CONTINUOUS
 62
     7
 10
927
 20
27.5504150390625
 11
971
 21
27.5504150390625
  0
LINE
  8
0
  6
CONTINUOUS
 62
     7
 10
927
 20
10.99951171875
 11
971
 21
10.99951171875
  0
LINE
  8
0
  6
CONTINUOUS
 62
     7
 10
927
 20
-90.497802734375
 11
971
 21
-90.497802734375
  0
LINE
  8
0
  6
CONTINUOUS
 62
     7
 10
927
 20
-100.250732421875
 11
971
 21
-100.250732421875
  0
LINE
  8
0
  6
CONTINUOUS
 62
     7
 10
927
 20
-105.098876953125
 11
971
 21
-105.098876953125
  0
LINE
  8
0
  6
CONTINUOUS
 62
     7
 10
730
 20
-180
 11
800
 21
-180
  0
LINE
  8
0
  6
CONTINUOUS
 62
     7
 10
730
 20
180
 11
800
 21
180
  0
LINE
  8
0
  6
CONTINUOUS
 62
     7
 10
725.0001831054687
 20
174.9998168945313
 11
730.0001831054688
 21
179.9998016357422
  0
LINE
  8
0
  6
CONTINUOUS
 62
     7
 10
799.9999389648437
 20
179.9999084472656
 11
804.9999389648437
 21
174.9999237060547
  0
LINE
  8
0
  6
CONTINUOUS
 62
     7
 10
725
 20
-175.0000152587891
 11
730.0000610351562
 21
-180.0000457763672
  0
LINE
  8
0
  6
CONTINUOUS
 62
     7
 10
799.9998779296875
 20
-179.9998931884766
 11
804.9998779296875
 21
-174.9998931884766
  0
LINE
  8
0
  6
CONTINUOUS
 62
     7
 10
730
 20
172.9221801757813
 11
800
 21
172.9221801757813
  0
LINE
  8
0
  6
CONTINUOUS
 62
     7
 10
730
 20
157.6149291992188
 11
800
 21
157.6149291992188
  0
LINE
  8
0
  6
CONTINUOUS
 62
     7
 10
730
 20
146.8772583007812
 11
800
 21
146.8772583007812
  0
LINE
  8
0
  6
CONTINUOUS
 62
     7
 10
730
 20
134.4267578125
 11
800
 21
134.4267578125
  0
LINE
  8
0
  6
CONTINUOUS
 62
     7
 10
730
 20
119.7057495117187
 11
800
 21
119.7057495117187
  0
LINE
  8
0
  6
CONTINUOUS
 62
     7
 10
730
 20
49.97906494140625
 11
800
 21
49.97906494140625
  0
LINE
  8
0
  6
CONTINUOUS
 62
     7
 10
730
 20
29.99993896484375
 11
800
 21
29.99993896484375
  0
LINE
  8
0
  6
CONTINUOUS
 62
     7
 10
730
 20
-29.99993896484375
 11
800
 21
-29.99993896484375
  0
LINE
  8
0
  6
CONTINUOUS
 62
     7
 10
730
 20
-49.97900390625
 11
800
 21
-49.97900390625
  0
LINE
  8
0
  6
CONTINUOUS
 62
     7
 10
730
 20
-119.7056274414063
 11
800
 21
-119.7056274414063
  0
LINE
  8
0
  6
CONTINUOUS
 62
     7
 10
730
 20
-134.4266357421875
 11
800
 21
-134.4266357421875
  0
LINE
  8
0
  6
CONTINUOUS
 62
     7
 10
730
 20
-146.8770446777344
 11
800
 21
-146.8770446777344
  0
LINE
  8
0
  6
CONTINUOUS
 62
     7
 10
730
 20
-157.6150207519531
 11
800
 21
-157.6150207519531
  0
LINE
  8
0
  6
CONTINUOUS
 62
     7
 10
730
 20
-172.9222412109375
 11
800
 21
-172.9222412109375
  0
LINE
  8
0
  6
CONTINUOUS
 62
     7
 10
735
 20
5
 11
775
 21
5
  0
LINE
  8
0
  6
CONTINUOUS
 62
     7
 10
735
 20
-5
 11
775
 21
-5
  0
LINE
  8
0
  6
CONTINUOUS
 62
     7
 10
590
 20
225
 11
615
 21
225
  0
LINE
  8
0
  6
CONTINUOUS
 62
     7
 10
590
 20
-225
 11
615
 21
-225
  0
LINE
  8
0
  6
CONTINUOUS
 62
     7
 10
725
 20
177.5000152587891
 11
725
 21
-177.4999847412109
  0
LINE
  8
0
  6
CONTINUOUS
 62
     7
 10
590
 20
225
 11
590
 21
97.62189483642578
  0
LINE
  8
0
  6
CONTINUOUS
 62
     7
 10
615
 20
225
 11
615
 21
-225
  0
LINE
  8
0
  6
CONTINUOUS
 62
     7
 10
700
 20
177.5
 11
700
 21
30.00000762939453
  0
LINE
  8
0
  6
CONTINUOUS
 62
     7
 10
700
 20
177.5
 11
725
 21
177.5
  0
LINE
  8
0
  6
CONTINUOUS
 62
     7
 10
700
 20
-177.5
 11
725
 21
-177.5
  0
LINE
  8
0
  6
CONTINUOUS
 62
     7
 10
615
 20
30
 11
700
 21
30
  0
LINE
  8
0
  6
CONTINUOUS
 62
     7
 10
615
 20
-30
 11
700
 21
-30
  0
LINE
  8
0
  6
CONTINUOUS
 62
     7
 10
655.7060546875
 20
-80.00677490234375
 11
700
 21
-80.00677490234375
  0
LINE
  8
0
  6
CONTINUOUS
 62
     7
 10
655.7060546875
 20
80.0068359375
 11
700
 21
80.0068359375
  0
LINE
  8
0
  6
CONTINUOUS
 62
     7
 10
615
 20
106.8068771362305
 11
649.8916015625
 21
81.87100219726563
  0
LINE
  8
0
  6
CONTINUOUS
 62
     7
 10
615
 20
-106.8068084716797
 11
649.8916015625
 21
-81.87091827392578
  0
LINE
  8
0
  6
CONTINUOUS
 62
     7
 10
618.1577758789062
 20
164.5565795898437
 11
693.1578369140625
 21
134.8322143554688
  0
LINE
  8
0
  6
CONTINUOUS
 62
     7
 10
618.15771484375
 20
143.3433990478516
 11
693.1577758789062
 21
113.6190490722656
  0
LINE
  8
0
  6
CONTINUOUS
 62
     7
 10
618.1577758789062
 20
-143.3433532714844
 11
693.1578369140625
 21
-113.6189956665039
  0
LINE
  8
0
  6
CONTINUOUS
 62
     7
 10
618.1577758789062
 20
-164.5566101074219
 11
693.1577758789062
 21
-134.832275390625
  0
LINE
  8
0
  6
CONTINUOUS
 62
     7
 10
582
 20
175
 11
582
 21
110.2680053710938
  0
LINE
  8
0
  6
CONTINUOUS
 62
     7
 10
582
 20
175
 11
590
 21
175
  0
LINE
  8
0
  6
CONTINUOUS
 62
     7
 10
582
 20
-175
 11
590
 21
-175
  0
LINE
  8
0
  6
CONTINUOUS
 62
     7
 10
450
 20
47.5
 11
590
 21
47.5
  0
LINE
  8
0
  6
CONTINUOUS
 62
     7
 10
450
 20
-47.5
 11
590
 21
-47.5
  0
LINE
  8
0
  6
CONTINUOUS
 62
     7
 10
450
 20
12.5
 11
567.5
 21
12.5
  0
LINE
  8
0
  6
CONTINUOUS
 62
     7
 10
450
 20
-12.5
 11
567.5
 21
-12.5
  0
LINE
  8
0
  6
CONTINUOUS
 62
     7
 10
450
 20
47.5
 11
450
 21
-47.5
  0
LINE
  8
0
  6
CONTINUOUS
 62
     7
 10
590
 20
55.00000381469727
 11
590
 21
-54.99999618530273
  0
LINE
  8
0
  6
CONTINUOUS
 62
     7
 10
590
 20
55
 11
598.6505126953125
 21
55
  0
LINE
  8
0
  6
CONTINUOUS
 62
     7
 10
590
 20
-55
 11
597.2322387695313
 21
-55
  0
LINE
  8
0
  6
CONTINUOUS
 62
     7
 10
582
 20
-126.021484375
 11
582
 21
-175
  0
LINE
  8
0
  6
CONTINUOUS
 62
     7
 10
590
 20
-105.9050216674805
 11
590
 21
-225
  0
LINE
  8
0
  6
CONTINUOUS
 62
     7
 10
682.0001831054687
 20
8.485245704650879
 11
673.5148315429688
 21
-5.677305671270005E-05
  0
LINE
  8
0
  6
CONTINUOUS
 62
     7
 10
690.4853515625
 20
-5.721496563637629E-05
 11
682.0001831054687
 21
8.485137939453125
  0
LINE
  8
0
  6
CONTINUOUS
 62
     7
 10
682
 20
-8.485274314880371
 11
673.5148315429688
 21
-7.835224096197635E-05
  0
LINE
  8
0
  6
CONTINUOUS
 62
     7
 10
690.4853515625
 20
-8.511195119353943E-06
 11
682.0000610351563
 21
-8.485309600830078
  0
LINE
  8
0
  6
CONTINUOUS
 62
     3
 10
682
 20
15.72766780853271
 11
682
 21
-15.83092594146729
  0
LINE
  8
0
  6
CONTINUOUS
 62
     7
 10
700
 20
-29.99999237060547
 11
700
 21
-177.5
  0
LINE
  8
0
  6
CONTINUOUS
 62
     7
 10
560
 20
12.50000286102295
 11
560
 21
-12.49999713897705
  0
LINE
  8
0
  6
CONTINUOUS
 62
     7
 10
975.0001220703125
 20
-115.0000457763672
 11
975.0001220703125
 21
-4.000046253204346
  0
LINE
  8
0
  6
CONTINUOUS
 62
     7
 10
975.0001220703125
 20
3.999953746795654
 11
975.0001220703125
 21
114.9999542236328
  0
LINE
  8
0
  6
CONTINUOUS
 62
     7
 10
855
 20
130.8045196533203
 11
855
 21
-130.8044891357422
  0
LINE
  8
0
  6
CONTINUOUS
 62
     7
 10
955.0090942382812
 20
-121.5299911499023
 11
955.1350708007812
 21
-117.4999923706055
  0
LINE
  8
0
  6
CONTINUOUS
 62
     7
 10
964.9910278320312
 20
-121.5299758911133
 11
964.8651123046875
 21
-117.4999771118164
  0
LINE
  8
0
  6
CONTINUOUS
 62
     3
 10
960
 20
-112.517936706543
 11
960
 21
-132.2556610107422
  0
LINE
  8
0
  6
CONTINUOUS
 62
     7
 10
955.009033203125
 20
-121.5299987792969
 11
964.990966796875
 21
-121.5299987792969
  0
LINE
  8
0
  6
CONTINUOUS
 62
     7
 10
964.5355224609375
 20
-128.5299835205078
 11
964.5355224609375
 21
-121.5299835205078
  0
LINE
  8
0
  6
CONTINUOUS
 62
     3
 10
960
 20
-121.5299606323242
 11
964.5355224609375
 21
-128.5299224853516
  0
LINE
  8
0
  6
CONTINUOUS
 62
     3
 10
960
 20
-128.5299682617187
 11
964.5355834960937
 21
-121.5299530029297
  0
LINE
  8
0
  6
CONTINUOUS
 62
     3
 10
955.4644775390625
 20
-121.529914855957
 11
960
 21
-128.5299224853516
  0
LINE
  8
0
  6
CONTINUOUS
 62
     3
 10
955.4644775390625
 20
-128.5299835205078
 11
960
 21
-121.5299682617188
  0
LINE
  8
0
  6
CONTINUOUS
 62
     7
 10
955.4644775390625
 20
-128.5299835205078
 11
955.4644775390625
 21
-121.5299835205078
  0
LINE
  8
0
  6
CONTINUOUS
 62
     7
 10
955.4644775390625
 20
-128.5299987792969
 11
964.5355224609375
 21
-128.5299987792969
  0
LINE
  8
0
  6
CONTINUOUS
 62
     3
 10
0
 20
-330.53759765625
 11
0
 21
-845
  0
LINE
  8
0
  6
CONTINUOUS
 62
     3
 10
-245
 20
-600
 11
245
 21
-600
  0
LINE
  8
0
  6
CONTINUOUS
 62
     7
 10
-12.5
 20
-547.5
 11
-12.5
 21
-561.5
  0
LINE
  8
0
  6
CONTINUOUS
 62
     7
 10
12.5
 20
-547.5
 11
12.5
 21
-561.5
  0
LINE
  8
0
  6
CONTINUOUS
 62
     3
 10
172.4159240722656
 20
-671.4176025390625
 11
195.4671325683594
 21
-680.9656982421875
  0
LINE
  8
0
  6
CONTINUOUS
 62
     3
 10
172.4161376953125
 20
-528.5828857421875
 11
195.4673309326172
 21
-519.0347290039063
  0
LINE
  8
0
  6
CONTINUOUS
 62
     3
 10
71.41724395751953
 20
-427.5838928222656
 11
80.96536254882813
 21
-404.53271484375
  0
LINE
  8
0
  6
CONTINUOUS
 62
     3
 10
-71.4168701171875
 20
-427.583740234375
 11
-80.96498107910156
 21
-404.5325622558594
  0
LINE
  8
0
  6
CONTINUOUS
 62
     3
 10
-172.4159698486328
 20
-528.5826416015625
 11
-195.4671630859375
 21
-519.0344848632812
  0
LINE
  8
0
  6
CONTINUOUS
 62
     3
 10
-172.4161834716797
 20
-671.4168701171875
 11
-195.4673767089844
 21
-680.9649658203125
  0
LINE
  8
0
  6
CONTINUOUS
 62
     3
 10
-71.41748046875
 20
-772.4158935546875
 11
-80.96559906005859
 21
-795.4671020507812
  0
LINE
  8
0
  6
CONTINUOUS
 62
     3
 10
71.41661071777344
 20
-772.4163208007812
 11
80.96472930908203
 21
-795.467529296875
  0
LINE
  8
0
  6
CONTINUOUS
 62
     7
 10
-12.5
 20
-561.5
 11
12.5
 21
-561.5
  0
LINE
  8
0
  6
CONTINUOUS
 62
     7
 10
-12.5
 20
-547.5
 11
12.5
 21
-547.5
  0
LINE
  8
0
  6
CONTINUOUS
 62
     3
 10
63.84316635131836
 20
-489.4204406738281
 11
52.58005905151367
 21
-508.9287109375
  0
LINE
  8
0
  6
CONTINUOUS
 62
     3
 10
-63.84308242797852
 20
-489.4204711914062
 11
-52.57999038696289
 21
-508.9287109375
  0
LINE
  8
0
  6
CONTINUOUS
 62
     3
 10
-63.84308242797852
 20
-710.5795288085937
 11
-52.57999038696289
 21
-691.0712890625
  0
LINE
  8
0
  6
CONTINUOUS
 62
     3
 10
63.84316635131836
 20
-710.5795288085937
 11
52.58004379272461
 21
-691.0712280273437
  0
LINE
  8
0
  6
CONTINUOUS
 62
     7
 10
-13.5
 20
-353.2000122070312
 11
13.5
 21
-353.2000122070312
  0
LINE
  8
0
  6
CONTINUOUS
 62
     7
 10
8.071044921875
 20
-338.550048828125
 11
-8.071044921875
 21
-338.550048828125
  0
LINE
  8
0
  6
CONTINUOUS
 62
     7
 10
8.507568359375
 20
-347.550048828125
 11
-8.507568359375
 21
-347.550048828125
  0
LINE
  8
0
  6
CONTINUOUS
 62
     7
 10
8.507540702819824
 20
-347.5499877929687
 11
8.330979347229004
 21
-353.1999816894531
  0
LINE
  8
0
  6
CONTINUOUS
 62
     7
 10
-8.507637977600098
 20
-347.550048828125
 11
-8.331076622009277
 21
-353.2000122070312
  0
LINE
  8
0
  6
CONTINUOUS
 62
     7
 10
8.071044921875
 20
-338.550048828125
 11
8.071044921875
 21
-347.550048828125
  0
LINE
  8
0
  6
CONTINUOUS
 62
     7
 10
-8.071044921875
 20
-338.550048828125
 11
-8.071044921875
 21
-347.550048828125
  0
LINE
  8
0
  6
CONTINUOUS
 62
     7
 10
13.5
 20
-353.2000122070312
 11
13.5
 21
-375.4053649902344
  0
LINE
  8
0
  6
CONTINUOUS
 62
     7
 10
-13.5
 20
-353.2000122070312
 11
-13.5
 21
-375.4053649902344
  0
LINE
  8
0
  6
CONTINUOUS
 62
     3
 10
-8.07103443145752
 20
-338.5500793457031
 11
7.279582496266812E-05
 21
-347.5501403808594
  0
LINE
  8
0
  6
CONTINUOUS
 62
     3
 10
-8.071051597595215
 20
-347.5500183105469
 11
-5.239812708168756E-06
 21
-338.5500183105469
  0
LINE
  8
0
  6
CONTINUOUS
 62
     3
 10
8.703242201590911E-06
 20
-347.550048828125
 11
8.07105541229248
 21
-338.550048828125
  0
LINE
  8
0
  6
CONTINUOUS
 62
     3
 10
8.071076393127441
 20
-347.5501708984375
 11
-3.118503809673712E-05
 21
-338.5501098632813
  0
LINE
  8
0
  6
CONTINUOUS
 62
     7
 10
0
 20
-338.550048828125
 11
0
 21
-347.550048828125
  0
LINE
  8
0
  6
CONTINUOUS
 62
     7
 10
975
 20
-485
 11
975
 21
-715
  0
LINE
  8
0
  6
CONTINUOUS
 62
     7
 10
998.0001220703125
 20
-62.51776123046875
 11
1086.000122070312
 21
-62.51776123046875
  0
LINE
  8
0
  6
CONTINUOUS
 62
     7
 10
975.0001220703125
 20
115
 11
975.0001220703125
 21
4
  0
LINE
  8
0
  6
CONTINUOUS
 62
     7
 10
998.0001220703125
 20
62.51776123046875
 11
1086.000122070312
 21
62.51776123046875
  0
LINE
  8
0
  6
CONTINUOUS
 62
     7
 10
993.0001220703125
 20
82.32763671875
 11
1091.000122070312
 21
82.32763671875
  0
LINE
  8
0
  6
CONTINUOUS
 62
     7
 10
1091.000122070312
 20
150
 11
1091.000122070312
 21
-150
  0
LINE
  8
0
  6
CONTINUOUS
 62
     7
 10
1091.000122070312
 20
150
 11
1113.000122070313
 21
150
  0
LINE
  8
0
  6
CONTINUOUS
 62
     7
 10
998.0001220703125
 20
92.5
 11
1086.000122070312
 21
92.5
  0
LINE
  8
0
  6
CONTINUOUS
 62
     7
 10
998.0001220703125
 20
-92.5
 11
1086.000122070312
 21
-92.5
  0
LINE
  8
0
  6
CONTINUOUS
 62
     7
 10
993.0001220703125
 20
115
 11
993.0001220703125
 21
25
  0
LINE
  8
0
  6
CONTINUOUS
 62
     7
 10
975.0001220703125
 20
115
 11
993.0001220703125
 21
115
  0
LINE
  8
0
  6
CONTINUOUS
 62
     7
 10
1091.000122070312
 20
-150
 11
1113.000122070313
 21
-150
  0
LINE
  8
0
  6
CONTINUOUS
 62
     7
 10
1113.000122070313
 20
150
 11
1113.000122070313
 21
-150
  0
LINE
  8
0
  6
CONTINUOUS
 62
     7
 10
993.0001220703125
 20
-25
 11
993.0001220703125
 21
-115
  0
LINE
  8
0
  6
CONTINUOUS
 62
     7
 10
975.0001220703125
 20
-115
 11
993.0001220703125
 21
-115
  0
LINE
  8
0
  6
CONTINUOUS
 62
     7
 10
993.0001220703125
 20
-82.32763671875
 11
1091.000122070312
 21
-82.32763671875
  0
LINE
  8
0
  6
CONTINUOUS
 62
     7
 10
993.0001220703125
 20
-76.6707763671875
 11
1091.000122070312
 21
-76.6707763671875
  0
LINE
  8
0
  6
CONTINUOUS
 62
     7
 10
993.0001220703125
 20
76.6707763671875
 11
1091.000122070312
 21
76.6707763671875
  0
LINE
  8
0
  6
CONTINUOUS
 62
     7
 10
973.5001220703125
 20
4
 11
1006.500122070312
 21
4
  0
LINE
  8
0
  6
CONTINUOUS
 62
     7
 10
993.0001220703125
 20
-25
 11
1045.000122070313
 21
-20.45000076293945
  0
LINE
  8
0
  6
CONTINUOUS
 62
     7
 10
973.5001220703125
 20
-4
 11
1006.500122070312
 21
-4
  0
LINE
  8
0
  6
CONTINUOUS
 62
     7
 10
1045.000122070313
 20
20.45000076293945
 11
1045.000122070313
 21
11.5
  0
LINE
  8
0
  6
CONTINUOUS
 62
     7
 10
975
 20
-485
 11
975
 21
-715
  0
LINE
  8
0
  6
CONTINUOUS
 62
     7
 10
1113
 20
-450
 11
1113
 21
-750
  0
LINE
  8
0
  6
CONTINUOUS
 62
     7
 10
1091
 20
-450
 11
1091
 21
-750
  0
LINE
  8
0
  6
CONTINUOUS
 62
     7
 10
1091
 20
-750
 11
1113
 21
-750
  0
LINE
  8
0
  6
CONTINUOUS
 62
     7
 10
1091
 20
-450
 11
1113
 21
-450
  0
LINE
  8
0
  6
CONTINUOUS
 62
     7
 10
993
 20
-491.6734924316406
 11
993
 21
-715
  0
LINE
  8
0
  6
CONTINUOUS
 62
     7
 10
975
 20
-715
 11
993
 21
-715
  0
LINE
  8
0
  6
CONTINUOUS
 62
     7
 10
993
 20
-676.6707763671875
 11
1091
 21
-676.6707763671875
  0
LINE
  8
0
  6
CONTINUOUS
 62
     7
 10
998
 20
-537.4822387695313
 11
1086
 21
-537.4822387695313
  0
LINE
  8
0
  6
CONTINUOUS
 62
     7
 10
998
 20
-662.5177612304687
 11
1086
 21
-662.5177612304687
  0
LINE
  8
0
  6
CONTINUOUS
 62
     7
 10
1050
 20
-507.5
 11
1086
 21
-507.5
  0
LINE
  8
0
  6
CONTINUOUS
 62
     7
 10
993
 20
-523.3292236328125
 11
1091
 21
-523.3292236328125
  0
LINE
  8
0
  6
CONTINUOUS
 62
     7
 10
993
 20
-517.67236328125
 11
1091
 21
-517.67236328125
  0
LINE
  8
0
  6
CONTINUOUS
 62
     7
 10
993
 20
-682.32763671875
 11
1091
 21
-682.32763671875
  0
LINE
  8
0
  6
CONTINUOUS
 62
     7
 10
998
 20
-692.5
 11
1086
 21
-692.5
  0
LINE
  8
0
  6
CONTINUOUS
 62
     7
 10
1027.000122070312
 20
13.96918773651123
 11
1027.000122070312
 21
-13.96747016906738
  0
LINE
  8
0
  6
CONTINUOUS
 62
     7
 10
993.0001220703125
 20
25
 11
1045.000122070313
 21
20.45000076293945
  0
LINE
  8
0
  6
CONTINUOUS
 62
     7
 10
1064.650146484375
 20
-8.071071624755859
 11
1064.650146484375
 21
8.071067810058594
  0
LINE
  8
0
  6
CONTINUOUS
 62
     7
 10
1045.000122070313
 20
-11.5
 11
1045.000122070313
 21
-20.45000076293945
  0
LINE
  8
0
  6
CONTINUOUS
 62
     7
 10
1055.650146484375
 20
-8.507564544677734
 11
1055.650146484375
 21
8.507560729980469
  0
LINE
  8
0
  6
CONTINUOUS
 62
     7
 10
1055.650146484375
 20
-8.507565498352051
 11
1050.000122070312
 21
-8.331002235412598
  0
LINE
  8
0
  6
CONTINUOUS
 62
     7
 10
1055.650146484375
 20
8.507563591003418
 11
1050.000122070312
 21
8.331002235412598
  0
LINE
  8
0
  6
CONTINUOUS
 62
     7
 10
1064.650146484375
 20
-8.071067810058594
 11
1055.650146484375
 21
-8.071067810058594
  0
LINE
  8
0
  6
CONTINUOUS
 62
     7
 10
1064.650146484375
 20
8.071067810058594
 11
1055.650146484375
 21
8.071067810058594
  0
LINE
  8
0
  6
CONTINUOUS
 62
     7
 10
1027.000122070312
 20
-11.5
 11
1050.000122070312
 21
-11.5
  0
LINE
  8
0
  6
CONTINUOUS
 62
     7
 10
1027.000122070312
 20
11.5
 11
1050.000122070312
 21
11.5
  0
LINE
  8
0
  6
CONTINUOUS
 62
     7
 10
1050.000122070312
 20
11.5
 11
1050.000122070312
 21
-11.5
  0
LINE
  8
0
  6
CONTINUOUS
 62
     7
 10
1064.650146484375
 20
0
 11
1055.650146484375
 21
0
  0
LINE
  8
0
  6
CONTINUOUS
 62
     7
 10
1064.650146484375
 20
8.071067810058594
 11
1055.650146484375
 21
-2.926318529716809E-07
  0
LINE
  8
0
  6
CONTINUOUS
 62
     7
 10
1064.650146484375
 20
3.968489181715995E-07
 11
1055.650146484375
 21
8.071067810058594
  0
LINE
  8
0
  6
CONTINUOUS
 62
     7
 10
1064.650146484375
 20
-8.071067810058594
 11
1055.650146484375
 21
-4.147680385813146E-07
  0
LINE
  8
0
  6
CONTINUOUS
 62
     7
 10
1064.650146484375
 20
1.345453028989141E-06
 11
1055.650146484375
 21
-8.071065902709961
  0
LINE
  8
0
  6
CONTINUOUS
 62
     7
 10
975
 20
-485
 11
1045
 21
-485
  0
LINE
  8
0
  6
CONTINUOUS
 62
     7
 10
990
 20
-437.8382568359375
 11
990
 21
-491.0538330078125
  0
LINE
  8
0
  6
CONTINUOUS
 62
     7
 10
966.516845703125
 20
-461.5
 11
1012.797607421875
 21
-461.5
  0
LINE
  8
0
  6
CONTINUOUS
 62
     7
 10
1027
 20
-432.1345520019531
 11
1027
 21
-491.2357177734375
  0
LINE
  8
0
  6
CONTINUOUS
 62
     7
 10
1045
 20
-485
 11
1045
 21
-508.8661804199219
  0
LINE
  8
0
  6
CONTINUOUS
 62
     7
 10
995.61474609375
 20
-511.553466796875
 11
1041.744750976562
 21
-511.553466796875
  0
LINE
  8
0
  6
CONTINUOUS
 62
     7
 10
980
 20
-482.5
 11
980.94287109375
 21
-477.1527099609375
  0
LINE
  8
0
  6
CONTINUOUS
 62
     7
 10
999.05712890625
 20
-477.1527099609375
 11
1000
 21
-482.5
  0
LINE
  8
0
  6
CONTINUOUS
 62
     7
 10
982.9124755859375
 20
-475.5
 11
997.0875244140625
 21
-475.5
  0
LINE
  8
0
  6
CONTINUOUS
 62
     7
 10
982.4983520507813
 20
-475.5433349609375
 11
989.5858764648438
 21
-474.0433349609375
  0
LINE
  8
0
  6
CONTINUOUS
 62
     7
 10
990.4141235351563
 20
-474.0433349609375
 11
997.5016479492188
 21
-475.5433349609375
  0
LINE
  8
0
  6
CONTINUOUS
 62
     7
 10
979.9974365234375
 20
-482.5
 11
1000
 21
-482.5
  0
LINE
  8
0
  6
CONTINUOUS
 62
     7
 10
980.7999877929687
 20
-482.5
 11
980.7999877929687
 21
-485
  0
LINE
  8
0
  6
CONTINUOUS
 62
     7
 10
999.2000122070312
 20
-482.5
 11
999.2000122070312
 21
-485
  0
LINE
  8
0
  6
CONTINUOUS
 62
     7
 10
990
 20
-485
 11
987.5
 21
-482.5
  0
LINE
  8
0
  6
CONTINUOUS
 62
     7
 10
990
 20
-482.5
 11
992.5
 21
-485
  0
LINE
  8
0
  6
CONTINUOUS
 62
     7
 10
1015.833312988281
 20
-447.7000122070313
 11
1069.166625976563
 21
-447.7000122070313
  0
LINE
  8
0
  6
CONTINUOUS
 62
     7
 10
1050
 20
-436.2000122070312
 11
1050
 21
-459.2000122070312
  0
LINE
  8
0
  6
CONTINUOUS
 62
     7
 10
1038.5
 20
-436.2000122070312
 11
1050
 21
-436.2000122070312
  0
LINE
  8
0
  6
CONTINUOUS
 62
     7
 10
1042.5
 20
-459.2000122070312
 11
1050
 21
-459.2000122070312
  0
LINE
  8
0
  6
CONTINUOUS
 62
     7
 10
1064.650024414063
 20
-455.7710571289063
 11
1064.650024414063
 21
-439.6289367675781
  0
LINE
  8
0
  6
CONTINUOUS
 62
     7
 10
1055.650024414062
 20
-456.2075500488281
 11
1055.650024414062
 21
-439.1924438476562
  0
LINE
  8
0
  6
CONTINUOUS
 62
     7
 10
1055.650024414062
 20
-456.2075500488281
 11
1050
 21
-456.031005859375
  0
LINE
  8
0
  6
CONTINUOUS
 62
     7
 10
1055.650024414062
 20
-439.1924438476562
 11
1050
 21
-439.3689880371094
  0
LINE
  8
0
  6
CONTINUOUS
 62
     7
 10
1064.650024414063
 20
-455.7710571289063
 11
1055.650024414062
 21
-455.7710571289063
  0
LINE
  8
0
  6
CONTINUOUS
 62
     7
 10
1064.650024414063
 20
-439.6289367675781
 11
1055.650024414062
 21
-439.6289367675781
  0
LINE
  8
0
  6
CONTINUOUS
 62
     7
 10
1015.5
 20
-470.7000122070313
 11
1038.5
 21
-470.7000122070313
  0
LINE
  8
0
  6
CONTINUOUS
 62
     7
 10
1038.5
 20
-463.2000122070312
 11
1038.5
 21
-470.7000122070313
  0
LINE
  8
0
  6
CONTINUOUS
 62
     7
 10
1015.5
 20
-459.2000122070312
 11
1015.5
 21
-470.7000122070313
  0
LINE
  8
0
  6
CONTINUOUS
 62
     7
 10
1018.5
 20
-470.7000122070313
 11
1018.5
 21
-485
  0
LINE
  8
0
  6
CONTINUOUS
 62
     7
 10
1035.5
 20
-470.7000122070313
 11
1035.5
 21
-485
  0
LINE
  8
0
  6
CONTINUOUS
 62
     7
 10
1064.650024414063
 20
-447.7000122070313
 11
1055.650024414062
 21
-447.7000122070313
  0
LINE
  8
0
  6
CONTINUOUS
 62
     7
 10
1055.650024414062
 20
-455.7710571289063
 11
1064.650024414063
 21
-447.6999816894531
  0
LINE
  8
0
  6
CONTINUOUS
 62
     7
 10
1064.650024414063
 20
-455.7710571289063
 11
1055.650024414062
 21
-447.7000122070313
  0
LINE
  8
0
  6
CONTINUOUS
 62
     7
 10
1064.650024414063
 20
-447.6999816894531
 11
1055.650024414062
 21
-439.6289367675781
  0
LINE
  8
0
  6
CONTINUOUS
 62
     7
 10
1055.650024414062
 20
-447.7000122070313
 11
1064.650024414063
 21
-439.6289367675781
  0
LINE
  8
0
  6
CONTINUOUS
 62
     7
 10
975.0001220703125
 20
-4
 11
975.0001220703125
 21
-115
  0
LINE
  8
0
  6
CONTINUOUS
 62
     7
 10
755
 20
-350.1334838867188
 11
755
 21
-423.9556274414063
  0
LINE
  8
0
  6
CONTINUOUS
 62
     7
 10
723.92578125
 20
-381
 11
785.4442749023438
 21
-381
  0
ARC
  8
0
  6
CONTINUOUS
 62
     7
 10
773.4063720703125
 20
-405.9440612792969
 40
6.000000000000024
 50
126.4238645555929
 51
189.9999620293671
  0
ARC
  8
0
  6
CONTINUOUS
 62
     7
 10
860
 20
-727.2340698242188
 40
4.999999999999977
 50
105.0000541483105
 51
179.9999640278219
  0
ARC
  8
0
  6
CONTINUOUS
 62
     7
 10
860
 20
-472.7658996582031
 40
5.000000000000038
 50
179.9999776881996
 51
254.9999217186572
  0
ARC
  8
0
  6
CONTINUOUS
 62
     7
 10
860
 20
-677.5
 40
5.000000000000019
 50
89.99998201391031
 51
179.9999640278219
  0
ARC
  8
0
  6
CONTINUOUS
 62
     7
 10
850
 20
-730.8045043945313
 40
5.000000000000044
 50
280.000159421607
 51
0
  0
ARC
  8
0
  6
CONTINUOUS
 62
     7
 10
900
 20
-691.55810546875
 40
5
 50
0
 51
60.0000289904086
  0
ARC
  8
0
  6
CONTINUOUS
 62
     7
 10
832
 20
-744.1326904296875
 40
5.000000000000012
 50
100.0001780909426
 51
179.9999640278219
  0
ARC
  8
0
  6
CONTINUOUS
 62
     7
 10
860
 20
-522.5
 40
5.000000000000038
 50
179.9999776882003
 51
269.9999733624889
  0
ARC
  8
0
  6
CONTINUOUS
 62
     7
 10
900
 20
-508.44189453125
 40
5.000000000000004
 50
299.9999163680779
 51
359.9999453584866
  0
ARC
  8
0
  6
CONTINUOUS
 62
     7
 10
832
 20
-455.8673400878906
 40
5.000000000000038
 50
179.9999776881996
 51
259.9997567948901
  0
ARC
  8
0
  6
CONTINUOUS
 62
     7
 10
850
 20
-469.1954956054688
 40
5
 50
359.9999453584866
 51
79.99978593687854
  0
ARC
  8
0
  6
CONTINUOUS
 62
     7
 10
845
 20
-458.1596069335937
 40
5.000000000000038
 50
179.9999776881996
 51
260.0001666062392
  0
ARC
  8
0
  6
CONTINUOUS
 62
     7
 10
900.21728515625
 20
-716.4578857421875
 40
5.000000000000037
 50
16.9523724256209
 51
104.9999858464176
  0
ARC
  8
0
  6
CONTINUOUS
 62
     7
 10
900.21728515625
 20
-483.5421142578125
 40
4.999999999999996
 50
255.0000141535823
 51
343.0476344045686
  0
ARC
  8
0
  6
CONTINUOUS
 62
     7
 10
755
 20
-381
 40
25
 50
306.4238458862582
 51
233.5761318019415
  0
CIRCLE
  8
0
  6
CONTINUOUS
 62
     7
 10
755
 20
-381
 40
15
  0
ARC
  8
0
  6
CONTINUOUS
 62
     7
 10
745.76513671875
 20
-400
 40
1.999999999999985
 50
89.99998201391097
 51
170.0000206677889
  0
ARC
  8
0
  6
CONTINUOUS
 62
     7
 10
764.23486328125
 20
-400
 40
1.999999999999964
 50
9.999994586450628
 51
89.99998201391097
  0
ARC
  8
0
  6
CONTINUOUS
 62
     7
 10
736.5936279296875
 20
-405.9440612792969
 40
6.000000000000009
 50
349.8636347103541
 51
53.57615411374161
  0
ARC
  8
0
  6
CONTINUOUS
 62
     7
 10
625
 20
-412.5
 40
9.999999999999963
 50
179.9999776881996
 51
270.0000280040023
  0
ARC
  8
0
  6
CONTINUOUS
 62
     7
 10
655.7060546875
 20
-509.9932861328125
 40
9.99999999999998
 50
234.4477495447707
 51
270.0000179860891
  0
ARC
  8
0
  6
CONTINUOUS
 62
     7
 10
655.7060546875
 20
-690.0067138671875
 40
10.00000000000004
 50
89.99998201391097
 51
125.5520592099326
  0
ARC
  8
0
  6
CONTINUOUS
 62
     7
 10
695
 20
-718.2672729492188
 40
5
 50
0
 51
111.6196412654544
  0
ARC
  8
0
  6
CONTINUOUS
 62
     7
 10
695
 20
-739.48046875
 40
5
 50
0
 51
111.6196412654544
  0
ARC
  8
0
  6
CONTINUOUS
 62
     7
 10
620
 20
-769.204833984375
 40
4.999999999999943
 50
111.6196412654544
 51
180.0000050089569
  0
ARC
  8
0
  6
CONTINUOUS
 62
     7
 10
620
 20
-747.9916381835937
 40
4.999999999999943
 50
111.6196412654544
 51
180.0000050089569
  0
ARC
  8
0
  6
CONTINUOUS
 62
     7
 10
620
 20
-430.795166015625
 40
4.999999999999943
 50
179.999991348578
 51
248.3803482618904
  0
ARC
  8
0
  6
CONTINUOUS
 62
     7
 10
620
 20
-452.0083618164062
 40
4.999999999999943
 50
179.999991348578
 51
248.3803482618904
  0
ARC
  8
0
  6
CONTINUOUS
 62
     7
 10
695
 20
-460.51953125
 40
4.999999999999996
 50
248.3803587345459
 51
0
  0
ARC
  8
0
  6
CONTINUOUS
 62
     7
 10
695
 20
-481.7327270507813
 40
4.999999999999996
 50
248.3803587345459
 51
0
  0
CIRCLE
  8
0
  6
CONTINUOUS
 62
     3
 10
960
 20
-600
 40
4.990937232971191
  0
ARC
  8
0
  6
CONTINUOUS
 62
     7
 10
755
 20
8.581966540077701E-06
 40
20.04728698730464
 50
14.44262624528875
 51
165.557392424046
  0
ARC
  8
0
  6
CONTINUOUS
 62
     7
 10
860
 20
-127.2341156005859
 40
5.000000000000004
 50
105.0000541483104
 51
179.9999640278213
  0
ARC
  8
0
  6
CONTINUOUS
 62
     7
 10
860
 20
127.2341461181641
 40
5.000000000000038
 50
179.9999776881996
 51
254.9999217186572
  0
ARC
  8
0
  6
CONTINUOUS
 62
     7
 10
860
 20
-77.49998474121094
 40
5.000000000000004
 50
89.99998201391031
 51
179.9999640278213
  0
ARC
  8
0
  6
CONTINUOUS
 62
     7
 10
850
 20
-130.8044891357422
 40
4.999999999999988
 50
280.0001594216071
 51
0
  0
ARC
  8
0
  6
CONTINUOUS
 62
     7
 10
900
 20
-91.55809020996094
 40
5
 50
0
 51
60.00002899040844
  0
ARC
  8
0
  6
CONTINUOUS
 62
     7
 10
832
 20
-144.1326446533203
 40
5.000000000000012
 50
100.0001780909426
 51
179.9999640278213
  0
ARC
  8
0
  6
CONTINUOUS
 62
     7
 10
860
 20
77.50001525878906
 40
5.000000000000038
 50
179.9999776881996
 51
269.9999733624889
  0
ARC
  8
0
  6
CONTINUOUS
 62
     7
 10
900
 20
91.55812072753906
 40
5.000000000000004
 50
299.9999163680779
 51
359.9999453584866
  0
ARC
  8
0
  6
CONTINUOUS
 62
     7
 10
832
 20
144.1327056884766
 40
5.000000000000038
 50
179.9999776881996
 51
259.9997567948902
  0
ARC
  8
0
  6
CONTINUOUS
 62
     7
 10
850
 20
130.8045196533203
 40
5
 50
359.9999453584866
 51
79.99978593687854
  0
ARC
  8
0
  6
CONTINUOUS
 62
     7
 10
810
 20
1.012953453027876E-05
 40
29.99999999999999
 50
308.9447799164507
 51
51.0552200835493
  0
ARC
  8
0
  6
CONTINUOUS
 62
     7
 10
832
 20
27.2213249206543
 40
5.000000000000038
 50
179.9999776881997
 51
231.0550270170197
  0
ARC
  8
0
  6
CONTINUOUS
 62
     7
 10
832
 20
-27.2213020324707
 40
5.000000000000032
 50
128.9449693405151
 51
179.9999640278213
  0
ARC
  8
0
  6
CONTINUOUS
 62
     7
 10
900.21728515625
 20
116.4579010009766
 40
4.999999999999981
 50
255.0000141535823
 51
343.0476344045685
  0
ARC
  8
0
  6
CONTINUOUS
 62
     7
 10
900.21728515625
 20
-116.4578704833984
 40
5.000000000000028
 50
16.95237242562059
 51
104.9999858464177
  0
ARC
  8
0
  6
CONTINUOUS
 62
     7
 10
755
 20
8.581966540077701E-06
 40
20.04728698730467
 50
194.4426348967107
 51
345.557401075468
  0
ARC
  8
0
  6
CONTINUOUS
 62
     7
 10
755
 20
8.581966540077701E-06
 40
12.5
 50
23.57817843000461
 51
156.4218368242355
  0
ARC
  8
0
  6
CONTINUOUS
 62
     7
 10
735
 20
8.019214874366298E-06
 40
5
 50
89.99998201391031
 51
270.0000006832456
  0
ARC
  8
0
  6
CONTINUOUS
 62
     7
 10
775
 20
9.144718205789104E-06
 40
5
 50
270.0000179860897
 51
89.99998201391031
  0
ARC
  8
0
  6
CONTINUOUS
 62
     7
 10
755
 20
8.581966540077701E-06
 40
12.50000000000001
 50
203.5781631757645
 51
336.4218215699954
  0
ARC
  8
0
  6
CONTINUOUS
 62
     7
 10
655.7060546875
 20
90.00684356689453
 40
9.99999999999998
 50
234.4478861485543
 51
270.0000179860891
  0
ARC
  8
0
  6
CONTINUOUS
 62
     7
 10
655.7060546875
 20
-90.00676727294922
 40
9.999999999999995
 50
89.99998201391097
 51
125.5522504552292
  0
ARC
  8
0
  6
CONTINUOUS
 62
     7
 10
695
 20
139.48046875
 40
4.999999999999996
 50
248.3803587345459
 51
0
  0
ARC
  8
0
  6
CONTINUOUS
 62
     7
 10
695
 20
118.2672805786133
 40
4.999999999999982
 50
248.3803587345459
 51
0
  0
ARC
  8
0
  6
CONTINUOUS
 62
     7
 10
620
 20
169.204833984375
 40
4.999999999999943
 50
179.999991348578
 51
248.3803482618903
  0
ARC
  8
0
  6
CONTINUOUS
 62
     7
 10
620
 20
147.9916381835937
 40
4.999999999999943
 50
179.999991348578
 51
248.3803482618903
  0
ARC
  8
0
  6
CONTINUOUS
 62
     7
 10
695
 20
-139.48046875
 40
5
 50
0
 51
111.6196412654541
  0
ARC
  8
0
  6
CONTINUOUS
 62
     7
 10
695
 20
-118.2672653198242
 40
5
 50
0
 51
111.6196412654542
  0
ARC
  8
0
  6
CONTINUOUS
 62
     7
 10
620
 20
-147.9916381835937
 40
4.999999999999996
 50
111.6196412654541
 51
180.0000050089563
  0
ARC
  8
0
  6
CONTINUOUS
 62
     7
 10
620
 20
-169.204833984375
 40
4.999999999999996
 50
111.6196412654541
 51
180.0000050089563
  0
ARC
  8
0
  6
CONTINUOUS
 62
     7
 10
567.5
 20
3.306167400296545E-06
 40
12.5
 50
270.0000179860895
 51
89.99998201391058
  0
CIRCLE
  8
0
  6
CONTINUOUS
 62
     7
 10
682
 20
6.527922323584789E-06
 40
13.5
  0
CIRCLE
  8
0
  6
CONTINUOUS
 62
     7
 10
0
 20
-600
 40
225
  0
ARC
  8
0
  6
CONTINUOUS
 62
     7
 10
0
 20
-600
 40
47.49999999999995
 50
105.2575454498303
 51
74.74246957703872
  0
ARC
  8
0
  6
CONTINUOUS
 62
     3
 10
0
 20
-600
 40
200
 50
333.5707059500407
 51
341.4592534225145
  0
CIRCLE
  8
0
  6
CONTINUOUS
 62
     7
 10
184.7759399414062
 20
-676.536865234375
 40
9.5
  0
CIRCLE
  8
0
  6
CONTINUOUS
 62
     7
 10
184.7759399414062
 20
-523.46337890625
 40
9.5
  0
ARC
  8
0
  6
CONTINUOUS
 62
     3
 10
0
 20
-600
 40
200
 50
18.57071915511085
 51
26.45925979739542
  0
CIRCLE
  8
0
  6
CONTINUOUS
 62
     7
 10
76.5367431640625
 20
-415.2240905761719
 40
9.5
  0
ARC
  8
0
  6
CONTINUOUS
 62
     3
 10
0
 20
-600
 40
200
 50
63.57071528470806
 51
71.45925592699263
  0
CIRCLE
  8
0
  6
CONTINUOUS
 62
     7
 10
-76.53662109375
 20
-415.2240600585938
 40
9.5
  0
ARC
  8
0
  6
CONTINUOUS
 62
     3
 10
0
 20
-600
 40
200
 50
108.5707131218526
 51
116.4592605943263
  0
CIRCLE
  8
0
  6
CONTINUOUS
 62
     7
 10
-184.77587890625
 20
-523.4632568359375
 40
9.5
  0
ARC
  8
0
  6
CONTINUOUS
 62
     3
 10
0
 20
-600
 40
200
 50
153.5707109589971
 51
161.4592516012816
  0
CIRCLE
  8
0
  6
CONTINUOUS
 62
     7
 10
-184.7760009765625
 20
-676.53662109375
 40
9.5
  0
ARC
  8
0
  6
CONTINUOUS
 62
     3
 10
0
 20
-600
 40
200
 50
198.5707192687964
 51
206.4592599110809
  0
CIRCLE
  8
0
  6
CONTINUOUS
 62
     7
 10
-76.536865234375
 20
-784.77587890625
 40
9.5
  0
ARC
  8
0
  6
CONTINUOUS
 62
     3
 10
0
 20
-600
 40
200
 50
243.5707102757517
 51
251.4592577482255
  0
CIRCLE
  8
0
  6
CONTINUOUS
 62
     7
 10
76.53656005859375
 20
-784.7760620117188
 40
9.5
  0
ARC
  8
0
  6
CONTINUOUS
 62
     3
 10
0
 20
-600
 40
200
 50
288.5707081128962
 51
296.4592555853699
  0
CIRCLE
  8
0
  6
CONTINUOUS
 62
     7
 10
0
 20
-600
 40
90
  0
CIRCLE
  8
0
  6
CONTINUOUS
 62
     7
 10
0
 20
-600
 40
132.5
  0
ARC
  8
0
  6
CONTINUOUS
 62
     3
 10
0
 20
-600
 40
117.5
 50
55.11785758300787
 51
64.88213892610719
  0
ARC
  8
0
  6
CONTINUOUS
 62
     3
 10
0
 20
-600
 40
117.5
 50
115.1178524224708
 51
124.8821405957593
  0
ARC
  8
0
  6
CONTINUOUS
 62
     3
 10
0
 20
-600
 40
117.5
 50
175.1178540921229
 51
184.8821422654114
  0
ARC
  8
0
  6
CONTINUOUS
 62
     3
 10
0
 20
-600
 40
117.5
 50
235.1178594042407
 51
244.8821475775292
  0
ARC
  8
0
  6
CONTINUOUS
 62
     3
 10
0
 20
-600
 40
117.5
 50
295.1178610738928
 51
304.8821424169921
  0
ARC
  8
0
  6
CONTINUOUS
 62
     3
 10
0
 20
-600
 40
117.5
 50
355.1178576209031
 51
4.882142379096913
  0
ARC
  8
0
  6
CONTINUOUS
 62
     7
 10
0
 20
-600
 40
175
 50
14.86316782267558
 51
185.1368263591828
  0
CIRCLE
  8
0
  6
CONTINUOUS
 62
     3
 10
0
 20
-600
 40
8
  0
CIRCLE
  8
0
  6
CONTINUOUS
 62
     7
 10
0
 20
-600
 40
7
  0
ARC
  8
0
  6
CONTINUOUS
 62
     7
 10
0
 20
-600
 40
165
 50
16.59408973006584
 51
183.4059061593399
  0
CIRCLE
  8
0
  6
CONTINUOUS
 62
     7
 10
-160.03125
 20
-628.2178344726563
 40
19
  0
CIRCLE
  8
0
  6
CONTINUOUS
 62
     7
 10
160.03125
 20
-571.7821655273437
 40
19
  0
ARC
  8
0
  6
CONTINUOUS
 62
     7
 10
0
 20
-600
 40
175
 50
194.8631696439084
 51
5.136832022397078
  0
ARC
  8
0
  6
CONTINUOUS
 62
     7
 10
0
 20
-600
 40
165
 50
196.5940898437514
 51
3.405909688119992
  0
ARC
  8
0
  6
CONTINUOUS
 62
     7
 10
998.0001220703125
 20
-67.51776123046875
 40
4.999999999999997
 50
90.00000250447782
 51
180.0000050089563
  0
ARC
  8
0
  6
CONTINUOUS
 62
     7
 10
1086.000122070312
 20
97.5
 40
5.000000000000004
 50
269.9999974955209
 51
0
  0
ARC
  8
0
  6
CONTINUOUS
 62
     7
 10
998.0001220703125
 20
-97.5
 40
5.000000000000004
 50
90.00000250447782
 51
180.0000050089563
  0
ARC
  8
0
  6
CONTINUOUS
 62
     7
 10
1086.000122070312
 20
-67.51776123046875
 40
5
 50
0
 51
90.00000250447913
  0
ARC
  8
0
  6
CONTINUOUS
 62
     7
 10
1086.000122070312
 20
67.51776123046875
 40
4.999999999999997
 50
269.9999974955209
 51
0
  0
ARC
  8
0
  6
CONTINUOUS
 62
     7
 10
998.0001220703125
 20
97.5
 40
4.999999999999943
 50
179.999991348578
 51
270.0000006832456
  0
ARC
  8
0
  6
CONTINUOUS
 62
     7
 10
1086.000122070312
 20
-97.5
 40
5
 50
0
 51
90.00000250447913
  0
ARC
  8
0
  6
CONTINUOUS
 62
     7
 10
998.0001220703125
 20
67.51776123046875
 40
4.999999999999943
 50
179.999991348578
 51
270.0000006832456
  0
ARC
  8
0
  6
CONTINUOUS
 62
     7
 10
990.0001220703125
 20
0
 40
10.00000000000001
 50
203.5781631757645
 51
336.4218232775426
  0
ARC
  8
0
  6
CONTINUOUS
 62
     7
 10
1006.500122070312
 20
0
 40
4
 50
270.0000179860891
 51
89.99998201391097
  0
ARC
  8
0
  6
CONTINUOUS
 62
     7
 10
973.5001220703125
 20
0
 40
4
 50
89.99998201391097
 51
270.0000006832446
  0
ARC
  8
0
  6
CONTINUOUS
 62
     7
 10
990.0001220703125
 20
0
 40
9.999999999999986
 50
23.57817672245736
 51
156.4218368242355
  0
ARC
  8
0
  6
CONTINUOUS
 62
     7
 10
998
 20
-532.4822387695313
 40
4.999999999999943
 50
179.9999913485786
 51
270.0000006832456
  0
ARC
  8
0
  6
CONTINUOUS
 62
     7
 10
998
 20
-667.5177612304687
 40
5.000000000000004
 50
90.00000250447782
 51
180.0000050089569
  0
ARC
  8
0
  6
CONTINUOUS
 62
     7
 10
1086
 20
-667.5177612304687
 40
5
 50
0
 51
90.00000250447913
  0
ARC
  8
0
  6
CONTINUOUS
 62
     7
 10
1086
 20
-532.4822387695313
 40
5.000000000000004
 50
269.9999974955209
 51
0
  0
ARC
  8
0
  6
CONTINUOUS
 62
     7
 10
1086
 20
-697.5
 40
5
 50
0
 51
90.00000250447913
  0
ARC
  8
0
  6
CONTINUOUS
 62
     7
 10
998
 20
-697.5
 40
5.000000000000004
 50
90.00000250447782
 51
180.0000050089569
  0
ARC
  8
0
  6
CONTINUOUS
 62
     7
 10
1086
 20
-502.5
 40
5.000000000000004
 50
269.9999974955209
 51
0
  0
ARC
  8
0
  6
CONTINUOUS
 62
     7
 10
1027.000122070312
 20
0
 40
11.5
 50
89.99998201391027
 51
270.0000006832452
  0
ARC
  8
0
  6
CONTINUOUS
 62
     7
 10
1050
 20
-502.5
 40
5.00000000000002
 50
180.0000050089563
 51
270.0000006832456
  0
ARC
  8
0
  6
CONTINUOUS
 62
     7
 10
990
 20
-461.5
 40
20.49999999999999
 50
304.6066501519143
 51
235.3933172910016
  0
CIRCLE
  8
0
  6
CONTINUOUS
 62
     7
 10
990
 20
-461.5
 40
12.5
  0
ARC
  8
0
  6
CONTINUOUS
 62
     7
 10
982.9124755859375
 20
-477.5
 40
1.999999999999985
 50
89.99998201391097
 51
170.0000206677889
  0
ARC
  8
0
  6
CONTINUOUS
 62
     7
 10
997.0875244140625
 20
-477.5
 40
1.999999999999958
 50
9.999999709093608
 51
89.99998201391097
  0
ARC
  8
0
  6
CONTINUOUS
 62
     7
 10
976.0855102539062
 20
-481.6652221679688
 40
4.000000000000036
 50
347.9541887335329
 51
55.39334301789676
  0
ARC
  8
0
  6
CONTINUOUS
 62
     7
 10
1003.914489746094
 20
-481.6652221679688
 40
3.999999999999996
 50
124.6066790665321
 51
192.0457812707042
  0
ARC
  8
0
  6
CONTINUOUS
 62
     7
 10
1038.5
 20
-459.2000122070312
 40
23
 50
89.99998201391082
 51
179.9999640278214
  0
ARC
  8
0
  6
CONTINUOUS
 62
     7
 10
1042.5
 20
-463.2000122070312
 40
4.000000000000027
 50
89.99998201391097
 51
179.9999640278211
  0
POLYLINE
  8
0
  6
CONTINUOUS
 62
     7
 66
     1
 10
0
 20
0
  0
VERTEX
  8
0
  6
CONTINUOUS
 62
     7
 10
581.9994920301355
 20
-455.5069501295717
 42
-0.2644326365784482
  0
VERTEX
  8
0
  6
CONTINUOUS
 62
     7
 10
598.1872837102211
 20
-473.8381380701509
 42
-0.06854696675980297
  0
VERTEX
  8
0
  6
CONTINUOUS
 62
     7
 10
597.2546240051963
 20
-499.2896250873725
 42
0.0162966606042039
  0
VERTEX
  8
0
  6
CONTINUOUS
 62
     7
 10
595.3136225806987
 20
-524.7761319377668
 42
0.01055545132739669
  0
VERTEX
  8
0
  6
CONTINUOUS
 62
     7
 10
594.7662634564196
 20
-550.333558838156
 42
0.001925984020624116
  0
VERTEX
  8
0
  6
CONTINUOUS
 62
     7
 10
594.869481352736
 20
-575.8972488739719
 42
-0.007108211579603253
  0
VERTEX
  8
0
  6
CONTINUOUS
 62
     7
 10
594.69798303115
 20
-601.4599936566603
 42
0.004663529634370836
  0
VERTEX
  8
0
  6
CONTINUOUS
 62
     7
 10
594.2104777783848
 20
-627.0193939380227
 42
0.02512120171448931
  0
VERTEX
  8
0
  6
CONTINUOUS
 62
     7
 10
595.2366901415572
 20
-652.552709000856
 42
-0.001802724295405522
  0
VERTEX
  8
0
  6
CONTINUOUS
 62
     7
 10
597.9368064143486
 20
-677.9734517906601
 42
-0.08354725870046273
  0
VERTEX
  8
0
  6
CONTINUOUS
 62
     7
 10
596.7529739411144
 20
-703.3869020299338
 42
-0.1909399839716907
  0
VERTEX
  8
0
  6
CONTINUOUS
 62
     7
 10
581.9993381943666
 20
-723.5430709523303
 42
0
  0
SEQEND
  8
0
  0
POLYLINE
  8
0
  6
CONTINUOUS
 62
     7
 66
     1
 10
0
 20
0
  0
VERTEX
  8
0
  6
CONTINUOUS
 62
     7
 10
582.0011457963155
 20
110.2675975823111
 42
-0.09976609936419781
  0
VERTEX
  8
0
  6
CONTINUOUS
 62
     7
 10
594.2703709937169
 20
86.50646165861927
 42
-0.06191136403078601
  0
VERTEX
  8
0
  6
CONTINUOUS
 62
     7
 10
598.5088028407976
 20
59.99300481627795
 42
-0.02907598193944197
  0
VERTEX
  8
0
  6
CONTINUOUS
 62
     7
 10
597.8376746344067
 20
33.09812929543273
 42
0.00540827902797282
  0
VERTEX
  8
0
  6
CONTINUOUS
 62
     7
 10
595.9008832734223
 20
6.249864898200508
 42
0.02392994120570992
  0
VERTEX
  8
0
  6
CONTINUOUS
 62
     7
 10
595.9334329420537
 20
-20.65878337463442
 42
-0.003105135052578796
  0
VERTEX
  8
0
  6
CONTINUOUS
 62
     7
 10
597.104495292147
 20
-47.55184149574209
 42
-0.03121806139236363
  0
VERTEX
  8
0
  6
CONTINUOUS
 62
     7
 10
596.4334415486402
 20
-74.44466138431945
 42
-0.04386661787599869
  0
VERTEX
  8
0
  6
CONTINUOUS
 62
     7
 10
591.4992629620014
 20
-100.8723696791175
 42
-0.04471108467355352
  0
VERTEX
  8
0
  6
CONTINUOUS
 62
     7
 10
582.0000672335743
 20
-126.021321119247
 42
0
  0
SEQEND
  8
0
  0
TEXT
  8
0
  6
CONTINUOUS
 62
     7
 10
-222.5000486373901
 20
-17.5
 40
35
 41
0.9993764138415093
  1
ERKV-NDF-7500
  0
ENDSEC
  0
EOF
