  0
SECTION
  2
HEADER
  0
ENDSEC
  0
SECTION
  2
TABLES
  0
TABLE
  2
LTYPE
 70
    22
  0
LTYPE
  2
CONTINUOUS
 70
    64
  3
Solid line
 72
    65
 73
     0
 40
0.000000
  0
LTYPE
  2
DASHED
 70
    64
  3
__ __ __ __ __ __ __ __ __ __ __ __ __ __ __
 72
    65
 73
     2
 40
3.500000
 49
2.000000
 49
-1.500000
  0
LTYPE
  2
CENTER
 70
    64
  3
____ _ ____ _ ____ _ ____ _ ____ _ ____ _ ____
 72
    65
 73
     4
 40
17.500000
 49
13.000000
 49
-1.500000
 49
1.500000
 49
-1.500000
  0
LTYPE
  2
PHANTOM
 70
    64
  3
_____ _ _ _____ _ _ _____ _ _ _____ _ _ ____  
 72
    65
 73
     6
 40
15.500000
 49
8.000000
 49
-1.500000
 49
1.500000
 49
-1.500000
 49
1.500000
 49
-1.500000
  0
LTYPE
  2
DOT
 70
    64
  3
. . . . . . . . . . . . . . . . . . . . . . . .
 72
    65
 73
     2
 40
0.25
 49
0.0
 49
-0.25
  0
ENDTAB
  0
TABLE
  2
LAYER
 70
     1
  0
LAYER
  2
0
 70
     0
 62
     7
  6
CONTINUOUS
  0
ENDTAB
  0
TABLE
  2
STYLE
 70
     1
  0
STYLE
  2
STANDARD
 70
     0
 40
0.000000
 41
1.000000
 50
0.000000
 71
     0
 42
0.200000
  3
txt
  0
ENDTAB
  0
TABLE
  2
VIEW
 70
     0
  0
ENDTAB
  0
ENDSEC
  0
SECTION
  2
BLOCKS
  0
ENDSEC
  0
SECTION
  2
ENTITIES
  0
LINE
  8
0
  6
CONTINUOUS
 62
     3
 10
430
 20
-630
 11
1050
 21
-630
  0
LINE
  8
0
  6
CONTINUOUS
 62
     7
 10
902
 20
-725
 11
944
 21
-725
  0
LINE
  8
0
  6
CONTINUOUS
 62
     7
 10
902
 20
-535
 11
944
 21
-535
  0
LINE
  8
0
  6
CONTINUOUS
 62
     7
 10
902.0000610351562
 20
-535.0001220703125
 11
898.0000610351562
 21
-539.0000610351563
  0
LINE
  8
0
  6
CONTINUOUS
 62
     7
 10
898
 20
-720.9998779296875
 11
902
 21
-724.9998779296875
  0
LINE
  8
0
  6
CONTINUOUS
 62
     7
 10
944
 20
-725.0000610351562
 11
948
 21
-721.0000610351563
  0
LINE
  8
0
  6
CONTINUOUS
 62
     7
 10
947.9999389648438
 20
-539.0000610351563
 11
943.9999389648438
 21
-535.0000610351562
  0
LINE
  8
0
  6
CONTINUOUS
 62
     7
 10
902
 20
-592.3461303710937
 11
944
 21
-592.3461303710937
  0
LINE
  8
0
  6
CONTINUOUS
 62
     7
 10
902
 20
-603.7877197265625
 11
944
 21
-603.7877197265625
  0
LINE
  8
0
  6
CONTINUOUS
 62
     7
 10
902
 20
-613.53125
 11
944
 21
-613.53125
  0
LINE
  8
0
  6
CONTINUOUS
 62
     7
 10
902
 20
-625.00048828125
 11
944
 21
-625.00048828125
  0
LINE
  8
0
  6
CONTINUOUS
 62
     7
 10
902
 20
-635.0001220703125
 11
944
 21
-635.0001220703125
  0
LINE
  8
0
  6
CONTINUOUS
 62
     7
 10
902
 20
-646.469482421875
 11
944
 21
-646.469482421875
  0
LINE
  8
0
  6
CONTINUOUS
 62
     7
 10
902
 20
-656.2124633789062
 11
944
 21
-656.2124633789062
  0
LINE
  8
0
  6
CONTINUOUS
 62
     7
 10
902
 20
-667.6536865234375
 11
944
 21
-667.6536865234375
  0
LINE
  8
0
  6
CONTINUOUS
 62
     7
 10
902
 20
-686.7067260742188
 11
944
 21
-686.7067260742188
  0
LINE
  8
0
  6
CONTINUOUS
 62
     7
 10
902
 20
-695.9718017578125
 11
944
 21
-695.9718017578125
  0
LINE
  8
0
  6
CONTINUOUS
 62
     7
 10
902
 20
-702.793212890625
 11
944
 21
-702.793212890625
  0
LINE
  8
0
  6
CONTINUOUS
 62
     7
 10
902
 20
-709.658447265625
 11
944
 21
-709.658447265625
  0
LINE
  8
0
  6
CONTINUOUS
 62
     7
 10
902
 20
-714.65869140625
 11
944
 21
-714.65869140625
  0
LINE
  8
0
  6
CONTINUOUS
 62
     7
 10
902
 20
-719.26123046875
 11
944
 21
-719.26123046875
  0
LINE
  8
0
  6
CONTINUOUS
 62
     7
 10
898
 20
-537.5
 11
898
 21
-722.5
  0
LINE
  8
0
  6
CONTINUOUS
 62
     7
 10
805
 20
-452.5
 11
840
 21
-452.5
  0
LINE
  8
0
  6
CONTINUOUS
 62
     7
 10
805
 20
-807.5
 11
827
 21
-807.5
  0
LINE
  8
0
  6
CONTINUOUS
 62
     7
 10
805
 20
-452.5
 11
805
 21
-807.5
  0
LINE
  8
0
  6
CONTINUOUS
 62
     7
 10
827
 20
-452.5
 11
827
 21
-807.5
  0
LINE
  8
0
  6
CONTINUOUS
 62
     7
 10
883
 20
-537.5
 11
883
 21
-722.5
  0
LINE
  8
0
  6
CONTINUOUS
 62
     7
 10
883
 20
-537.5
 11
898
 21
-537.5
  0
LINE
  8
0
  6
CONTINUOUS
 62
     7
 10
883
 20
-722.5
 11
898
 21
-722.5
  0
LINE
  8
0
  6
CONTINUOUS
 62
     7
 10
855
 20
-499.1955261230469
 11
855
 21
-760.8045043945313
  0
LINE
  8
0
  6
CONTINUOUS
 62
     7
 10
831.1316528320312
 20
-769.2086181640625
 11
850.8681640625
 21
-765.728515625
  0
LINE
  8
0
  6
CONTINUOUS
 62
     7
 10
831.1317749023437
 20
-490.7914123535156
 11
850.8681640625
 21
-494.271484375
  0
LINE
  8
0
  6
CONTINUOUS
 62
     7
 10
840
 20
-452.5
 11
840
 21
-488.1596069335938
  0
LINE
  8
0
  6
CONTINUOUS
 62
     7
 10
855
 20
-586.27587890625
 11
883
 21
-586.27587890625
  0
LINE
  8
0
  6
CONTINUOUS
 62
     7
 10
854.9999389648437
 20
-551.5120849609375
 11
882.9998779296875
 21
-563.345458984375
  0
LINE
  8
0
  6
CONTINUOUS
 62
     7
 10
855
 20
-673.72412109375
 11
883
 21
-673.72412109375
  0
LINE
  8
0
  6
CONTINUOUS
 62
     7
 10
855
 20
-708.4879150390625
 11
882.9999389648437
 21
-696.654541015625
  0
LINE
  8
0
  6
CONTINUOUS
 62
     7
 10
730
 20
-810
 11
800
 21
-810
  0
LINE
  8
0
  6
CONTINUOUS
 62
     7
 10
730
 20
-450
 11
800
 21
-450
  0
LINE
  8
0
  6
CONTINUOUS
 62
     7
 10
725.0001220703125
 20
-455.0000610351563
 11
730.0000610351562
 21
-450.0000610351562
  0
LINE
  8
0
  6
CONTINUOUS
 62
     7
 10
800
 20
-450.0000305175781
 11
805
 21
-455.0000610351563
  0
LINE
  8
0
  6
CONTINUOUS
 62
     7
 10
725
 20
-805
 11
730
 21
-810
  0
LINE
  8
0
  6
CONTINUOUS
 62
     7
 10
800
 20
-810
 11
805
 21
-804.9999389648437
  0
LINE
  8
0
  6
CONTINUOUS
 62
     7
 10
739.0001220703125
 20
-440
 11
771.0000610351563
 21
-440
  0
LINE
  8
0
  6
CONTINUOUS
 62
     7
 10
735.3602905273437
 20
-449.9999694824219
 11
739
 21
-440
  0
LINE
  8
0
  6
CONTINUOUS
 62
     7
 10
774.6397094726562
 20
-449.9999694824219
 11
771
 21
-439.9999694824219
  0
LINE
  8
0
  6
CONTINUOUS
 62
     7
 10
730
 20
-457.0777587890625
 11
800
 21
-457.0777587890625
  0
LINE
  8
0
  6
CONTINUOUS
 62
     7
 10
730
 20
-495.5732421875
 11
800
 21
-495.5732421875
  0
LINE
  8
0
  6
CONTINUOUS
 62
     7
 10
730
 20
-510.2942504882812
 11
800
 21
-510.2942504882812
  0
LINE
  8
0
  6
CONTINUOUS
 62
     7
 10
730
 20
-525.9464111328125
 11
800
 21
-525.9464111328125
  0
LINE
  8
0
  6
CONTINUOUS
 62
     7
 10
730
 20
-543.0659790039062
 11
800
 21
-543.0659790039062
  0
LINE
  8
0
  6
CONTINUOUS
 62
     7
 10
730
 20
-580.02099609375
 11
800
 21
-580.02099609375
  0
LINE
  8
0
  6
CONTINUOUS
 62
     7
 10
730
 20
-599.71923828125
 11
800
 21
-599.71923828125
  0
LINE
  8
0
  6
CONTINUOUS
 62
     7
 10
730
 20
-619.5905151367188
 11
800
 21
-619.5905151367188
  0
LINE
  8
0
  6
CONTINUOUS
 62
     7
 10
730
 20
-640.4093627929687
 11
800
 21
-640.4093627929687
  0
LINE
  8
0
  6
CONTINUOUS
 62
     7
 10
730
 20
-660.28076171875
 11
800
 21
-660.28076171875
  0
LINE
  8
0
  6
CONTINUOUS
 62
     7
 10
730
 20
-679.9788208007812
 11
800
 21
-679.9788208007812
  0
LINE
  8
0
  6
CONTINUOUS
 62
     7
 10
730
 20
-716.9341430664062
 11
800
 21
-716.9341430664062
  0
LINE
  8
0
  6
CONTINUOUS
 62
     7
 10
730
 20
-734.0533447265625
 11
800
 21
-734.0533447265625
  0
LINE
  8
0
  6
CONTINUOUS
 62
     7
 10
730
 20
-749.7055053710938
 11
800
 21
-749.7055053710938
  0
LINE
  8
0
  6
CONTINUOUS
 62
     7
 10
730
 20
-764.4265747070313
 11
800
 21
-764.4265747070313
  0
LINE
  8
0
  6
CONTINUOUS
 62
     7
 10
730
 20
-776.8770141601563
 11
800
 21
-776.8770141601563
  0
LINE
  8
0
  6
CONTINUOUS
 62
     7
 10
730
 20
-787.6148681640625
 11
800
 21
-787.6148681640625
  0
LINE
  8
0
  6
CONTINUOUS
 62
     7
 10
730
 20
-802.92236328125
 11
800
 21
-802.92236328125
  0
LINE
  8
0
  6
CONTINUOUS
 62
     7
 10
742.5000610351563
 20
-437
 11
743.7955932617188
 21
-429.6527404785156
  0
LINE
  8
0
  6
CONTINUOUS
 62
     7
 10
766.2044067382813
 20
-429.6527099609375
 11
767.4999389648438
 21
-437.0000610351563
  0
LINE
  8
0
  6
CONTINUOUS
 62
     7
 10
745.76513671875
 20
-428
 11
764.23486328125
 21
-428
  0
LINE
  8
0
  6
CONTINUOUS
 62
     7
 10
745.3418579101563
 20
-428.0452880859375
 11
754.5767211914063
 21
-426.0452880859375
  0
LINE
  8
0
  6
CONTINUOUS
 62
     7
 10
755.4232788085938
 20
-426.0452575683594
 11
764.6581420898437
 21
-428.0452880859375
  0
LINE
  8
0
  6
CONTINUOUS
 62
     7
 10
742.5
 20
-437
 11
742.5
 21
-440
  0
LINE
  8
0
  6
CONTINUOUS
 62
     7
 10
767.5
 20
-437.0000305175781
 11
767.5
 21
-440
  0
LINE
  8
0
  6
CONTINUOUS
 62
     7
 10
590
 20
-405
 11
615
 21
-405
  0
LINE
  8
0
  6
CONTINUOUS
 62
     7
 10
590
 20
-855
 11
615
 21
-855
  0
LINE
  8
0
  6
CONTINUOUS
 62
     7
 10
725
 20
-452.5
 11
725
 21
-807.5
  0
LINE
  8
0
  6
CONTINUOUS
 62
     7
 10
590
 20
-405
 11
590
 21
-490.2767944335938
  0
LINE
  8
0
  6
CONTINUOUS
 62
     7
 10
615
 20
-405
 11
615
 21
-855
  0
LINE
  8
0
  6
CONTINUOUS
 62
     7
 10
700
 20
-452.5
 11
700
 21
-807.5
  0
LINE
  8
0
  6
CONTINUOUS
 62
     7
 10
625
 20
-452.5
 11
725
 21
-452.5
  0
LINE
  8
0
  6
CONTINUOUS
 62
     7
 10
700
 20
-807.5
 11
725
 21
-807.5
  0
LINE
  8
0
  6
CONTINUOUS
 62
     7
 10
655.7060546875
 20
-549.9932861328125
 11
700
 21
-549.9932861328125
  0
LINE
  8
0
  6
CONTINUOUS
 62
     7
 10
655.7060546875
 20
-710.0067138671875
 11
700
 21
-710.0067138671875
  0
LINE
  8
0
  6
CONTINUOUS
 62
     7
 10
615
 20
-523.1932983398437
 11
649.8916015625
 21
-548.129150390625
  0
LINE
  8
0
  6
CONTINUOUS
 62
     7
 10
615
 20
-736.8067626953125
 11
649.8916015625
 21
-711.870849609375
  0
LINE
  8
0
  6
CONTINUOUS
 62
     7
 10
618.1577758789062
 20
-773.3433227539063
 11
693.1577758789062
 21
-743.6189575195313
  0
LINE
  8
0
  6
CONTINUOUS
 62
     7
 10
618.1577758789062
 20
-794.5565795898437
 11
693.1577758789062
 21
-764.8322143554687
  0
LINE
  8
0
  6
CONTINUOUS
 62
     7
 10
618.1578369140625
 20
-486.6566467285156
 11
693.1578369140625
 21
-516.3809814453125
  0
LINE
  8
0
  6
CONTINUOUS
 62
     7
 10
618.15771484375
 20
-465.4434204101563
 11
693.1577758789062
 21
-495.1677551269531
  0
LINE
  8
0
  6
CONTINUOUS
 62
     7
 10
582
 20
-455
 11
582
 21
-485.5072021484375
  0
LINE
  8
0
  6
CONTINUOUS
 62
     7
 10
582
 20
-455
 11
590
 21
-455
  0
LINE
  8
0
  6
CONTINUOUS
 62
     7
 10
582
 20
-805
 11
590
 21
-805
  0
LINE
  8
0
  6
CONTINUOUS
 62
     7
 10
450
 20
-582.5
 11
590
 21
-582.5
  0
LINE
  8
0
  6
CONTINUOUS
 62
     7
 10
450
 20
-677.5
 11
590
 21
-677.5
  0
LINE
  8
0
  6
CONTINUOUS
 62
     7
 10
450
 20
-577.5
 11
450
 21
-677.5
  0
LINE
  8
0
  6
CONTINUOUS
 62
     7
 10
582
 20
-753.54296875
 11
582
 21
-805
  0
LINE
  8
0
  6
CONTINUOUS
 62
     7
 10
590
 20
-746.47412109375
 11
590
 21
-855
  0
LINE
  8
0
  6
CONTINUOUS
 62
     7
 10
450
 20
-577.5
 11
560
 21
-577.5
  0
LINE
  8
0
  6
CONTINUOUS
 62
     7
 10
590
 20
-575
 11
590
 21
-685
  0
LINE
  8
0
  6
CONTINUOUS
 62
     7
 10
590
 20
-575
 11
594.797607421875
 21
-575
  0
LINE
  8
0
  6
CONTINUOUS
 62
     7
 10
590
 20
-685
 11
595.4757080078125
 21
-685
  0
LINE
  8
0
  6
CONTINUOUS
 62
     7
 10
668.5
 20
-415.2000122070312
 11
695.5
 21
-415.2000122070312
  0
LINE
  8
0
  6
CONTINUOUS
 62
     7
 10
673.3499755859375
 20
-415.2000122070312
 11
673.3499755859375
 21
-452.5
  0
LINE
  8
0
  6
CONTINUOUS
 62
     7
 10
690.6500244140625
 20
-415.2000122070312
 11
690.6500244140625
 21
-452.5
  0
LINE
  8
0
  6
CONTINUOUS
 62
     3
 10
682
 20
-360.53759765625
 11
682
 21
-467.5
  0
LINE
  8
0
  6
CONTINUOUS
 62
     7
 10
668.5
 20
-383.2000122070312
 11
695.5
 21
-383.2000122070312
  0
LINE
  8
0
  6
CONTINUOUS
 62
     7
 10
690.071044921875
 20
-368.550048828125
 11
673.928955078125
 21
-368.550048828125
  0
LINE
  8
0
  6
CONTINUOUS
 62
     7
 10
690.507568359375
 20
-377.550048828125
 11
673.492431640625
 21
-377.550048828125
  0
LINE
  8
0
  6
CONTINUOUS
 62
     7
 10
690.5075073242188
 20
-377.5500183105469
 11
690.3309326171875
 21
-383.1999816894531
  0
LINE
  8
0
  6
CONTINUOUS
 62
     7
 10
673.492431640625
 20
-377.550048828125
 11
673.6690063476562
 21
-383.2000122070312
  0
LINE
  8
0
  6
CONTINUOUS
 62
     7
 10
690.071044921875
 20
-368.550048828125
 11
690.071044921875
 21
-377.550048828125
  0
LINE
  8
0
  6
CONTINUOUS
 62
     7
 10
673.928955078125
 20
-368.550048828125
 11
673.928955078125
 21
-377.550048828125
  0
LINE
  8
0
  6
CONTINUOUS
 62
     7
 10
695.5
 20
-383.2000122070312
 11
695.5
 21
-415.2000122070312
  0
LINE
  8
0
  6
CONTINUOUS
 62
     7
 10
668.5
 20
-383.2000122070312
 11
668.5
 21
-415.2000122070312
  0
LINE
  8
0
  6
CONTINUOUS
 62
     3
 10
673.928955078125
 20
-377.550048828125
 11
682
 21
-368.550048828125
  0
LINE
  8
0
  6
CONTINUOUS
 62
     7
 10
682
 20
-368.550048828125
 11
682
 21
-377.550048828125
  0
LINE
  8
0
  6
CONTINUOUS
 62
     3
 10
682
 20
-377.5500793457031
 11
690.071044921875
 21
-368.550048828125
  0
LINE
  8
0
  6
CONTINUOUS
 62
     3
 10
690.071044921875
 20
-377.550048828125
 11
682
 21
-368.550048828125
  0
LINE
  8
0
  6
CONTINUOUS
 62
     3
 10
673.9290161132812
 20
-368.5500183105469
 11
682.0000610351563
 21
-377.5500183105469
  0
LINE
  8
0
  6
CONTINUOUS
 62
     7
 10
560
 20
-577.5
 11
560
 21
-582.5
  0
LINE
  8
0
  6
CONTINUOUS
 62
     7
 10
782.9999389648438
 20
-621.5145874023437
 11
774.5146484375
 21
-629.9998779296875
  0
LINE
  8
0
  6
CONTINUOUS
 62
     7
 10
791.4854125976562
 20
-629.9998779296875
 11
783.0001220703125
 21
-621.5146484375
  0
LINE
  8
0
  6
CONTINUOUS
 62
     3
 10
783
 20
-619.492431640625
 11
783
 21
-640.507568359375
  0
LINE
  8
0
  6
CONTINUOUS
 62
     7
 10
783
 20
-638.4854125976563
 11
774.5147705078125
 21
-630.0001220703125
  0
LINE
  8
0
  6
CONTINUOUS
 62
     7
 10
791.4852294921875
 20
-629.9999389648437
 11
782.9999389648438
 21
-638.4852294921875
  0
LINE
  8
0
  6
CONTINUOUS
 62
     3
 10
822
 20
-381.6383361816406
 11
822
 21
-457
  0
LINE
  8
0
  6
CONTINUOUS
 62
     3
 10
804.6383056640625
 20
-399
 11
877.469970703125
 21
-399
  0
LINE
  8
0
  6
CONTINUOUS
 62
     7
 10
854
 20
-383
 11
854
 21
-415
  0
LINE
  8
0
  6
CONTINUOUS
 62
     7
 10
806
 20
-431
 11
838
 21
-431
  0
LINE
  8
0
  6
CONTINUOUS
 62
     7
 10
843
 20
-415
 11
854
 21
-415
  0
LINE
  8
0
  6
CONTINUOUS
 62
     7
 10
838
 20
-383
 11
854
 21
-383
  0
LINE
  8
0
  6
CONTINUOUS
 62
     7
 10
806
 20
-415
 11
806
 21
-431
  0
LINE
  8
0
  6
CONTINUOUS
 62
     7
 10
838
 20
-420
 11
838
 21
-431
  0
LINE
  8
0
  6
CONTINUOUS
 62
     7
 10
872.469970703125
 20
-410.1923828125
 11
872.469970703125
 21
-387.8076171875
  0
LINE
  8
0
  6
CONTINUOUS
 62
     7
 10
861.469970703125
 20
-412.4534301757812
 11
861.469970703125
 21
-385.5465698242188
  0
LINE
  8
0
  6
CONTINUOUS
 62
     7
 10
861.4700317382813
 20
-412.4534301757812
 11
854
 21
-412.219970703125
  0
LINE
  8
0
  6
CONTINUOUS
 62
     7
 10
861.469970703125
 20
-385.5465698242188
 11
854
 21
-385.7799987792969
  0
LINE
  8
0
  6
CONTINUOUS
 62
     7
 10
872.469970703125
 20
-410.1923828125
 11
861.469970703125
 21
-410.1923828125
  0
LINE
  8
0
  6
CONTINUOUS
 62
     7
 10
872.469970703125
 20
-387.8076171875
 11
861.469970703125
 21
-387.8076171875
  0
LINE
  8
0
  6
CONTINUOUS
 62
     3
 10
861.4700317382813
 20
-410.1924438476562
 11
872.4700317382813
 21
-399.0000610351563
  0
LINE
  8
0
  6
CONTINUOUS
 62
     3
 10
872.4700317382813
 20
-410.1923217773437
 11
861.4700317382813
 21
-398.9999694824219
  0
LINE
  8
0
  6
CONTINUOUS
 62
     3
 10
861.469970703125
 20
-399.0000305175781
 11
872.469970703125
 21
-387.8076477050781
  0
LINE
  8
0
  6
CONTINUOUS
 62
     3
 10
872.469970703125
 20
-398.9999389648437
 11
861.4700317382813
 21
-387.8075866699219
  0
LINE
  8
0
  6
CONTINUOUS
 62
     7
 10
808.5
 20
-431
 11
808.5
 21
-452
  0
LINE
  8
0
  6
CONTINUOUS
 62
     7
 10
835.5
 20
-431
 11
835.5
 21
-452
  0
LINE
  8
0
  6
CONTINUOUS
 62
     7
 10
861.4700317382813
 20
-398.9999694824219
 11
872.4700317382813
 21
-399.0000305175781
  0
LINE
  8
0
  6
CONTINUOUS
 62
     3
 10
0
 20
-360.53759765625
 11
0
 21
-875
  0
LINE
  8
0
  6
CONTINUOUS
 62
     3
 10
-245
 20
-630
 11
245
 21
-630
  0
LINE
  8
0
  6
CONTINUOUS
 62
     7
 10
-12.5
 20
-577.5
 11
-12.5
 21
-591.5
  0
LINE
  8
0
  6
CONTINUOUS
 62
     7
 10
12.5
 20
-577.5
 11
12.5
 21
-591.5
  0
LINE
  8
0
  6
CONTINUOUS
 62
     3
 10
172.4159545898438
 20
-701.4176025390625
 11
195.4671478271484
 21
-710.9656982421875
  0
LINE
  8
0
  6
CONTINUOUS
 62
     3
 10
172.4161224365234
 20
-558.5828857421875
 11
195.4673309326172
 21
-549.0347290039062
  0
LINE
  8
0
  6
CONTINUOUS
 62
     3
 10
71.417236328125
 20
-457.5839233398437
 11
80.96535491943359
 21
-434.53271484375
  0
LINE
  8
0
  6
CONTINUOUS
 62
     3
 10
-71.41686248779297
 20
-457.5837707519531
 11
-80.96498107910156
 21
-434.5325622558594
  0
LINE
  8
0
  6
CONTINUOUS
 62
     3
 10
-172.4159851074219
 20
-558.5826416015625
 11
-195.4671783447266
 21
-549.0345458984375
  0
LINE
  8
0
  6
CONTINUOUS
 62
     3
 10
-172.4161834716797
 20
-701.4168090820312
 11
-195.4673919677734
 21
-710.9649658203125
  0
LINE
  8
0
  6
CONTINUOUS
 62
     3
 10
-71.41748809814453
 20
-802.4159545898437
 11
-80.96561431884766
 21
-825.4671020507813
  0
LINE
  8
0
  6
CONTINUOUS
 62
     3
 10
71.41664123535156
 20
-802.4163818359375
 11
80.96475219726562
 21
-825.4675903320312
  0
LINE
  8
0
  6
CONTINUOUS
 62
     7
 10
-12.5
 20
-591.5
 11
12.5
 21
-591.5
  0
LINE
  8
0
  6
CONTINUOUS
 62
     7
 10
-12.5
 20
-577.5
 11
12.5
 21
-577.5
  0
LINE
  8
0
  6
CONTINUOUS
 62
     3
 10
63.84315872192383
 20
-519.4204711914062
 11
52.5800666809082
 21
-538.9287109375
  0
LINE
  8
0
  6
CONTINUOUS
 62
     3
 10
-63.84307861328125
 20
-519.4204711914062
 11
-52.57998275756836
 21
-538.9287109375
  0
LINE
  8
0
  6
CONTINUOUS
 62
     3
 10
-63.84309005737305
 20
-740.5795288085938
 11
-52.57999801635742
 21
-721.0712890625
  0
LINE
  8
0
  6
CONTINUOUS
 62
     3
 10
63.84317398071289
 20
-740.5795288085938
 11
52.58005142211914
 21
-721.0712280273437
  0
LINE
  8
0
  6
CONTINUOUS
 62
     7
 10
-13.5
 20
-383.2000122070312
 11
13.5
 21
-383.2000122070312
  0
LINE
  8
0
  6
CONTINUOUS
 62
     7
 10
8.071044921875
 20
-368.550048828125
 11
-8.071044921875
 21
-368.550048828125
  0
LINE
  8
0
  6
CONTINUOUS
 62
     7
 10
8.507568359375
 20
-377.550048828125
 11
-8.507568359375
 21
-377.550048828125
  0
LINE
  8
0
  6
CONTINUOUS
 62
     7
 10
8.507540702819824
 20
-377.5499877929687
 11
8.330979347229004
 21
-383.199951171875
  0
LINE
  8
0
  6
CONTINUOUS
 62
     7
 10
-8.507637977600098
 20
-377.550048828125
 11
-8.331076622009277
 21
-383.2000122070312
  0
LINE
  8
0
  6
CONTINUOUS
 62
     7
 10
8.071044921875
 20
-368.550048828125
 11
8.071044921875
 21
-377.550048828125
  0
LINE
  8
0
  6
CONTINUOUS
 62
     7
 10
-8.071044921875
 20
-368.550048828125
 11
-8.071044921875
 21
-377.550048828125
  0
LINE
  8
0
  6
CONTINUOUS
 62
     7
 10
13.5
 20
-383.2000122070312
 11
13.5
 21
-405.4053649902344
  0
LINE
  8
0
  6
CONTINUOUS
 62
     7
 10
-13.5
 20
-383.2000122070312
 11
-13.5
 21
-405.4053649902344
  0
LINE
  8
0
  6
CONTINUOUS
 62
     3
 10
-8.071029663085938
 20
-368.5500793457031
 11
6.731216126354411E-05
 21
-377.5501403808594
  0
LINE
  8
0
  6
CONTINUOUS
 62
     3
 10
-8.071045875549316
 20
-377.5500183105469
 11
-9.943531040335074E-06
 21
-368.5500183105469
  0
LINE
  8
0
  6
CONTINUOUS
 62
     3
 10
1.418690771970432E-05
 20
-377.550048828125
 11
8.071050643920898
 21
-368.550048828125
  0
LINE
  8
0
  6
CONTINUOUS
 62
     3
 10
8.071070671081543
 20
-377.5501403808594
 11
-2.64813188550761E-05
 21
-368.5501098632813
  0
LINE
  8
0
  6
CONTINUOUS
 62
     7
 10
0
 20
-368.550048828125
 11
0
 21
-377.550048828125
  0
LINE
  8
0
  6
CONTINUOUS
 62
     3
 10
430
 20
0
 11
1048
 21
0
  0
LINE
  8
0
  6
CONTINUOUS
 62
     7
 10
902
 20
-87.21929931640625
 11
944.0001220703125
 21
-87.21929931640625
  0
LINE
  8
0
  6
CONTINUOUS
 62
     7
 10
902
 20
-95
 11
944
 21
-95
  0
LINE
  8
0
  6
CONTINUOUS
 62
     7
 10
902
 20
95
 11
944
 21
95
  0
LINE
  8
0
  6
CONTINUOUS
 62
     7
 10
902.0001831054688
 20
94.99977874755859
 11
898.0001220703125
 21
90.99977111816406
  0
LINE
  8
0
  6
CONTINUOUS
 62
     7
 10
898
 20
-90.99994659423828
 11
902
 21
-94.99995422363281
  0
LINE
  8
0
  6
CONTINUOUS
 62
     7
 10
944
 20
-94.99999237060547
 11
948
 21
-90.99999237060547
  0
LINE
  8
0
  6
CONTINUOUS
 62
     7
 10
947.9998779296875
 20
91.00003051757813
 11
943.9998779296875
 21
95.00003814697266
  0
LINE
  8
0
  6
CONTINUOUS
 62
     7
 10
901.9999389648438
 20
87.218994140625
 11
944.0000610351562
 21
87.218994140625
  0
LINE
  8
0
  6
CONTINUOUS
 62
     7
 10
901.9999389648438
 20
76.21875
 11
944.0000610351562
 21
76.21875
  0
LINE
  8
0
  6
CONTINUOUS
 62
     7
 10
901.9999389648438
 20
68.35662841796875
 11
944.0000610351562
 21
68.35662841796875
  0
LINE
  8
0
  6
CONTINUOUS
 62
     7
 10
901.9999389648438
 20
61.04364013671875
 11
944.0000610351562
 21
61.04364013671875
  0
LINE
  8
0
  6
CONTINUOUS
 62
     7
 10
901.9999389648438
 20
51.7645263671875
 11
944.0000610351562
 21
51.7645263671875
  0
LINE
  8
0
  6
CONTINUOUS
 62
     7
 10
901.9999389648438
 20
43.10443115234375
 11
944.0000610351562
 21
43.10443115234375
  0
LINE
  8
0
  6
CONTINUOUS
 62
     7
 10
901.9999389648438
 20
32.5186767578125
 11
944.0000610351562
 21
32.5186767578125
  0
LINE
  8
0
  6
CONTINUOUS
 62
     7
 10
901.9999389648438
 20
22.95574951171875
 11
941.6258544921875
 21
22.95574951171875
  0
LINE
  8
0
  6
CONTINUOUS
 62
     7
 10
901.9999389648438
 20
11.00006103515625
 11
944.0000610351562
 21
11.00006103515625
  0
LINE
  8
0
  6
CONTINUOUS
 62
     7
 10
898
 20
92.50001525878906
 11
898
 21
-92.49998474121094
  0
LINE
  8
0
  6
CONTINUOUS
 62
     7
 10
805
 20
177.5
 11
827
 21
177.5
  0
LINE
  8
0
  6
CONTINUOUS
 62
     7
 10
805
 20
-177.5
 11
827
 21
-177.5
  0
LINE
  8
0
  6
CONTINUOUS
 62
     7
 10
805
 20
177.5000152587891
 11
805
 21
-177.4999847412109
  0
LINE
  8
0
  6
CONTINUOUS
 62
     7
 10
827
 20
177.5000152587891
 11
827
 21
24.71845626831055
  0
LINE
  8
0
  6
CONTINUOUS
 62
     7
 10
883
 20
92.50001525878906
 11
883
 21
-92.49998474121094
  0
LINE
  8
0
  6
CONTINUOUS
 62
     7
 10
883
 20
92.5
 11
898
 21
92.5
  0
LINE
  8
0
  6
CONTINUOUS
 62
     7
 10
883
 20
-92.5
 11
898
 21
-92.5
  0
LINE
  8
0
  6
CONTINUOUS
 62
     7
 10
855
 20
130.8045196533203
 11
855
 21
13.25124931335449
  0
LINE
  8
0
  6
CONTINUOUS
 62
     7
 10
831.1317749023437
 20
-139.2086486816406
 11
850.8682250976563
 21
-135.7285766601562
  0
LINE
  8
0
  6
CONTINUOUS
 62
     7
 10
831.1317749023437
 20
139.2085113525391
 11
850.8682250976563
 21
135.7284545898438
  0
LINE
  8
0
  6
CONTINUOUS
 62
     7
 10
827
 20
-24.71843338012695
 11
827
 21
-177.4999847412109
  0
LINE
  8
0
  6
CONTINUOUS
 62
     7
 10
855
 20
-40.2625732421875
 11
883
 21
-40.2625732421875
  0
LINE
  8
0
  6
CONTINUOUS
 62
     7
 10
883
 20
-62.53787612915039
 11
855
 21
-73.57267761230469
  0
LINE
  8
0
  6
CONTINUOUS
 62
     7
 10
882.9999389648437
 20
62.53789901733398
 11
855
 21
73.57267761230469
  0
LINE
  8
0
  6
CONTINUOUS
 62
     7
 10
855
 20
40.2625732421875
 11
883
 21
40.2625732421875
  0
LINE
  8
0
  6
CONTINUOUS
 62
     7
 10
730
 20
-180
 11
800
 21
-180
  0
LINE
  8
0
  6
CONTINUOUS
 62
     7
 10
730
 20
180
 11
800
 21
180
  0
LINE
  8
0
  6
CONTINUOUS
 62
     7
 10
725.0000610351562
 20
174.9999542236328
 11
730.0000610351562
 21
179.9999389648437
  0
LINE
  8
0
  6
CONTINUOUS
 62
     7
 10
799.9999389648437
 20
180
 11
804.9999389648437
 21
175.0000152587891
  0
LINE
  8
0
  6
CONTINUOUS
 62
     7
 10
724.9999389648438
 20
-174.9999237060547
 11
729.9999389648437
 21
-179.9999542236328
  0
LINE
  8
0
  6
CONTINUOUS
 62
     7
 10
800
 20
-179.9999847412109
 11
805
 21
-174.9999694824219
  0
LINE
  8
0
  6
CONTINUOUS
 62
     7
 10
730
 20
172.9221801757813
 11
800
 21
172.9221801757813
  0
LINE
  8
0
  6
CONTINUOUS
 62
     7
 10
730
 20
157.6149291992188
 11
800
 21
157.6149291992188
  0
LINE
  8
0
  6
CONTINUOUS
 62
     7
 10
730
 20
146.8772583007812
 11
800
 21
146.8772583007812
  0
LINE
  8
0
  6
CONTINUOUS
 62
     7
 10
730
 20
134.4267578125
 11
800
 21
134.4267578125
  0
LINE
  8
0
  6
CONTINUOUS
 62
     7
 10
730
 20
119.7057495117187
 11
800
 21
119.7057495117187
  0
LINE
  8
0
  6
CONTINUOUS
 62
     7
 10
730
 20
49.97906494140625
 11
800
 21
49.97906494140625
  0
LINE
  8
0
  6
CONTINUOUS
 62
     7
 10
730
 20
29.99993896484375
 11
800
 21
29.99993896484375
  0
LINE
  8
0
  6
CONTINUOUS
 62
     7
 10
730
 20
-29.99993896484375
 11
800
 21
-29.99993896484375
  0
LINE
  8
0
  6
CONTINUOUS
 62
     7
 10
730
 20
-49.97900390625
 11
800
 21
-49.97900390625
  0
LINE
  8
0
  6
CONTINUOUS
 62
     7
 10
730
 20
-119.7056274414063
 11
800
 21
-119.7056274414063
  0
LINE
  8
0
  6
CONTINUOUS
 62
     7
 10
730
 20
-134.4266357421875
 11
800
 21
-134.4266357421875
  0
LINE
  8
0
  6
CONTINUOUS
 62
     7
 10
730
 20
-146.8770446777344
 11
800
 21
-146.8770446777344
  0
LINE
  8
0
  6
CONTINUOUS
 62
     7
 10
730
 20
-157.6150207519531
 11
800
 21
-157.6150207519531
  0
LINE
  8
0
  6
CONTINUOUS
 62
     7
 10
730
 20
-172.9222412109375
 11
800
 21
-172.9222412109375
  0
LINE
  8
0
  6
CONTINUOUS
 62
     7
 10
735
 20
5
 11
775
 21
5
  0
LINE
  8
0
  6
CONTINUOUS
 62
     7
 10
735
 20
-5
 11
775
 21
-5
  0
LINE
  8
0
  6
CONTINUOUS
 62
     7
 10
590
 20
225
 11
615
 21
225
  0
LINE
  8
0
  6
CONTINUOUS
 62
     7
 10
590
 20
-225
 11
615
 21
-225
  0
LINE
  8
0
  6
CONTINUOUS
 62
     7
 10
725
 20
177.5000152587891
 11
725
 21
-177.4999847412109
  0
LINE
  8
0
  6
CONTINUOUS
 62
     7
 10
590
 20
225
 11
590
 21
97.62189483642578
  0
LINE
  8
0
  6
CONTINUOUS
 62
     7
 10
615
 20
225
 11
615
 21
-225
  0
LINE
  8
0
  6
CONTINUOUS
 62
     7
 10
700
 20
177.5
 11
700
 21
30.00000762939453
  0
LINE
  8
0
  6
CONTINUOUS
 62
     7
 10
700
 20
177.5
 11
725
 21
177.5
  0
LINE
  8
0
  6
CONTINUOUS
 62
     7
 10
700
 20
-177.5
 11
725
 21
-177.5
  0
LINE
  8
0
  6
CONTINUOUS
 62
     7
 10
615
 20
30
 11
700
 21
30
  0
LINE
  8
0
  6
CONTINUOUS
 62
     7
 10
615
 20
-30
 11
700
 21
-30
  0
LINE
  8
0
  6
CONTINUOUS
 62
     7
 10
655.7060546875
 20
-80.00677490234375
 11
700
 21
-80.00677490234375
  0
LINE
  8
0
  6
CONTINUOUS
 62
     7
 10
655.7060546875
 20
80.0068359375
 11
700
 21
80.0068359375
  0
LINE
  8
0
  6
CONTINUOUS
 62
     7
 10
615
 20
106.8068771362305
 11
649.8916015625
 21
81.87100219726563
  0
LINE
  8
0
  6
CONTINUOUS
 62
     7
 10
615
 20
-106.8068084716797
 11
649.8916015625
 21
-81.87091827392578
  0
LINE
  8
0
  6
CONTINUOUS
 62
     7
 10
618.1577758789062
 20
164.5565795898437
 11
693.1578369140625
 21
134.8322143554688
  0
LINE
  8
0
  6
CONTINUOUS
 62
     7
 10
618.15771484375
 20
143.3433990478516
 11
693.1577758789062
 21
113.6190490722656
  0
LINE
  8
0
  6
CONTINUOUS
 62
     7
 10
618.1577758789062
 20
-143.3433532714844
 11
693.1578369140625
 21
-113.6189956665039
  0
LINE
  8
0
  6
CONTINUOUS
 62
     7
 10
618.1577758789062
 20
-164.5566101074219
 11
693.1578369140625
 21
-134.8322448730469
  0
LINE
  8
0
  6
CONTINUOUS
 62
     7
 10
582
 20
175
 11
582
 21
110.2680053710938
  0
LINE
  8
0
  6
CONTINUOUS
 62
     7
 10
582
 20
175
 11
590
 21
175
  0
LINE
  8
0
  6
CONTINUOUS
 62
     7
 10
582
 20
-175
 11
590
 21
-175
  0
LINE
  8
0
  6
CONTINUOUS
 62
     7
 10
450
 20
47.5
 11
590
 21
47.5
  0
LINE
  8
0
  6
CONTINUOUS
 62
     7
 10
450
 20
-47.5
 11
590
 21
-47.5
  0
LINE
  8
0
  6
CONTINUOUS
 62
     7
 10
450
 20
12.5
 11
567.5
 21
12.5
  0
LINE
  8
0
  6
CONTINUOUS
 62
     7
 10
450
 20
-12.5
 11
567.5
 21
-12.5
  0
LINE
  8
0
  6
CONTINUOUS
 62
     7
 10
450
 20
47.5
 11
450
 21
-47.5
  0
LINE
  8
0
  6
CONTINUOUS
 62
     7
 10
590
 20
55.00000381469727
 11
590
 21
-54.99999618530273
  0
LINE
  8
0
  6
CONTINUOUS
 62
     7
 10
590
 20
55
 11
598.6505126953125
 21
55
  0
LINE
  8
0
  6
CONTINUOUS
 62
     7
 10
590
 20
-55
 11
597.2322387695313
 21
-55
  0
LINE
  8
0
  6
CONTINUOUS
 62
     7
 10
582
 20
-126.021484375
 11
582
 21
-175
  0
LINE
  8
0
  6
CONTINUOUS
 62
     7
 10
590
 20
-105.9050216674805
 11
590
 21
-225
  0
LINE
  8
0
  6
CONTINUOUS
 62
     7
 10
682.0001220703125
 20
8.485223770141602
 11
673.5148315429688
 21
-7.835224096197635E-05
  0
LINE
  8
0
  6
CONTINUOUS
 62
     7
 10
690.4853515625
 20
-3.563577774912119E-05
 11
682.0001831054687
 21
8.485158920288086
  0
LINE
  8
0
  6
CONTINUOUS
 62
     7
 10
682
 20
-8.485252380371094
 11
673.5148315429688
 21
-5.677305307472125E-05
  0
LINE
  8
0
  6
CONTINUOUS
 62
     7
 10
690.4853515625
 20
-8.511195119353943E-06
 11
682.0000610351563
 21
-8.485309600830078
  0
LINE
  8
0
  6
CONTINUOUS
 62
     3
 10
682
 20
15.72766780853271
 11
682
 21
-15.83092594146729
  0
LINE
  8
0
  6
CONTINUOUS
 62
     7
 10
700
 20
-29.99999237060547
 11
700
 21
-177.5
  0
LINE
  8
0
  6
CONTINUOUS
 62
     7
 10
560
 20
12.50000286102295
 11
560
 21
-12.49999713897705
  0
LINE
  8
0
  6
CONTINUOUS
 62
     3
 10
783
 20
-169.9925994873047
 11
783
 21
-201.6517181396484
  0
LINE
  8
0
  6
CONTINUOUS
 62
     7
 10
774.928955078125
 20
-194.6499938964844
 11
791.071044921875
 21
-194.6499938964844
  0
LINE
  8
0
  6
CONTINUOUS
 62
     7
 10
774.492431640625
 20
-185.6499938964844
 11
791.507568359375
 21
-185.6499938964844
  0
LINE
  8
0
  6
CONTINUOUS
 62
     7
 10
774.492431640625
 20
-185.6500091552734
 11
774.6690063476562
 21
-180.0000152587891
  0
LINE
  8
0
  6
CONTINUOUS
 62
     7
 10
791.507568359375
 20
-185.6499786376953
 11
791.3309936523438
 21
-179.9999847412109
  0
LINE
  8
0
  6
CONTINUOUS
 62
     7
 10
774.928955078125
 20
-194.6499786376953
 11
774.928955078125
 21
-185.6499786376953
  0
LINE
  8
0
  6
CONTINUOUS
 62
     7
 10
791.071044921875
 20
-194.6499786376953
 11
791.071044921875
 21
-185.6499786376953
  0
LINE
  8
0
  6
CONTINUOUS
 62
     7
 10
783
 20
-194.6499786376953
 11
783
 21
-185.6499786376953
  0
LINE
  8
0
  6
CONTINUOUS
 62
     3
 10
774.9288940429687
 20
-185.6500244140625
 11
782.9999389648438
 21
-194.6499786376953
  0
LINE
  8
0
  6
CONTINUOUS
 62
     3
 10
774.9288330078125
 20
-194.6498870849609
 11
782.9998779296875
 21
-185.6498870849609
  0
LINE
  8
0
  6
CONTINUOUS
 62
     3
 10
782.9999389648438
 20
-185.6500396728516
 11
791.0709838867188
 21
-194.6500396728516
  0
LINE
  8
0
  6
CONTINUOUS
 62
     3
 10
782.9998779296875
 20
-194.6499176025391
 11
791.0709228515625
 21
-185.6499176025391
  0
LINE
  8
0
  6
CONTINUOUS
 62
     3
 10
822
 20
21.00000953674316
 11
822
 21
-20.99999046325684
  0
LINE
  8
0
  6
CONTINUOUS
 62
     7
 10
822
 20
-16
 11
854
 21
-16
  0
LINE
  8
0
  6
CONTINUOUS
 62
     7
 10
822
 20
16
 11
854
 21
16
  0
LINE
  8
0
  6
CONTINUOUS
 62
     7
 10
872.469970703125
 20
-11.1923713684082
 11
872.469970703125
 21
11.1923942565918
  0
LINE
  8
0
  6
CONTINUOUS
 62
     7
 10
861.469970703125
 20
-13.45341873168945
 11
861.469970703125
 21
13.45344161987305
  0
LINE
  8
0
  6
CONTINUOUS
 62
     7
 10
861.4700317382813
 20
-13.45345497131348
 11
854.0000610351563
 21
-13.22001647949219
  0
LINE
  8
0
  6
CONTINUOUS
 62
     7
 10
861.4700317382813
 20
13.45342540740967
 11
854.0000610351563
 21
13.21998977661133
  0
LINE
  8
0
  6
CONTINUOUS
 62
     7
 10
872.4700317382813
 20
-11.1923828125
 11
861.4700317382813
 21
-11.1923828125
  0
LINE
  8
0
  6
CONTINUOUS
 62
     7
 10
872.469970703125
 20
11.1923828125
 11
861.469970703125
 21
11.1923828125
  0
LINE
  8
0
  6
CONTINUOUS
 62
     7
 10
872.469970703125
 20
0
 11
861.469970703125
 21
0
  0
LINE
  8
0
  6
CONTINUOUS
 62
     3
 10
861.469970703125
 20
-11.19238758087158
 11
872.4700317382813
 21
9.680243238108233E-06
  0
LINE
  8
0
  6
CONTINUOUS
 62
     3
 10
872.469970703125
 20
-11.19233703613281
 11
861.469970703125
 21
6.378862599376589E-05
  0
LINE
  8
0
  6
CONTINUOUS
 62
     3
 10
861.469970703125
 20
-8.989652997115627E-06
 11
872.469970703125
 21
11.1923885345459
  0
LINE
  8
0
  6
CONTINUOUS
 62
     3
 10
872.469970703125
 20
-1.372682163491845E-06
 11
861.469970703125
 21
11.1923999786377
  0
LINE
  8
0
  6
CONTINUOUS
 62
     7
 10
854
 20
16.0000114440918
 11
854
 21
-15.9999885559082
  0
LINE
  8
0
  6
CONTINUOUS
 62
     7
 10
855
 20
-13.25125408172607
 11
855
 21
-130.8044891357422
  0
LINE
  8
0
  6
CONTINUOUS
 62
     7
 10
948
 20
-721.5
 11
948
 21
-630
  0
LINE
  8
0
  6
CONTINUOUS
 62
     7
 10
948
 20
-538.5
 11
948
 21
-630
  0
LINE
  8
0
  6
CONTINUOUS
 62
     7
 10
948.0001220703125
 20
-91.5
 11
948.0001220703125
 21
0
  0
LINE
  8
0
  6
CONTINUOUS
 62
     7
 10
948.0001220703125
 20
91.5
 11
948.0001220703125
 21
25.68934631347656
  0
LINE
  8
0
  6
CONTINUOUS
 62
     7
 10
948
 20
-537.5
 11
966
 21
-537.5
  0
LINE
  8
0
  6
CONTINUOUS
 62
     7
 10
948
 20
-537.5
 11
948
 21
-722.5
  0
LINE
  8
0
  6
CONTINUOUS
 62
     7
 10
966
 20
-537.5
 11
966
 21
-722.5
  0
LINE
  8
0
  6
CONTINUOUS
 62
     7
 10
1028
 20
-505
 11
1028
 21
-755
  0
LINE
  8
0
  6
CONTINUOUS
 62
     7
 10
948
 20
-722.5
 11
966
 21
-722.5
  0
LINE
  8
0
  6
CONTINUOUS
 62
     7
 10
1010
 20
-505
 11
1010
 21
-755
  0
LINE
  8
0
  6
CONTINUOUS
 62
     7
 10
1010
 20
-505
 11
1028
 21
-505
  0
LINE
  8
0
  6
CONTINUOUS
 62
     7
 10
1010
 20
-755
 11
1028
 21
-755
  0
LINE
  8
0
  6
CONTINUOUS
 62
     7
 10
971
 20
-577.5
 11
1005
 21
-577.5
  0
LINE
  8
0
  6
CONTINUOUS
 62
     7
 10
971
 20
-682.5
 11
1005
 21
-682.5
  0
LINE
  8
0
  6
CONTINUOUS
 62
     7
 10
966
 20
-557.5
 11
1010
 21
-557.5
  0
LINE
  8
0
  6
CONTINUOUS
 62
     7
 10
966
 20
-702.5
 11
1010
 21
-702.5
  0
LINE
  8
0
  6
CONTINUOUS
 62
     7
 10
966
 20
-625
 11
1010
 21
-625
  0
LINE
  8
0
  6
CONTINUOUS
 62
     7
 10
966
 20
-635
 11
1010
 21
-635
  0
LINE
  8
0
  6
CONTINUOUS
 62
     7
 10
957
 20
-500.4805908203125
 11
957
 21
-541.133544921875
  0
LINE
  8
0
  6
CONTINUOUS
 62
     7
 10
937.243896484375
 20
-520.3936767578125
 11
976.75146484375
 21
-520.3936767578125
  0
LINE
  8
0
  6
CONTINUOUS
 62
     7
 10
948.9998779296875
 20
-537.3936157226563
 11
949.590087890625
 21
-534.0463256835938
  0
LINE
  8
0
  6
CONTINUOUS
 62
     7
 10
964.40966796875
 20
-534.04638671875
 11
964.9998779296875
 21
-537.3936767578125
  0
LINE
  8
0
  6
CONTINUOUS
 62
     7
 10
951.559814453125
 20
-532.3936767578125
 11
962.440185546875
 21
-532.3936767578125
  0
LINE
  8
0
  6
CONTINUOUS
 62
     7
 10
950.8695068359375
 20
-532.5166015625
 11
956.6595458984375
 21
-530.387939453125
  0
LINE
  8
0
  6
CONTINUOUS
 62
     7
 10
957.340087890625
 20
-530.3878173828125
 11
963.1301879882813
 21
-532.5164794921875
  0
LINE
  8
0
  6
CONTINUOUS
 62
     7
 10
948.0001220703125
 20
92.5
 11
966.0001220703125
 21
92.5
  0
LINE
  8
0
  6
CONTINUOUS
 62
     7
 10
948.0001220703125
 20
92.5
 11
948.0001220703125
 21
24.1767578125
  0
LINE
  8
0
  6
CONTINUOUS
 62
     7
 10
966.0001220703125
 20
92.5
 11
966.0001220703125
 21
24.1767578125
  0
LINE
  8
0
  6
CONTINUOUS
 62
     7
 10
1028.000122070312
 20
125
 11
1028.000122070312
 21
-125
  0
LINE
  8
0
  6
CONTINUOUS
 62
     7
 10
948.0001220703125
 20
-92.5
 11
966.0001220703125
 21
-92.5
  0
LINE
  8
0
  6
CONTINUOUS
 62
     7
 10
1010.000122070313
 20
125
 11
1010.000122070313
 21
-125
  0
LINE
  8
0
  6
CONTINUOUS
 62
     7
 10
1010.000122070313
 20
125
 11
1028.000122070312
 21
125
  0
LINE
  8
0
  6
CONTINUOUS
 62
     7
 10
1010.000122070313
 20
-125
 11
1028.000122070312
 21
-125
  0
LINE
  8
0
  6
CONTINUOUS
 62
     7
 10
971.0001220703125
 20
52.5
 11
1005.000122070313
 21
52.5
  0
LINE
  8
0
  6
CONTINUOUS
 62
     7
 10
971.0001220703125
 20
-52.5
 11
1005.000122070313
 21
-52.5
  0
LINE
  8
0
  6
CONTINUOUS
 62
     7
 10
966.0001220703125
 20
72.5
 11
1010.000122070313
 21
72.5
  0
LINE
  8
0
  6
CONTINUOUS
 62
     7
 10
966.0001220703125
 20
-72.5
 11
1010.000122070313
 21
-72.5
  0
LINE
  8
0
  6
CONTINUOUS
 62
     7
 10
966.0001220703125
 20
5
 11
1010.000122070313
 21
5
  0
LINE
  8
0
  6
CONTINUOUS
 62
     7
 10
966.0001220703125
 20
-5
 11
1010.000122070313
 21
-5
  0
LINE
  8
0
  6
CONTINUOUS
 62
     7
 10
966.0001220703125
 20
14.6427001953125
 11
966.0001220703125
 21
-92.5
  0
LINE
  8
0
  6
CONTINUOUS
 62
     7
 10
948.0001220703125
 20
14.6427001953125
 11
948.0001220703125
 21
-92.5
  0
LINE
  8
0
  6
CONTINUOUS
 62
     7
 10
755
 20
-379.9483337402344
 11
755
 21
-454.0313110351563
  0
LINE
  8
0
  6
CONTINUOUS
 62
     7
 10
722.7669677734375
 20
-411
 11
785.4241943359375
 21
-411
  0
ARC
  8
0
  6
CONTINUOUS
 62
     7
 10
850
 20
-760.8045043945313
 40
5.000000000000016
 50
279.9998315725273
 51
0
  0
ARC
  8
0
  6
CONTINUOUS
 62
     7
 10
850
 20
-499.1955261230469
 40
5
 50
0
 51
79.99984057839285
  0
ARC
  8
0
  6
CONTINUOUS
 62
     7
 10
832
 20
-774.1326904296875
 40
5.000000000000065
 50
100.000191751321
 51
179.9999640278219
  0
ARC
  8
0
  6
CONTINUOUS
 62
     7
 10
832
 20
-485.8673706054687
 40
5.000000000000038
 50
179.9999776881996
 51
260.0001666062392
  0
ARC
  8
0
  6
CONTINUOUS
 62
     7
 10
845
 20
-488.1596069335938
 40
5.000000000000038
 50
179.9999776881996
 51
259.9998114364029
  0
ARC
  8
0
  6
CONTINUOUS
 62
     7
 10
755
 20
-411
 40
25
 50
306.4238458862582
 51
233.5761318019415
  0
CIRCLE
  8
0
  6
CONTINUOUS
 62
     7
 10
755
 20
-411
 40
15
  0
ARC
  8
0
  6
CONTINUOUS
 62
     7
 10
745.76513671875
 20
-430
 40
1.999999999999985
 50
89.99998201391097
 51
170.0000206677889
  0
ARC
  8
0
  6
CONTINUOUS
 62
     7
 10
764.23486328125
 20
-430
 40
1.999999999999964
 50
9.999994586450628
 51
89.99998201391097
  0
ARC
  8
0
  6
CONTINUOUS
 62
     7
 10
736.5936279296875
 20
-435.9440612792969
 40
6.000000000000009
 50
349.8636347103541
 51
53.57615411374161
  0
ARC
  8
0
  6
CONTINUOUS
 62
     7
 10
773.4063720703125
 20
-435.9440612792969
 40
6.000000000000024
 50
126.4238645555929
 51
189.9999620293671
  0
ARC
  8
0
  6
CONTINUOUS
 62
     7
 10
625
 20
-442.5
 40
9.999999999999963
 50
179.9999776881996
 51
270.0000280040023
  0
ARC
  8
0
  6
CONTINUOUS
 62
     7
 10
655.7060546875
 20
-539.9932861328125
 40
9.99999999999998
 50
234.4477495447707
 51
270.0000179860891
  0
ARC
  8
0
  6
CONTINUOUS
 62
     7
 10
655.7060546875
 20
-720.0067138671875
 40
10.00000000000004
 50
89.99998201391097
 51
125.5520592099326
  0
ARC
  8
0
  6
CONTINUOUS
 62
     7
 10
695
 20
-748.2672729492187
 40
5
 50
0
 51
111.6196412654544
  0
ARC
  8
0
  6
CONTINUOUS
 62
     7
 10
695
 20
-769.48046875
 40
5
 50
0
 51
111.6196412654544
  0
ARC
  8
0
  6
CONTINUOUS
 62
     7
 10
620
 20
-799.204833984375
 40
4.999999999999943
 50
111.6196412654544
 51
180.0000050089569
  0
ARC
  8
0
  6
CONTINUOUS
 62
     7
 10
620
 20
-777.9916381835938
 40
4.999999999999943
 50
111.6196412654544
 51
180.0000050089569
  0
ARC
  8
0
  6
CONTINUOUS
 62
     7
 10
620
 20
-460.795166015625
 40
4.999999999999943
 50
179.999991348578
 51
248.3803482618904
  0
ARC
  8
0
  6
CONTINUOUS
 62
     7
 10
620
 20
-482.0083618164063
 40
4.999999999999943
 50
179.999991348578
 51
248.3803482618904
  0
ARC
  8
0
  6
CONTINUOUS
 62
     7
 10
695
 20
-490.51953125
 40
4.999999999999996
 50
248.3803587345459
 51
0
  0
ARC
  8
0
  6
CONTINUOUS
 62
     7
 10
695
 20
-511.7327270507812
 40
4.999999999999943
 50
248.3803587345457
 51
0
  0
CIRCLE
  8
0
  6
CONTINUOUS
 62
     3
 10
783
 20
-630
 40
8.507550239562988
  0
ARC
  8
0
  6
CONTINUOUS
 62
     7
 10
838
 20
-415
 40
31.99999999999999
 50
89.99998201391055
 51
179.9999640278213
  0
ARC
  8
0
  6
CONTINUOUS
 62
     7
 10
843
 20
-420
 40
5.000000000000019
 50
89.99998201391031
 51
179.9999640278213
  0
CIRCLE
  8
0
  6
CONTINUOUS
 62
     7
 10
0
 20
-630
 40
225
  0
ARC
  8
0
  6
CONTINUOUS
 62
     7
 10
0
 20
-630
 40
47.49999999999995
 50
105.2575454498303
 51
74.74246957703872
  0
ARC
  8
0
  6
CONTINUOUS
 62
     3
 10
0
 20
-630
 40
200
 50
333.5707059500407
 51
341.4592534225145
  0
CIRCLE
  8
0
  6
CONTINUOUS
 62
     7
 10
184.7759399414062
 20
-706.536865234375
 40
9.5
  0
CIRCLE
  8
0
  6
CONTINUOUS
 62
     7
 10
184.7759399414062
 20
-553.46337890625
 40
9.5
  0
ARC
  8
0
  6
CONTINUOUS
 62
     3
 10
0
 20
-630
 40
200
 50
18.57071915511085
 51
26.45925979739542
  0
CIRCLE
  8
0
  6
CONTINUOUS
 62
     7
 10
76.5367431640625
 20
-445.2240905761719
 40
9.5
  0
ARC
  8
0
  6
CONTINUOUS
 62
     3
 10
0
 20
-630
 40
200
 50
63.57071528470806
 51
71.45925592699263
  0
CIRCLE
  8
0
  6
CONTINUOUS
 62
     7
 10
-76.53662109375
 20
-445.2240600585937
 40
9.5
  0
ARC
  8
0
  6
CONTINUOUS
 62
     3
 10
0
 20
-630
 40
200
 50
108.5707131218526
 51
116.4592605943263
  0
CIRCLE
  8
0
  6
CONTINUOUS
 62
     7
 10
-184.77587890625
 20
-553.4632568359375
 40
9.5
  0
ARC
  8
0
  6
CONTINUOUS
 62
     3
 10
0
 20
-630
 40
200
 50
153.5707109589971
 51
161.4592516012816
  0
CIRCLE
  8
0
  6
CONTINUOUS
 62
     7
 10
-184.7760009765625
 20
-706.53662109375
 40
9.5
  0
ARC
  8
0
  6
CONTINUOUS
 62
     3
 10
0
 20
-630
 40
200
 50
198.5707192687964
 51
206.4592599110809
  0
CIRCLE
  8
0
  6
CONTINUOUS
 62
     7
 10
-76.536865234375
 20
-814.77587890625
 40
9.5
  0
ARC
  8
0
  6
CONTINUOUS
 62
     3
 10
0
 20
-630
 40
200
 50
243.5707102757517
 51
251.4592577482255
  0
CIRCLE
  8
0
  6
CONTINUOUS
 62
     7
 10
76.53656005859375
 20
-814.7760620117187
 40
9.5
  0
ARC
  8
0
  6
CONTINUOUS
 62
     3
 10
0
 20
-630
 40
200
 50
288.5707081128962
 51
296.4592555853699
  0
CIRCLE
  8
0
  6
CONTINUOUS
 62
     7
 10
0
 20
-630
 40
90
  0
CIRCLE
  8
0
  6
CONTINUOUS
 62
     7
 10
0
 20
-630
 40
132.5
  0
ARC
  8
0
  6
CONTINUOUS
 62
     3
 10
0
 20
-630
 40
117.5
 50
55.11785758300787
 51
64.88213892610717
  0
ARC
  8
0
  6
CONTINUOUS
 62
     3
 10
0
 20
-630
 40
117.5
 50
115.1178524224708
 51
124.8821405957593
  0
ARC
  8
0
  6
CONTINUOUS
 62
     3
 10
0
 20
-630
 40
117.5
 50
175.1178540921229
 51
184.8821422654114
  0
ARC
  8
0
  6
CONTINUOUS
 62
     3
 10
0
 20
-630
 40
117.5
 50
235.1178594042407
 51
244.8821475775292
  0
ARC
  8
0
  6
CONTINUOUS
 62
     3
 10
0
 20
-630
 40
117.5
 50
295.1178610738928
 51
304.8821424169921
  0
ARC
  8
0
  6
CONTINUOUS
 62
     3
 10
0
 20
-630
 40
117.5
 50
355.1178576209031
 51
4.882142379096913
  0
ARC
  8
0
  6
CONTINUOUS
 62
     7
 10
0
 20
-630
 40
175
 50
14.86316782267558
 51
185.1368263591828
  0
CIRCLE
  8
0
  6
CONTINUOUS
 62
     3
 10
0
 20
-630
 40
8
  0
CIRCLE
  8
0
  6
CONTINUOUS
 62
     7
 10
0
 20
-630
 40
7
  0
ARC
  8
0
  6
CONTINUOUS
 62
     7
 10
0
 20
-630
 40
165
 50
16.59408973006584
 51
183.4059061593399
  0
CIRCLE
  8
0
  6
CONTINUOUS
 62
     7
 10
-160.03125
 20
-658.2178344726562
 40
19
  0
CIRCLE
  8
0
  6
CONTINUOUS
 62
     7
 10
160.03125
 20
-601.7821655273438
 40
19
  0
ARC
  8
0
  6
CONTINUOUS
 62
     7
 10
0
 20
-630
 40
175
 50
194.8631696439084
 51
5.136832022397078
  0
ARC
  8
0
  6
CONTINUOUS
 62
     7
 10
0
 20
-630
 40
165
 50
196.5940898437514
 51
3.405909688119992
  0
ARC
  8
0
  6
CONTINUOUS
 62
     7
 10
755
 20
8.581966540077701E-06
 40
12.50000000000001
 50
203.5781631757645
 51
336.4218215699954
  0
ARC
  8
0
  6
CONTINUOUS
 62
     7
 10
850
 20
-130.8044891357422
 40
4.999999999999988
 50
279.9998315725274
 51
0
  0
ARC
  8
0
  6
CONTINUOUS
 62
     7
 10
850
 20
130.8045196533203
 40
5
 50
0
 51
79.99984057839285
  0
ARC
  8
0
  6
CONTINUOUS
 62
     7
 10
832
 20
-144.1326446533203
 40
5.000000000000009
 50
100.0001917513211
 51
179.9999640278213
  0
ARC
  8
0
  6
CONTINUOUS
 62
     7
 10
832
 20
144.1326446533203
 40
5.000000000000038
 50
179.9999776881996
 51
260.0001666062394
  0
ARC
  8
0
  6
CONTINUOUS
 62
     7
 10
810
 20
1.012953453027876E-05
 40
29.99999999999999
 50
304.5180762587575
 51
327.7690578916672
  0
ARC
  8
0
  6
CONTINUOUS
 62
     7
 10
755
 20
8.581966540077701E-06
 40
20.04728698730464
 50
14.44262624528875
 51
165.557392424046
  0
ARC
  8
0
  6
CONTINUOUS
 62
     7
 10
755
 20
8.581966540077701E-06
 40
20.04728698730467
 50
194.4426348967107
 51
345.557401075468
  0
ARC
  8
0
  6
CONTINUOUS
 62
     7
 10
755
 20
8.581966540077701E-06
 40
12.5
 50
23.57817843000461
 51
156.4218368242355
  0
ARC
  8
0
  6
CONTINUOUS
 62
     7
 10
735
 20
8.019214874366298E-06
 40
5
 50
89.99998201391031
 51
270.0000006832456
  0
ARC
  8
0
  6
CONTINUOUS
 62
     7
 10
775
 20
9.144718205789104E-06
 40
5
 50
270.0000179860897
 51
89.99998201391031
  0
ARC
  8
0
  6
CONTINUOUS
 62
     7
 10
655.7060546875
 20
90.00684356689453
 40
9.99999999999998
 50
234.4478861485543
 51
270.0000179860891
  0
ARC
  8
0
  6
CONTINUOUS
 62
     7
 10
655.7060546875
 20
-90.00676727294922
 40
9.999999999999995
 50
89.99998201391097
 51
125.5522504552292
  0
ARC
  8
0
  6
CONTINUOUS
 62
     7
 10
695
 20
139.48046875
 40
4.999999999999996
 50
248.3803587345459
 51
0
  0
ARC
  8
0
  6
CONTINUOUS
 62
     7
 10
695
 20
118.2672805786133
 40
4.999999999999982
 50
248.3803587345459
 51
0
  0
ARC
  8
0
  6
CONTINUOUS
 62
     7
 10
620
 20
169.204833984375
 40
4.999999999999943
 50
179.999991348578
 51
248.3803482618903
  0
ARC
  8
0
  6
CONTINUOUS
 62
     7
 10
620
 20
147.9916381835937
 40
4.999999999999943
 50
179.999991348578
 51
248.3803482618903
  0
ARC
  8
0
  6
CONTINUOUS
 62
     7
 10
695
 20
-139.48046875
 40
5
 50
0
 51
111.6196412654541
  0
ARC
  8
0
  6
CONTINUOUS
 62
     7
 10
695
 20
-118.2672653198242
 40
5
 50
0
 51
111.6196412654542
  0
ARC
  8
0
  6
CONTINUOUS
 62
     7
 10
620
 20
-147.9916381835937
 40
4.999999999999996
 50
111.6196412654541
 51
180.0000050089563
  0
ARC
  8
0
  6
CONTINUOUS
 62
     7
 10
620
 20
-169.204833984375
 40
4.999999999999996
 50
111.6196412654541
 51
180.0000050089563
  0
ARC
  8
0
  6
CONTINUOUS
 62
     7
 10
567.5
 20
3.306167400296545E-06
 40
12.5
 50
270.0000179860895
 51
89.99998201391058
  0
CIRCLE
  8
0
  6
CONTINUOUS
 62
     7
 10
682
 20
6.527922323584789E-06
 40
13.5
  0
ARC
  8
0
  6
CONTINUOUS
 62
     7
 10
822
 20
1.046718534780666E-05
 40
16
 50
89.99998201391055
 51
270.0000006832454
  0
ARC
  8
0
  6
CONTINUOUS
 62
     7
 10
810
 20
1.012953453027876E-05
 40
29.99999999999996
 50
32.23094210833278
 51
55.48192374124251
  0
ARC
  8
0
  6
CONTINUOUS
 62
     7
 10
1005
 20
-687.5
 40
5
 50
0
 51
90.00000250447782
  0
ARC
  8
0
  6
CONTINUOUS
 62
     7
 10
1005
 20
-572.5
 40
5.000000000000004
 50
269.9999974955222
 51
0
  0
ARC
  8
0
  6
CONTINUOUS
 62
     7
 10
971
 20
-572.5
 40
4.999999999999943
 50
179.9999913485786
 51
270.0000006832456
  0
ARC
  8
0
  6
CONTINUOUS
 62
     7
 10
971
 20
-687.5
 40
5.000000000000004
 50
90.00000250447782
 51
180.0000050089569
  0
ARC
  8
0
  6
CONTINUOUS
 62
     7
 10
957
 20
-520.3936767578125
 40
16.29999923706057
 50
306.0864140506919
 51
233.9135431469402
  0
CIRCLE
  8
0
  6
CONTINUOUS
 62
     7
 10
957
 20
-520.3936767578125
 40
10
  0
ARC
  8
0
  6
CONTINUOUS
 62
     7
 10
951.559814453125
 20
-534.3936767578125
 40
1.999999999999985
 50
89.99998201391097
 51
170.0000206677889
  0
ARC
  8
0
  6
CONTINUOUS
 62
     7
 10
962.440185546875
 20
-534.3936767578125
 40
1.999999999999974
 50
10.00000397796106
 51
89.99998201391097
  0
ARC
  8
0
  6
CONTINUOUS
 62
     7
 10
945.043212890625
 20
-536.7987060546875
 40
4.000000000000021
 50
351.4459282863106
 51
53.91357911911838
  0
ARC
  8
0
  6
CONTINUOUS
 62
     7
 10
968.956787109375
 20
-536.7987060546875
 40
3.999999999999943
 50
126.0864395502159
 51
188.5540383028321
  0
ARC
  8
0
  6
CONTINUOUS
 62
     7
 10
1005.000122070313
 20
-57.5
 40
5
 50
0
 51
90.00000250447782
  0
ARC
  8
0
  6
CONTINUOUS
 62
     7
 10
1005.000122070313
 20
57.5
 40
4.999999999999997
 50
269.9999974955222
 51
0
  0
ARC
  8
0
  6
CONTINUOUS
 62
     7
 10
971.0001220703125
 20
57.5
 40
4.999999999999943
 50
179.999991348578
 51
270.0000006832456
  0
ARC
  8
0
  6
CONTINUOUS
 62
     7
 10
971.0001220703125
 20
-57.5
 40
4.999999999999997
 50
90.00000250447782
 51
180.0000050089563
  0
POLYLINE
  8
0
  6
CONTINUOUS
 62
     7
 66
     1
 10
0
 20
0
  0
VERTEX
  8
0
  6
CONTINUOUS
 62
     7
 10
581.9994920301355
 20
-485.5069501295717
 42
-0.2644326365784491
  0
VERTEX
  8
0
  6
CONTINUOUS
 62
     7
 10
598.1872837102211
 20
-503.8381380701509
 42
-0.06854696675980075
  0
VERTEX
  8
0
  6
CONTINUOUS
 62
     7
 10
597.2546240051963
 20
-529.2896250873725
 42
0.01629666060420412
  0
VERTEX
  8
0
  6
CONTINUOUS
 62
     7
 10
595.3136225806987
 20
-554.7761319377668
 42
0.01055545132739669
  0
VERTEX
  8
0
  6
CONTINUOUS
 62
     7
 10
594.7662634564196
 20
-580.333558838156
 42
0.001925984020624116
  0
VERTEX
  8
0
  6
CONTINUOUS
 62
     7
 10
594.869481352736
 20
-605.8972488739719
 42
-0.007108211579602809
  0
VERTEX
  8
0
  6
CONTINUOUS
 62
     7
 10
594.69798303115
 20
-631.4599936566603
 42
0.004663529634370725
  0
VERTEX
  8
0
  6
CONTINUOUS
 62
     7
 10
594.2104777783848
 20
-657.0193939380227
 42
0.02512120171448875
  0
VERTEX
  8
0
  6
CONTINUOUS
 62
     7
 10
595.2366901415572
 20
-682.552709000856
 42
-0.001802724295405526
  0
VERTEX
  8
0
  6
CONTINUOUS
 62
     7
 10
597.9368064143486
 20
-707.9734517906601
 42
-0.0835472587004614
  0
VERTEX
  8
0
  6
CONTINUOUS
 62
     7
 10
596.7529739411144
 20
-733.3869020299338
 42
-0.1909399839716907
  0
VERTEX
  8
0
  6
CONTINUOUS
 62
     7
 10
581.9993381943666
 20
-753.5430709523303
 42
0
  0
SEQEND
  8
0
  0
POLYLINE
  8
0
  6
CONTINUOUS
 62
     7
 66
     1
 10
0
 20
0
  0
VERTEX
  8
0
  6
CONTINUOUS
 62
     7
 10
582.0011457963155
 20
110.2675975823111
 42
-0.09976609936419781
  0
VERTEX
  8
0
  6
CONTINUOUS
 62
     7
 10
594.2703709937169
 20
86.50646165861927
 42
-0.06191136403078601
  0
VERTEX
  8
0
  6
CONTINUOUS
 62
     7
 10
598.5088028407976
 20
59.99300481627795
 42
-0.02907598193944197
  0
VERTEX
  8
0
  6
CONTINUOUS
 62
     7
 10
597.8376746344067
 20
33.09812929543273
 42
0.00540827902797282
  0
VERTEX
  8
0
  6
CONTINUOUS
 62
     7
 10
595.9008832734223
 20
6.249864898200508
 42
0.02392994120570992
  0
VERTEX
  8
0
  6
CONTINUOUS
 62
     7
 10
595.9334329420537
 20
-20.65878337463442
 42
-0.003105135052578796
  0
VERTEX
  8
0
  6
CONTINUOUS
 62
     7
 10
597.104495292147
 20
-47.55184149574209
 42
-0.03121806139236363
  0
VERTEX
  8
0
  6
CONTINUOUS
 62
     7
 10
596.4334415486402
 20
-74.44466138431945
 42
-0.04386661787599869
  0
VERTEX
  8
0
  6
CONTINUOUS
 62
     7
 10
591.4992629620014
 20
-100.8723696791175
 42
-0.04471108467355352
  0
VERTEX
  8
0
  6
CONTINUOUS
 62
     7
 10
582.0000672335743
 20
-126.021321119247
 42
0
  0
SEQEND
  8
0
  0
POLYLINE
  8
0
  6
CONTINUOUS
 62
     7
 66
     1
 10
0
 20
0
  0
VERTEX
  8
0
  6
CONTINUOUS
 62
     7
 10
949.2620241287366
 20
14.45836371299849
 42
0.04188691999813982
  0
VERTEX
  8
0
  6
CONTINUOUS
 62
     7
 10
949.7021550295362
 20
13.23038444029915
 42
0.04165559636292385
  0
VERTEX
  8
0
  6
CONTINUOUS
 62
     7
 10
950.340399587388
 20
12.09245530771916
 42
0.04136485841423082
  0
VERTEX
  8
0
  6
CONTINUOUS
 62
     7
 10
951.1578540521263
 20
11.07559455738323
 42
0.04106105922613364
  0
VERTEX
  8
0
  6
CONTINUOUS
 62
     7
 10
952.1311623431665
 20
10.20645048633457
 42
0.04077367481034831
  0
VERTEX
  8
0
  6
CONTINUOUS
 62
     7
 10
953.2332344298038
 20
9.507262490735039
 42
0.04052906794773852
  0
VERTEX
  8
0
  6
CONTINUOUS
 62
     7
 10
954.4340948929994
 20
8.995507012977431
 42
0.0403477497966535
  0
VERTEX
  8
0
  6
CONTINUOUS
 62
     7
 10
955.7016726941403
 20
8.683690488940222
 42
0.04023569854259632
  0
VERTEX
  8
0
  6
CONTINUOUS
 62
     7
 10
957.002300080128
 20
8.57922392446773
 42
0.04022884956917144
  0
VERTEX
  8
0
  6
CONTINUOUS
 62
     7
 10
958.3026459537467
 20
8.684351272306214
 42
0.04031599865622483
  0
VERTEX
  8
0
  6
CONTINUOUS
 62
     7
 10
959.5690777976534
 20
8.996483866188298
 42
0.04051172969278693
  0
VERTEX
  8
0
  6
CONTINUOUS
 62
     7
 10
960.7692338194863
 20
9.508431553141468
 42
0.04075994656517461
  0
VERTEX
  8
0
  6
CONTINUOUS
 62
     7
 10
961.8707232245563
 20
10.20769049473373
 42
0.04105999637884056
  0
VERTEX
  8
0
  6
CONTINUOUS
 62
     7
 10
962.8437728941763
 20
11.07705076975453
 42
0.04137753781267721
  0
VERTEX
  8
0
  6
CONTINUOUS
 62
     7
 10
963.6611836142157
 20
12.09443775497244
 42
0.04167518698807494
  0
VERTEX
  8
0
  6
CONTINUOUS
 62
     7
 10
964.2993284334852
 20
13.23310479088894
 42
0.04191607587251326
  0
VERTEX
  8
0
  6
CONTINUOUS
 62
     7
 10
964.7392180990587
 20
14.46211539099126
 42
0
  0
SEQEND
  8
0
  0
POLYLINE
  8
0
  6
CONTINUOUS
 62
     7
 66
     1
 10
0
 20
0
  0
VERTEX
  8
0
  6
CONTINUOUS
 62
     7
 10
945.4617919921875
 20
15.2122802734375
 42
-0.01902127742780586
  0
VERTEX
  8
0
  6
CONTINUOUS
 62
     7
 10
944.7198969010025
 20
15.41648953270345
 42
-0.01048042867662849
  0
VERTEX
  8
0
  6
CONTINUOUS
 62
     7
 10
943.9912366009888
 20
15.66421506323475
 42
-0.005820267893497315
  0
VERTEX
  8
0
  6
CONTINUOUS
 62
     7
 10
943.2696277857776
 20
15.93284444574823
 42
-0.02971624410142502
  0
VERTEX
  8
0
  6
CONTINUOUS
 62
     7
 10
942.5687737889998
 20
16.2499475181881
 42
-0.05880793834996142
  0
VERTEX
  8
0
  6
CONTINUOUS
 62
     7
 10
941.9356703052058
 20
16.68428796364368
 42
-0.05380353320164064
  0
VERTEX
  8
0
  6
CONTINUOUS
 62
     7
 10
941.4243060235982
 20
17.25755764482397
 42
-0.04811757053538199
  0
VERTEX
  8
0
  6
CONTINUOUS
 62
     7
 10
941.0313640784041
 20
17.91886391231326
 42
-0.05488022536661863
  0
VERTEX
  8
0
  6
CONTINUOUS
 62
     7
 10
940.7858204926799
 20
18.64650814444916
 42
-0.05416974907905883
  0
VERTEX
  8
0
  6
CONTINUOUS
 62
     7
 10
940.7025146484375
 20
19.40966796875
 42
-0.05420046575542262
  0
VERTEX
  8
0
  6
CONTINUOUS
 62
     7
 10
940.7859154864603
 20
20.17325936290534
 42
-0.05489311719453502
  0
VERTEX
  8
0
  6
CONTINUOUS
 62
     7
 10
941.0316170271781
 20
20.90101523791584
 42
-0.04804079532566265
  0
VERTEX
  8
0
  6
CONTINUOUS
 62
     7
 10
941.4239445815209
 20
21.56128078769066
 42
-0.05381817564897318
  0
VERTEX
  8
0
  6
CONTINUOUS
 62
     7
 10
941.9355058409665
 20
22.13490197832659
 42
-0.05878438890452797
  0
VERTEX
  8
0
  6
CONTINUOUS
 62
     7
 10
942.5686079000146
 20
22.56934159828583
 42
-0.02971468707350545
  0
VERTEX
  8
0
  6
CONTINUOUS
 62
     7
 10
943.269106158709
 20
22.88640223913619
 42
-0.005845294529777011
  0
VERTEX
  8
0
  6
CONTINUOUS
 62
     7
 10
943.9904838592172
 20
23.15500938077323
 42
-0.01048951448779721
  0
VERTEX
  8
0
  6
CONTINUOUS
 62
     7
 10
944.7194483464834
 20
23.40284654627964
 42
-0.01900922735216867
  0
VERTEX
  8
0
  6
CONTINUOUS
 62
     7
 10
945.4613037109375
 20
23.6070556640625
 42
0
  0
SEQEND
  8
0
  0
POLYLINE
  8
0
  6
CONTINUOUS
 62
     7
 66
     1
 10
0
 20
0
  0
VERTEX
  8
0
  6
CONTINUOUS
 62
     7
 10
968.5519307139388
 20
23.60292460010459
 42
0.02482962367353836
  0
VERTEX
  8
0
  6
CONTINUOUS
 62
     7
 10
967.1435273632502
 20
23.96503786028454
 42
0.01364821428349678
  0
VERTEX
  8
0
  6
CONTINUOUS
 62
     7
 10
965.7116701020132
 20
24.22234389100639
 42
0.009382640374552598
  0
VERTEX
  8
0
  6
CONTINUOUS
 62
     7
 10
964.2693717913672
 20
24.41468219917695
 42
0.007275298498342152
  0
VERTEX
  8
0
  6
CONTINUOUS
 62
     7
 10
962.8209650343816
 20
24.55939785041991
 42
0.006095589297907101
  0
VERTEX
  8
0
  6
CONTINUOUS
 62
     7
 10
961.3689583005964
 20
24.66558455342324
 42
0.00540336789878742
  0
VERTEX
  8
0
  6
CONTINUOUS
 62
     7
 10
959.9148771612765
 20
24.73848798489091
 42
0.005011263968852316
  0
VERTEX
  8
0
  6
CONTINUOUS
 62
     7
 10
958.4594783002689
 20
24.78118285408356
 42
0.004832105010575744
  0
VERTEX
  8
0
  6
CONTINUOUS
 62
     7
 10
957.0035412654879
 20
24.79528800823204
 42
0.004831359794018103
  0
VERTEX
  8
0
  6
CONTINUOUS
 62
     7
 10
955.5477095257379
 20
24.78131755489433
 42
0.005006465702547357
  0
VERTEX
  8
0
  6
CONTINUOUS
 62
     7
 10
954.0933012449174
 20
24.73880137119655
 42
0.005400851720740643
  0
VERTEX
  8
0
  6
CONTINUOUS
 62
     7
 10
952.6391325893353
 20
24.66606485279256
 42
0.006091088302583938
  0
VERTEX
  8
0
  6
CONTINUOUS
 62
     7
 10
951.187046868191
 20
24.56006407360011
 42
0.007269759850358245
  0
VERTEX
  8
0
  6
CONTINUOUS
 62
     7
 10
949.7381442214828
 20
24.41552017332609
 42
0.009378629605929174
  0
VERTEX
  8
0
  6
CONTINUOUS
 62
     7
 10
948.2944172064952
 20
24.22324151929957
 42
0.01364203032273263
  0
VERTEX
  8
0
  6
CONTINUOUS
 62
     7
 10
946.8608912706284
 20
23.96591668012875
 42
0.02480801657027483
  0
VERTEX
  8
0
  6
CONTINUOUS
 62
     7
 10
945.4509830083254
 20
23.60377679929947
 42
0
  0
SEQEND
  8
0
  0
POLYLINE
  8
0
  6
CONTINUOUS
 62
     7
 66
     1
 10
0
 20
0
  0
VERTEX
  8
0
  6
CONTINUOUS
 62
     7
 10
968.5384521484375
 20
15.2122802734375
 42
0.01902139214773188
  0
VERTEX
  8
0
  6
CONTINUOUS
 62
     7
 10
969.280347242682
 20
15.41648951323224
 42
0.01048037918431587
  0
VERTEX
  8
0
  6
CONTINUOUS
 62
     7
 10
970.0090075169252
 20
15.66421512101084
 42
0.005820317247131003
  0
VERTEX
  8
0
  6
CONTINUOUS
 62
     7
 10
970.7306163714212
 20
15.93284440133355
 42
0.02971626802199577
  0
VERTEX
  8
0
  6
CONTINUOUS
 62
     7
 10
971.4314703273606
 20
16.24994756203865
 42
0.05880781466683109
  0
VERTEX
  8
0
  6
CONTINUOUS
 62
     7
 10
972.0645738475192
 20
16.68428794885793
 42
0.05380350638861067
  0
VERTEX
  8
0
  6
CONTINUOUS
 62
     7
 10
972.5759381088486
 20
17.25755764946111
 42
0.04811762315552016
  0
VERTEX
  8
0
  6
CONTINUOUS
 62
     7
 10
972.9688800406419
 20
17.91886392098504
 42
0.05488030832176321
  0
VERTEX
  8
0
  6
CONTINUOUS
 62
     7
 10
973.2144236298792
 20
18.64650813192118
 42
0.05416978384129911
  0
VERTEX
  8
0
  6
CONTINUOUS
 62
     7
 10
973.2977294921875
 20
19.40966796875
 42
0.05420043167752045
  0
VERTEX
  8
0
  6
CONTINUOUS
 62
     7
 10
973.2143286693901
 20
20.17325936353885
 42
0.05489303209797549
  0
VERTEX
  8
0
  6
CONTINUOUS
 62
     7
 10
972.9686271401526
 20
20.90101523574097
 42
0.04804074265051849
  0
VERTEX
  8
0
  6
CONTINUOUS
 62
     7
 10
972.5762995771225
 20
21.56128077853881
 42
0.05381820211929876
  0
VERTEX
  8
0
  6
CONTINUOUS
 62
     7
 10
972.0647383024749
 20
22.13490195023759
 42
0.05878451272087427
  0
VERTEX
  8
0
  6
CONTINUOUS
 62
     7
 10
971.4316362918192
 20
22.56934162762735
 42
0.02971466440147337
  0
VERTEX
  8
0
  6
CONTINUOUS
 62
     7
 10
970.7311379873817
 20
22.88640218605602
 42
0.005845245646370979
  0
VERTEX
  8
0
  6
CONTINUOUS
 62
     7
 10
970.0097603235548
 20
23.15500943154399
 42
0.01048956385247137
  0
VERTEX
  8
0
  6
CONTINUOUS
 62
     7
 10
969.2807958052015
 20
23.40284652235847
 42
0.01900911295306773
  0
VERTEX
  8
0
  6
CONTINUOUS
 62
     7
 10
968.5389404296875
 20
23.6070556640625
 42
0
  0
SEQEND
  8
0
  0
POLYLINE
  8
0
  6
CONTINUOUS
 62
     7
 66
     1
 10
0
 20
0
  0
VERTEX
  8
0
  6
CONTINUOUS
 62
     7
 10
943.8499755859375
 20
16.3076171875
 42
0.1945653528070413
  0
VERTEX
  8
0
  6
CONTINUOUS
 62
     7
 10
946.7921524517127
 20
14.86811642672308
 42
0.0255450039936824
  0
VERTEX
  8
0
  6
CONTINUOUS
 62
     7
 10
950.1707927176276
 20
14.35625396790811
 42
0.01446898894456913
  0
VERTEX
  8
0
  6
CONTINUOUS
 62
     7
 10
953.5802319820749
 20
14.10274231822772
 42
0.01163094393798447
  0
VERTEX
  8
0
  6
CONTINUOUS
 62
     7
 10
957.0001220703125
 20
14.024169921875
 42
0.01162461648081252
  0
VERTEX
  8
0
  6
CONTINUOUS
 62
     7
 10
960.4182673959202
 20
14.10266000465488
 42
0.01447181515337253
  0
VERTEX
  8
0
  6
CONTINUOUS
 62
     7
 10
963.8288118936365
 20
14.35618553645804
 42
0.02555956951370846
  0
VERTEX
  8
0
  6
CONTINUOUS
 62
     7
 10
967.2091819007003
 20
14.86834889348697
 42
0.1952798392446839
  0
VERTEX
  8
0
  6
CONTINUOUS
 62
     7
 10
970.1502625019832
 20
16.30980809367066
 42
0.1938930530118104
  0
VERTEX
  8
0
  6
CONTINUOUS
 62
     7
 10
967.2059421247125
 20
17.74757744467296
 42
0.02553074122140439
  0
VERTEX
  8
0
  6
CONTINUOUS
 62
     7
 10
963.8272624854983
 20
18.25921134799348
 42
0.01446570066526964
  0
VERTEX
  8
0
  6
CONTINUOUS
 62
     7
 10
960.4178121960875
 20
18.51259491064082
 42
0.01162288066858847
  0
VERTEX
  8
0
  6
CONTINUOUS
 62
     7
 10
957.0001220703125
 20
18.591064453125
 42
0.01162461648081219
  0
VERTEX
  8
0
  6
CONTINUOUS
 62
     7
 10
953.5819767447048
 20
18.51257437034511
 42
0.01447181515337215
  0
VERTEX
  8
0
  6
CONTINUOUS
 62
     7
 10
950.1714322469885
 20
18.25904883854197
 42
0.02555956951369869
  0
VERTEX
  8
0
  6
CONTINUOUS
 62
     7
 10
946.7910622399247
 20
17.74688548151303
 42
0.1952798392446879
  0
VERTEX
  8
0
  6
CONTINUOUS
 62
     7
 10
943.8499816386418
 20
16.30542628132935
 42
0
  0
SEQEND
  8
0
  0
TEXT
  8
0
  6
CONTINUOUS
 62
     7
 10
-222.5000486373901
 20
-17.5
 40
35
 41
0.9993764138415093
  1
ERKV-NCF-3700
  0
ENDSEC
  0
EOF
