  0
SECTION
  2
HEADER
  0
ENDSEC
  0
SECTION
  2
TABLES
  0
TABLE
  2
LTYPE
 70
    22
  0
LTYPE
  2
CONTINUOUS
 70
    64
  3
Solid line
 72
    65
 73
     0
 40
0.000000
  0
LTYPE
  2
DASHED
 70
    64
  3
__ __ __ __ __ __ __ __ __ __ __ __ __ __ __
 72
    65
 73
     2
 40
3.500000
 49
2.000000
 49
-1.500000
  0
LTYPE
  2
CENTER
 70
    64
  3
____ _ ____ _ ____ _ ____ _ ____ _ ____ _ ____
 72
    65
 73
     4
 40
17.500000
 49
13.000000
 49
-1.500000
 49
1.500000
 49
-1.500000
  0
LTYPE
  2
PHANTOM
 70
    64
  3
_____ _ _ _____ _ _ _____ _ _ _____ _ _ ____  
 72
    65
 73
     6
 40
15.500000
 49
8.000000
 49
-1.500000
 49
1.500000
 49
-1.500000
 49
1.500000
 49
-1.500000
  0
LTYPE
  2
DOT
 70
    64
  3
. . . . . . . . . . . . . . . . . . . . . . . .
 72
    65
 73
     2
 40
0.25
 49
0.0
 49
-0.25
  0
ENDTAB
  0
TABLE
  2
LAYER
 70
     1
  0
LAYER
  2
0
 70
     0
 62
     7
  6
CONTINUOUS
  0
ENDTAB
  0
TABLE
  2
STYLE
 70
     1
  0
STYLE
  2
STANDARD
 70
     0
 40
0.000000
 41
1.000000
 50
0.000000
 71
     0
 42
0.200000
  3
txt
  0
ENDTAB
  0
TABLE
  2
VIEW
 70
     0
  0
ENDTAB
  0
ENDSEC
  0
SECTION
  2
BLOCKS
  0
ENDSEC
  0
SECTION
  2
ENTITIES
  0
LINE
  8
0
  6
CONTINUOUS
 62
     3
 10
430
 20
-650
 11
1037.876098632812
 21
-650
  0
LINE
  8
0
  6
CONTINUOUS
 62
     7
 10
902
 20
-745
 11
944
 21
-745
  0
LINE
  8
0
  6
CONTINUOUS
 62
     7
 10
902
 20
-555
 11
944
 21
-555
  0
LINE
  8
0
  6
CONTINUOUS
 62
     7
 10
902
 20
-555.0000610351563
 11
898.0000610351562
 21
-559.0000610351563
  0
LINE
  8
0
  6
CONTINUOUS
 62
     7
 10
898
 20
-740.9999389648437
 11
902.0000610351562
 21
-744.9999389648437
  0
LINE
  8
0
  6
CONTINUOUS
 62
     7
 10
944
 20
-745
 11
948
 21
-741
  0
LINE
  8
0
  6
CONTINUOUS
 62
     7
 10
947.9999389648438
 20
-559
 11
943.9999389648438
 21
-555
  0
LINE
  8
0
  6
CONTINUOUS
 62
     7
 10
902
 20
-612.3461303710938
 11
944
 21
-612.3461303710938
  0
LINE
  8
0
  6
CONTINUOUS
 62
     7
 10
902
 20
-623.7877197265625
 11
944
 21
-623.7877197265625
  0
LINE
  8
0
  6
CONTINUOUS
 62
     7
 10
902
 20
-633.53125
 11
944
 21
-633.53125
  0
LINE
  8
0
  6
CONTINUOUS
 62
     7
 10
902
 20
-645.00048828125
 11
944
 21
-645.00048828125
  0
LINE
  8
0
  6
CONTINUOUS
 62
     7
 10
902
 20
-655.0001220703125
 11
944
 21
-655.0001220703125
  0
LINE
  8
0
  6
CONTINUOUS
 62
     7
 10
902
 20
-666.469482421875
 11
944
 21
-666.469482421875
  0
LINE
  8
0
  6
CONTINUOUS
 62
     7
 10
902
 20
-676.2124633789063
 11
944
 21
-676.2124633789063
  0
LINE
  8
0
  6
CONTINUOUS
 62
     7
 10
902
 20
-687.6536865234375
 11
944
 21
-687.6536865234375
  0
LINE
  8
0
  6
CONTINUOUS
 62
     7
 10
902
 20
-706.7067260742187
 11
944
 21
-706.7067260742187
  0
LINE
  8
0
  6
CONTINUOUS
 62
     7
 10
902
 20
-715.9718017578125
 11
944
 21
-715.9718017578125
  0
LINE
  8
0
  6
CONTINUOUS
 62
     7
 10
902
 20
-722.793212890625
 11
944
 21
-722.793212890625
  0
LINE
  8
0
  6
CONTINUOUS
 62
     7
 10
902
 20
-729.658447265625
 11
944
 21
-729.658447265625
  0
LINE
  8
0
  6
CONTINUOUS
 62
     7
 10
902
 20
-734.65869140625
 11
944
 21
-734.65869140625
  0
LINE
  8
0
  6
CONTINUOUS
 62
     7
 10
902
 20
-739.26123046875
 11
944
 21
-739.26123046875
  0
LINE
  8
0
  6
CONTINUOUS
 62
     7
 10
898
 20
-557.5
 11
898
 21
-742.5
  0
LINE
  8
0
  6
CONTINUOUS
 62
     7
 10
805
 20
-472.5
 11
840
 21
-472.5
  0
LINE
  8
0
  6
CONTINUOUS
 62
     7
 10
805
 20
-827.5
 11
827
 21
-827.5
  0
LINE
  8
0
  6
CONTINUOUS
 62
     7
 10
805
 20
-472.5
 11
805
 21
-827.5
  0
LINE
  8
0
  6
CONTINUOUS
 62
     7
 10
827
 20
-472.5
 11
827
 21
-827.5
  0
LINE
  8
0
  6
CONTINUOUS
 62
     7
 10
883
 20
-557.5
 11
883
 21
-742.5
  0
LINE
  8
0
  6
CONTINUOUS
 62
     7
 10
883
 20
-557.5
 11
898
 21
-557.5
  0
LINE
  8
0
  6
CONTINUOUS
 62
     7
 10
883
 20
-742.5
 11
898
 21
-742.5
  0
LINE
  8
0
  6
CONTINUOUS
 62
     7
 10
855
 20
-519.195556640625
 11
855
 21
-780.8045043945312
  0
LINE
  8
0
  6
CONTINUOUS
 62
     7
 10
831.1316528320312
 20
-789.2086181640625
 11
850.8681640625
 21
-785.7285766601562
  0
LINE
  8
0
  6
CONTINUOUS
 62
     7
 10
831.1317749023437
 20
-510.7914428710938
 11
850.8681640625
 21
-514.271484375
  0
LINE
  8
0
  6
CONTINUOUS
 62
     7
 10
840
 20
-472.5
 11
840
 21
-508.1596069335937
  0
LINE
  8
0
  6
CONTINUOUS
 62
     7
 10
855
 20
-606.27587890625
 11
883
 21
-606.27587890625
  0
LINE
  8
0
  6
CONTINUOUS
 62
     7
 10
854.9999389648437
 20
-571.5120849609375
 11
883
 21
-583.345458984375
  0
LINE
  8
0
  6
CONTINUOUS
 62
     7
 10
855
 20
-693.72412109375
 11
883
 21
-693.72412109375
  0
LINE
  8
0
  6
CONTINUOUS
 62
     7
 10
855
 20
-728.4879150390625
 11
883
 21
-716.654541015625
  0
LINE
  8
0
  6
CONTINUOUS
 62
     7
 10
730
 20
-830
 11
800
 21
-830
  0
LINE
  8
0
  6
CONTINUOUS
 62
     7
 10
730
 20
-470
 11
800
 21
-470
  0
LINE
  8
0
  6
CONTINUOUS
 62
     7
 10
725.0001220703125
 20
-475.0000610351562
 11
730.0001220703125
 21
-470.0000610351563
  0
LINE
  8
0
  6
CONTINUOUS
 62
     7
 10
800
 20
-470.0000305175781
 11
805
 21
-475.0000610351562
  0
LINE
  8
0
  6
CONTINUOUS
 62
     7
 10
725
 20
-825
 11
730
 21
-830
  0
LINE
  8
0
  6
CONTINUOUS
 62
     7
 10
800
 20
-829.9999389648437
 11
805
 21
-824.9999389648438
  0
LINE
  8
0
  6
CONTINUOUS
 62
     7
 10
739.0001220703125
 20
-460
 11
771.0000610351563
 21
-460
  0
LINE
  8
0
  6
CONTINUOUS
 62
     7
 10
735.3602905273437
 20
-469.9999694824219
 11
738.9999389648438
 21
-460
  0
LINE
  8
0
  6
CONTINUOUS
 62
     7
 10
774.6397094726562
 20
-470
 11
771
 21
-460
  0
LINE
  8
0
  6
CONTINUOUS
 62
     7
 10
730
 20
-477.0777587890625
 11
800
 21
-477.0777587890625
  0
LINE
  8
0
  6
CONTINUOUS
 62
     7
 10
730
 20
-515.5732421875
 11
800
 21
-515.5732421875
  0
LINE
  8
0
  6
CONTINUOUS
 62
     7
 10
730
 20
-530.2942504882813
 11
800
 21
-530.2942504882813
  0
LINE
  8
0
  6
CONTINUOUS
 62
     7
 10
730
 20
-545.9464111328125
 11
800
 21
-545.9464111328125
  0
LINE
  8
0
  6
CONTINUOUS
 62
     7
 10
730
 20
-563.0659790039062
 11
800
 21
-563.0659790039062
  0
LINE
  8
0
  6
CONTINUOUS
 62
     7
 10
730
 20
-600.02099609375
 11
800
 21
-600.02099609375
  0
LINE
  8
0
  6
CONTINUOUS
 62
     7
 10
730
 20
-619.71923828125
 11
800
 21
-619.71923828125
  0
LINE
  8
0
  6
CONTINUOUS
 62
     7
 10
730
 20
-639.5905151367188
 11
800
 21
-639.5905151367188
  0
LINE
  8
0
  6
CONTINUOUS
 62
     7
 10
730
 20
-660.4093627929687
 11
800
 21
-660.4093627929687
  0
LINE
  8
0
  6
CONTINUOUS
 62
     7
 10
730
 20
-680.28076171875
 11
800
 21
-680.28076171875
  0
LINE
  8
0
  6
CONTINUOUS
 62
     7
 10
730
 20
-699.9788208007813
 11
800
 21
-699.9788208007813
  0
LINE
  8
0
  6
CONTINUOUS
 62
     7
 10
730
 20
-736.9341430664063
 11
800
 21
-736.9341430664063
  0
LINE
  8
0
  6
CONTINUOUS
 62
     7
 10
730
 20
-754.0533447265625
 11
800
 21
-754.0533447265625
  0
LINE
  8
0
  6
CONTINUOUS
 62
     7
 10
730
 20
-769.7055053710938
 11
800
 21
-769.7055053710938
  0
LINE
  8
0
  6
CONTINUOUS
 62
     7
 10
730
 20
-784.4265747070313
 11
800
 21
-784.4265747070313
  0
LINE
  8
0
  6
CONTINUOUS
 62
     7
 10
730
 20
-796.8770141601563
 11
800
 21
-796.8770141601563
  0
LINE
  8
0
  6
CONTINUOUS
 62
     7
 10
730
 20
-807.6148681640625
 11
800
 21
-807.6148681640625
  0
LINE
  8
0
  6
CONTINUOUS
 62
     7
 10
730
 20
-822.92236328125
 11
800
 21
-822.92236328125
  0
LINE
  8
0
  6
CONTINUOUS
 62
     7
 10
742.5000610351563
 20
-457.0000305175781
 11
743.7955322265625
 21
-449.6527404785156
  0
LINE
  8
0
  6
CONTINUOUS
 62
     7
 10
766.2044067382813
 20
-449.6527099609375
 11
767.5
 21
-457.0000610351563
  0
LINE
  8
0
  6
CONTINUOUS
 62
     7
 10
745.76513671875
 20
-448
 11
764.23486328125
 21
-448
  0
LINE
  8
0
  6
CONTINUOUS
 62
     7
 10
745.3418579101563
 20
-448.0453186035156
 11
754.5767211914063
 21
-446.0453186035156
  0
LINE
  8
0
  6
CONTINUOUS
 62
     7
 10
755.4232788085938
 20
-446.0452575683594
 11
764.6581420898437
 21
-448.0452575683594
  0
LINE
  8
0
  6
CONTINUOUS
 62
     7
 10
742.5
 20
-457
 11
742.5
 21
-460
  0
LINE
  8
0
  6
CONTINUOUS
 62
     7
 10
767.5
 20
-457.0000305175781
 11
767.5
 21
-460
  0
LINE
  8
0
  6
CONTINUOUS
 62
     7
 10
590
 20
-425
 11
615
 21
-425
  0
LINE
  8
0
  6
CONTINUOUS
 62
     7
 10
590
 20
-875
 11
615
 21
-875
  0
LINE
  8
0
  6
CONTINUOUS
 62
     7
 10
725
 20
-472.5
 11
725
 21
-827.5
  0
LINE
  8
0
  6
CONTINUOUS
 62
     7
 10
590
 20
-425
 11
590
 21
-510.2767944335938
  0
LINE
  8
0
  6
CONTINUOUS
 62
     7
 10
615
 20
-425
 11
615
 21
-875
  0
LINE
  8
0
  6
CONTINUOUS
 62
     7
 10
700
 20
-472.5
 11
700
 21
-827.5
  0
LINE
  8
0
  6
CONTINUOUS
 62
     7
 10
625
 20
-472.5
 11
725
 21
-472.5
  0
LINE
  8
0
  6
CONTINUOUS
 62
     7
 10
700
 20
-827.5
 11
725
 21
-827.5
  0
LINE
  8
0
  6
CONTINUOUS
 62
     7
 10
655.7060546875
 20
-569.9932861328125
 11
700
 21
-569.9932861328125
  0
LINE
  8
0
  6
CONTINUOUS
 62
     7
 10
655.7060546875
 20
-730.0067138671875
 11
700
 21
-730.0067138671875
  0
LINE
  8
0
  6
CONTINUOUS
 62
     7
 10
615
 20
-543.1932983398438
 11
649.8916015625
 21
-568.129150390625
  0
LINE
  8
0
  6
CONTINUOUS
 62
     7
 10
615
 20
-756.8067626953125
 11
649.8916015625
 21
-731.870849609375
  0
LINE
  8
0
  6
CONTINUOUS
 62
     7
 10
618.1577758789062
 20
-793.3433227539062
 11
693.1577758789062
 21
-763.6190185546875
  0
LINE
  8
0
  6
CONTINUOUS
 62
     7
 10
618.1577758789062
 20
-814.5565795898438
 11
693.1577758789062
 21
-784.8322143554687
  0
LINE
  8
0
  6
CONTINUOUS
 62
     7
 10
618.1578369140625
 20
-506.6566162109375
 11
693.1578369140625
 21
-536.3809814453125
  0
LINE
  8
0
  6
CONTINUOUS
 62
     7
 10
618.1577758789062
 20
-485.4434204101562
 11
693.1577758789062
 21
-515.1677856445313
  0
LINE
  8
0
  6
CONTINUOUS
 62
     7
 10
582
 20
-475
 11
582
 21
-505.5072021484375
  0
LINE
  8
0
  6
CONTINUOUS
 62
     7
 10
582
 20
-475
 11
590
 21
-475
  0
LINE
  8
0
  6
CONTINUOUS
 62
     7
 10
582
 20
-825
 11
590
 21
-825
  0
LINE
  8
0
  6
CONTINUOUS
 62
     7
 10
450
 20
-602.5
 11
590
 21
-602.5
  0
LINE
  8
0
  6
CONTINUOUS
 62
     7
 10
450
 20
-697.5
 11
590
 21
-697.5
  0
LINE
  8
0
  6
CONTINUOUS
 62
     7
 10
450
 20
-597.5
 11
450
 21
-697.5
  0
LINE
  8
0
  6
CONTINUOUS
 62
     7
 10
582
 20
-773.54296875
 11
582
 21
-825
  0
LINE
  8
0
  6
CONTINUOUS
 62
     7
 10
590
 20
-766.47412109375
 11
590
 21
-875
  0
LINE
  8
0
  6
CONTINUOUS
 62
     7
 10
450
 20
-597.5
 11
560
 21
-597.5
  0
LINE
  8
0
  6
CONTINUOUS
 62
     7
 10
590
 20
-595
 11
590
 21
-705
  0
LINE
  8
0
  6
CONTINUOUS
 62
     7
 10
590
 20
-595
 11
594.797607421875
 21
-595
  0
LINE
  8
0
  6
CONTINUOUS
 62
     7
 10
590
 20
-705
 11
595.4757080078125
 21
-705
  0
LINE
  8
0
  6
CONTINUOUS
 62
     7
 10
668.5
 20
-435.2000122070313
 11
695.5
 21
-435.2000122070313
  0
LINE
  8
0
  6
CONTINUOUS
 62
     7
 10
673.3499755859375
 20
-435.2000122070313
 11
673.3499755859375
 21
-472.5
  0
LINE
  8
0
  6
CONTINUOUS
 62
     7
 10
690.6500244140625
 20
-435.2000122070313
 11
690.6500244140625
 21
-472.5
  0
LINE
  8
0
  6
CONTINUOUS
 62
     3
 10
682
 20
-380.53759765625
 11
682
 21
-487.5
  0
LINE
  8
0
  6
CONTINUOUS
 62
     7
 10
668.5
 20
-403.2000122070312
 11
695.5
 21
-403.2000122070312
  0
LINE
  8
0
  6
CONTINUOUS
 62
     7
 10
690.071044921875
 20
-388.550048828125
 11
673.928955078125
 21
-388.550048828125
  0
LINE
  8
0
  6
CONTINUOUS
 62
     7
 10
690.507568359375
 20
-397.550048828125
 11
673.492431640625
 21
-397.550048828125
  0
LINE
  8
0
  6
CONTINUOUS
 62
     7
 10
690.5075073242188
 20
-397.550048828125
 11
690.3309326171875
 21
-403.2000122070312
  0
LINE
  8
0
  6
CONTINUOUS
 62
     7
 10
673.492431640625
 20
-397.550048828125
 11
673.6690063476562
 21
-403.1999816894531
  0
LINE
  8
0
  6
CONTINUOUS
 62
     7
 10
690.071044921875
 20
-388.550048828125
 11
690.071044921875
 21
-397.550048828125
  0
LINE
  8
0
  6
CONTINUOUS
 62
     7
 10
673.928955078125
 20
-388.550048828125
 11
673.928955078125
 21
-397.550048828125
  0
LINE
  8
0
  6
CONTINUOUS
 62
     7
 10
695.5
 20
-403.2000122070312
 11
695.5
 21
-435.2000122070313
  0
LINE
  8
0
  6
CONTINUOUS
 62
     7
 10
668.5
 20
-403.2000122070312
 11
668.5
 21
-435.2000122070313
  0
LINE
  8
0
  6
CONTINUOUS
 62
     3
 10
673.928955078125
 20
-397.550048828125
 11
682
 21
-388.5500183105469
  0
LINE
  8
0
  6
CONTINUOUS
 62
     7
 10
682
 20
-388.550048828125
 11
682
 21
-397.550048828125
  0
LINE
  8
0
  6
CONTINUOUS
 62
     3
 10
682
 20
-397.550048828125
 11
690.071044921875
 21
-388.550048828125
  0
LINE
  8
0
  6
CONTINUOUS
 62
     3
 10
690.0711059570313
 20
-397.5500793457031
 11
682.0000610351563
 21
-388.550048828125
  0
LINE
  8
0
  6
CONTINUOUS
 62
     3
 10
673.9290161132812
 20
-388.5499877929688
 11
682.0000610351563
 21
-397.5499877929688
  0
LINE
  8
0
  6
CONTINUOUS
 62
     7
 10
560
 20
-597.5
 11
560
 21
-602.5
  0
LINE
  8
0
  6
CONTINUOUS
 62
     7
 10
948
 20
-557.5
 11
948
 21
-742.5
  0
LINE
  8
0
  6
CONTINUOUS
 62
     7
 10
782.9999389648438
 20
-641.5145874023438
 11
774.5146484375
 21
-649.9998779296875
  0
LINE
  8
0
  6
CONTINUOUS
 62
     7
 10
791.4854125976562
 20
-649.9999389648438
 11
783.0001220703125
 21
-641.5146484375
  0
LINE
  8
0
  6
CONTINUOUS
 62
     3
 10
783
 20
-639.492431640625
 11
783
 21
-660.507568359375
  0
LINE
  8
0
  6
CONTINUOUS
 62
     7
 10
783.0000610351563
 20
-658.4854125976563
 11
774.5147705078125
 21
-650.0001220703125
  0
LINE
  8
0
  6
CONTINUOUS
 62
     7
 10
791.4851684570312
 20
-649.9999389648438
 11
782.9998779296875
 21
-658.4852294921875
  0
LINE
  8
0
  6
CONTINUOUS
 62
     3
 10
822
 20
-401.6383361816406
 11
822
 21
-477
  0
LINE
  8
0
  6
CONTINUOUS
 62
     3
 10
804.6383056640625
 20
-419
 11
877.469970703125
 21
-419
  0
LINE
  8
0
  6
CONTINUOUS
 62
     7
 10
854
 20
-403
 11
854
 21
-435
  0
LINE
  8
0
  6
CONTINUOUS
 62
     7
 10
806
 20
-451
 11
838
 21
-451
  0
LINE
  8
0
  6
CONTINUOUS
 62
     7
 10
843
 20
-435
 11
854
 21
-435
  0
LINE
  8
0
  6
CONTINUOUS
 62
     7
 10
838
 20
-403
 11
854
 21
-403
  0
LINE
  8
0
  6
CONTINUOUS
 62
     7
 10
806
 20
-435
 11
806
 21
-451
  0
LINE
  8
0
  6
CONTINUOUS
 62
     7
 10
838
 20
-440
 11
838
 21
-451
  0
LINE
  8
0
  6
CONTINUOUS
 62
     7
 10
872.469970703125
 20
-430.1923828125
 11
872.469970703125
 21
-407.8076171875
  0
LINE
  8
0
  6
CONTINUOUS
 62
     7
 10
861.469970703125
 20
-432.4534301757813
 11
861.469970703125
 21
-405.5465698242188
  0
LINE
  8
0
  6
CONTINUOUS
 62
     7
 10
861.4700317382813
 20
-432.4534301757813
 11
854
 21
-432.2200012207031
  0
LINE
  8
0
  6
CONTINUOUS
 62
     7
 10
861.469970703125
 20
-405.5465393066406
 11
854
 21
-405.7799987792969
  0
LINE
  8
0
  6
CONTINUOUS
 62
     7
 10
872.469970703125
 20
-430.1923828125
 11
861.469970703125
 21
-430.1923828125
  0
LINE
  8
0
  6
CONTINUOUS
 62
     7
 10
872.469970703125
 20
-407.8076171875
 11
861.469970703125
 21
-407.8076171875
  0
LINE
  8
0
  6
CONTINUOUS
 62
     3
 10
861.469970703125
 20
-430.1924133300781
 11
872.4700317382813
 21
-419.0000305175781
  0
LINE
  8
0
  6
CONTINUOUS
 62
     3
 10
872.4700317382813
 20
-430.1923522949219
 11
861.4700317382813
 21
-418.9999389648438
  0
LINE
  8
0
  6
CONTINUOUS
 62
     3
 10
861.469970703125
 20
-419.0000305175781
 11
872.469970703125
 21
-407.8076171875
  0
LINE
  8
0
  6
CONTINUOUS
 62
     3
 10
872.469970703125
 20
-418.9999694824219
 11
861.469970703125
 21
-407.8075561523437
  0
LINE
  8
0
  6
CONTINUOUS
 62
     7
 10
808.5
 20
-451
 11
808.5
 21
-472
  0
LINE
  8
0
  6
CONTINUOUS
 62
     7
 10
835.5
 20
-451
 11
835.5
 21
-472
  0
LINE
  8
0
  6
CONTINUOUS
 62
     7
 10
861.4700317382813
 20
-418.9999694824219
 11
872.4700317382813
 21
-419.0000305175781
  0
LINE
  8
0
  6
CONTINUOUS
 62
     3
 10
0
 20
-380.53759765625
 11
0
 21
-895
  0
LINE
  8
0
  6
CONTINUOUS
 62
     3
 10
-245
 20
-650
 11
245
 21
-650
  0
LINE
  8
0
  6
CONTINUOUS
 62
     7
 10
-12.5
 20
-597.5
 11
-12.5
 21
-611.5
  0
LINE
  8
0
  6
CONTINUOUS
 62
     7
 10
12.5
 20
-597.5
 11
12.5
 21
-611.5
  0
LINE
  8
0
  6
CONTINUOUS
 62
     3
 10
172.4159393310547
 20
-721.4176025390625
 11
195.4671325683594
 21
-730.9656982421875
  0
LINE
  8
0
  6
CONTINUOUS
 62
     3
 10
172.4161376953125
 20
-578.5828857421875
 11
195.4673309326172
 21
-569.0347290039063
  0
LINE
  8
0
  6
CONTINUOUS
 62
     3
 10
71.41724395751953
 20
-477.5838928222656
 11
80.96536254882813
 21
-454.53271484375
  0
LINE
  8
0
  6
CONTINUOUS
 62
     3
 10
-71.41686248779297
 20
-477.5837707519531
 11
-80.96498107910156
 21
-454.5325622558594
  0
LINE
  8
0
  6
CONTINUOUS
 62
     3
 10
-172.4159851074219
 20
-578.5827026367187
 11
-195.4671783447266
 21
-569.0345458984375
  0
LINE
  8
0
  6
CONTINUOUS
 62
     3
 10
-172.4161682128906
 20
-721.4168090820312
 11
-195.4673767089844
 21
-730.9649658203125
  0
LINE
  8
0
  6
CONTINUOUS
 62
     3
 10
-71.41747283935547
 20
-822.4158935546875
 11
-80.96559906005859
 21
-845.4671020507812
  0
LINE
  8
0
  6
CONTINUOUS
 62
     3
 10
71.41661071777344
 20
-822.4163208007812
 11
80.96472930908203
 21
-845.467529296875
  0
LINE
  8
0
  6
CONTINUOUS
 62
     7
 10
-12.5
 20
-611.5
 11
12.5
 21
-611.5
  0
LINE
  8
0
  6
CONTINUOUS
 62
     7
 10
-12.5
 20
-597.5
 11
12.5
 21
-597.5
  0
LINE
  8
0
  6
CONTINUOUS
 62
     3
 10
63.84316635131836
 20
-539.4204711914063
 11
52.58005905151367
 21
-558.9287109375
  0
LINE
  8
0
  6
CONTINUOUS
 62
     3
 10
-63.84308242797852
 20
-539.4204711914063
 11
-52.57999038696289
 21
-558.9287109375
  0
LINE
  8
0
  6
CONTINUOUS
 62
     3
 10
-63.84308624267578
 20
-760.5795288085938
 11
-52.57999038696289
 21
-741.0712890625
  0
LINE
  8
0
  6
CONTINUOUS
 62
     3
 10
63.84316635131836
 20
-760.5795288085938
 11
52.58004379272461
 21
-741.0712280273437
  0
LINE
  8
0
  6
CONTINUOUS
 62
     7
 10
-13.5
 20
-403.2000122070312
 11
13.5
 21
-403.2000122070312
  0
LINE
  8
0
  6
CONTINUOUS
 62
     7
 10
8.071044921875
 20
-388.550048828125
 11
-8.071044921875
 21
-388.550048828125
  0
LINE
  8
0
  6
CONTINUOUS
 62
     7
 10
8.507568359375
 20
-397.550048828125
 11
-8.507568359375
 21
-397.550048828125
  0
LINE
  8
0
  6
CONTINUOUS
 62
     7
 10
8.507541656494141
 20
-397.5500183105469
 11
8.33098030090332
 21
-403.1999816894531
  0
LINE
  8
0
  6
CONTINUOUS
 62
     7
 10
-8.507637023925781
 20
-397.5500793457031
 11
-8.331075668334961
 21
-403.2000122070312
  0
LINE
  8
0
  6
CONTINUOUS
 62
     7
 10
8.071044921875
 20
-388.550048828125
 11
8.071044921875
 21
-397.550048828125
  0
LINE
  8
0
  6
CONTINUOUS
 62
     7
 10
-8.071044921875
 20
-388.550048828125
 11
-8.071044921875
 21
-397.550048828125
  0
LINE
  8
0
  6
CONTINUOUS
 62
     7
 10
13.5
 20
-403.2000122070312
 11
13.5
 21
-425.4053649902344
  0
LINE
  8
0
  6
CONTINUOUS
 62
     7
 10
-13.5
 20
-403.2000122070312
 11
-13.5
 21
-425.4053649902344
  0
LINE
  8
0
  6
CONTINUOUS
 62
     3
 10
-8.07103443145752
 20
-388.5500793457031
 11
6.287469295784831E-05
 21
-397.5501403808594
  0
LINE
  8
0
  6
CONTINUOUS
 62
     3
 10
-8.071042060852051
 20
-397.5500183105469
 11
-5.506060915649869E-06
 21
-388.5500183105469
  0
LINE
  8
0
  6
CONTINUOUS
 62
     3
 10
1.862437784438953E-05
 20
-397.550048828125
 11
8.071054458618164
 21
-388.550048828125
  0
LINE
  8
0
  6
CONTINUOUS
 62
     3
 10
8.071077346801758
 20
-397.5501403808594
 11
-1.955886546056718E-05
 21
-388.5500793457031
  0
LINE
  8
0
  6
CONTINUOUS
 62
     7
 10
0
 20
-388.550048828125
 11
0
 21
-397.550048828125
  0
LINE
  8
0
  6
CONTINUOUS
 62
     3
 10
430
 20
0
 11
1039.617553710937
 21
0
  0
LINE
  8
0
  6
CONTINUOUS
 62
     7
 10
902
 20
-87.21929931640625
 11
944.0001220703125
 21
-87.21929931640625
  0
LINE
  8
0
  6
CONTINUOUS
 62
     7
 10
902
 20
-95
 11
944
 21
-95
  0
LINE
  8
0
  6
CONTINUOUS
 62
     7
 10
902
 20
95
 11
944
 21
95
  0
LINE
  8
0
  6
CONTINUOUS
 62
     7
 10
902.0001831054688
 20
94.99977874755859
 11
898.0001220703125
 21
90.99977111816406
  0
LINE
  8
0
  6
CONTINUOUS
 62
     7
 10
898
 20
-90.99994659423828
 11
902
 21
-94.99995422363281
  0
LINE
  8
0
  6
CONTINUOUS
 62
     7
 10
944
 20
-94.99999237060547
 11
948
 21
-90.99999237060547
  0
LINE
  8
0
  6
CONTINUOUS
 62
     7
 10
947.9998779296875
 20
91.00003051757813
 11
943.9998779296875
 21
95.00003814697266
  0
LINE
  8
0
  6
CONTINUOUS
 62
     7
 10
901.9999389648438
 20
87.218994140625
 11
944.0000610351562
 21
87.218994140625
  0
LINE
  8
0
  6
CONTINUOUS
 62
     7
 10
901.9999389648438
 20
76.21875
 11
944.0000610351562
 21
76.21875
  0
LINE
  8
0
  6
CONTINUOUS
 62
     7
 10
901.9999389648438
 20
68.35662841796875
 11
944.0000610351562
 21
68.35662841796875
  0
LINE
  8
0
  6
CONTINUOUS
 62
     7
 10
901.9999389648438
 20
61.04364013671875
 11
944.0000610351562
 21
61.04364013671875
  0
LINE
  8
0
  6
CONTINUOUS
 62
     7
 10
901.9999389648438
 20
51.7645263671875
 11
944.0000610351562
 21
51.7645263671875
  0
LINE
  8
0
  6
CONTINUOUS
 62
     7
 10
901.9999389648438
 20
43.10443115234375
 11
944.0000610351562
 21
43.10443115234375
  0
LINE
  8
0
  6
CONTINUOUS
 62
     7
 10
901.9999389648438
 20
32.5186767578125
 11
944.0000610351562
 21
32.5186767578125
  0
LINE
  8
0
  6
CONTINUOUS
 62
     7
 10
901.9999389648438
 20
22.95574951171875
 11
941.7823486328125
 21
22.95574951171875
  0
LINE
  8
0
  6
CONTINUOUS
 62
     7
 10
901.9999389648438
 20
11.00006103515625
 11
944.0000610351562
 21
11.00006103515625
  0
LINE
  8
0
  6
CONTINUOUS
 62
     7
 10
898
 20
92.50001525878906
 11
898
 21
-92.49998474121094
  0
LINE
  8
0
  6
CONTINUOUS
 62
     7
 10
805
 20
177.5
 11
827
 21
177.5
  0
LINE
  8
0
  6
CONTINUOUS
 62
     7
 10
805
 20
-177.5
 11
827
 21
-177.5
  0
LINE
  8
0
  6
CONTINUOUS
 62
     7
 10
805
 20
177.5000152587891
 11
805
 21
-177.4999847412109
  0
LINE
  8
0
  6
CONTINUOUS
 62
     7
 10
827
 20
177.5000152587891
 11
827
 21
24.71845626831055
  0
LINE
  8
0
  6
CONTINUOUS
 62
     7
 10
883
 20
92.50001525878906
 11
883
 21
-92.49998474121094
  0
LINE
  8
0
  6
CONTINUOUS
 62
     7
 10
883
 20
92.5
 11
898
 21
92.5
  0
LINE
  8
0
  6
CONTINUOUS
 62
     7
 10
883
 20
-92.5
 11
898
 21
-92.5
  0
LINE
  8
0
  6
CONTINUOUS
 62
     7
 10
855
 20
130.8045196533203
 11
855
 21
13.25124931335449
  0
LINE
  8
0
  6
CONTINUOUS
 62
     7
 10
831.1317749023437
 20
-139.2086486816406
 11
850.8682250976563
 21
-135.7285766601562
  0
LINE
  8
0
  6
CONTINUOUS
 62
     7
 10
831.1317749023437
 20
139.2085113525391
 11
850.8682250976563
 21
135.7284545898438
  0
LINE
  8
0
  6
CONTINUOUS
 62
     7
 10
827
 20
-24.71843338012695
 11
827
 21
-177.4999847412109
  0
LINE
  8
0
  6
CONTINUOUS
 62
     7
 10
855
 20
-40.2625732421875
 11
883
 21
-40.2625732421875
  0
LINE
  8
0
  6
CONTINUOUS
 62
     7
 10
883
 20
-62.53787612915039
 11
855
 21
-73.57267761230469
  0
LINE
  8
0
  6
CONTINUOUS
 62
     7
 10
882.9999389648437
 20
62.53789901733398
 11
855
 21
73.57267761230469
  0
LINE
  8
0
  6
CONTINUOUS
 62
     7
 10
855
 20
40.2625732421875
 11
883
 21
40.2625732421875
  0
LINE
  8
0
  6
CONTINUOUS
 62
     7
 10
730
 20
-180
 11
800
 21
-180
  0
LINE
  8
0
  6
CONTINUOUS
 62
     7
 10
730
 20
180
 11
800
 21
180
  0
LINE
  8
0
  6
CONTINUOUS
 62
     7
 10
725.0000610351562
 20
174.9999542236328
 11
730.0000610351562
 21
179.9999389648437
  0
LINE
  8
0
  6
CONTINUOUS
 62
     7
 10
799.9999389648437
 20
180
 11
804.9999389648437
 21
175.0000152587891
  0
LINE
  8
0
  6
CONTINUOUS
 62
     7
 10
724.9999389648438
 20
-174.9999237060547
 11
729.9999389648437
 21
-179.9999542236328
  0
LINE
  8
0
  6
CONTINUOUS
 62
     7
 10
800
 20
-179.9999847412109
 11
805
 21
-174.9999694824219
  0
LINE
  8
0
  6
CONTINUOUS
 62
     7
 10
730
 20
172.9221801757813
 11
800
 21
172.9221801757813
  0
LINE
  8
0
  6
CONTINUOUS
 62
     7
 10
730
 20
157.6149291992188
 11
800
 21
157.6149291992188
  0
LINE
  8
0
  6
CONTINUOUS
 62
     7
 10
730
 20
146.8772583007812
 11
800
 21
146.8772583007812
  0
LINE
  8
0
  6
CONTINUOUS
 62
     7
 10
730
 20
134.4267578125
 11
800
 21
134.4267578125
  0
LINE
  8
0
  6
CONTINUOUS
 62
     7
 10
730
 20
119.7057495117187
 11
800
 21
119.7057495117187
  0
LINE
  8
0
  6
CONTINUOUS
 62
     7
 10
730
 20
49.97906494140625
 11
800
 21
49.97906494140625
  0
LINE
  8
0
  6
CONTINUOUS
 62
     7
 10
730
 20
29.99993896484375
 11
800
 21
29.99993896484375
  0
LINE
  8
0
  6
CONTINUOUS
 62
     7
 10
730
 20
-29.99993896484375
 11
800
 21
-29.99993896484375
  0
LINE
  8
0
  6
CONTINUOUS
 62
     7
 10
730
 20
-49.97900390625
 11
800
 21
-49.97900390625
  0
LINE
  8
0
  6
CONTINUOUS
 62
     7
 10
730
 20
-119.7056274414063
 11
800
 21
-119.7056274414063
  0
LINE
  8
0
  6
CONTINUOUS
 62
     7
 10
730
 20
-134.4266357421875
 11
800
 21
-134.4266357421875
  0
LINE
  8
0
  6
CONTINUOUS
 62
     7
 10
730
 20
-146.8770446777344
 11
800
 21
-146.8770446777344
  0
LINE
  8
0
  6
CONTINUOUS
 62
     7
 10
730
 20
-157.6150207519531
 11
800
 21
-157.6150207519531
  0
LINE
  8
0
  6
CONTINUOUS
 62
     7
 10
730
 20
-172.9222412109375
 11
800
 21
-172.9222412109375
  0
LINE
  8
0
  6
CONTINUOUS
 62
     7
 10
735
 20
5
 11
775
 21
5
  0
LINE
  8
0
  6
CONTINUOUS
 62
     7
 10
735
 20
-5
 11
775
 21
-5
  0
LINE
  8
0
  6
CONTINUOUS
 62
     7
 10
590
 20
225
 11
615
 21
225
  0
LINE
  8
0
  6
CONTINUOUS
 62
     7
 10
590
 20
-225
 11
615
 21
-225
  0
LINE
  8
0
  6
CONTINUOUS
 62
     7
 10
725
 20
177.5000152587891
 11
725
 21
-177.4999847412109
  0
LINE
  8
0
  6
CONTINUOUS
 62
     7
 10
590
 20
225
 11
590
 21
97.62189483642578
  0
LINE
  8
0
  6
CONTINUOUS
 62
     7
 10
615
 20
225
 11
615
 21
-225
  0
LINE
  8
0
  6
CONTINUOUS
 62
     7
 10
700
 20
177.5
 11
700
 21
30.00000762939453
  0
LINE
  8
0
  6
CONTINUOUS
 62
     7
 10
700
 20
177.5
 11
725
 21
177.5
  0
LINE
  8
0
  6
CONTINUOUS
 62
     7
 10
700
 20
-177.5
 11
725
 21
-177.5
  0
LINE
  8
0
  6
CONTINUOUS
 62
     7
 10
615
 20
30
 11
700
 21
30
  0
LINE
  8
0
  6
CONTINUOUS
 62
     7
 10
615
 20
-30
 11
700
 21
-30
  0
LINE
  8
0
  6
CONTINUOUS
 62
     7
 10
655.7060546875
 20
-80.00677490234375
 11
700
 21
-80.00677490234375
  0
LINE
  8
0
  6
CONTINUOUS
 62
     7
 10
655.7060546875
 20
80.0068359375
 11
700
 21
80.0068359375
  0
LINE
  8
0
  6
CONTINUOUS
 62
     7
 10
615
 20
106.8068771362305
 11
649.8916015625
 21
81.87100219726563
  0
LINE
  8
0
  6
CONTINUOUS
 62
     7
 10
615
 20
-106.8068084716797
 11
649.8916015625
 21
-81.87091827392578
  0
LINE
  8
0
  6
CONTINUOUS
 62
     7
 10
618.1577758789062
 20
164.5565795898437
 11
693.1578369140625
 21
134.8322143554688
  0
LINE
  8
0
  6
CONTINUOUS
 62
     7
 10
618.15771484375
 20
143.3433990478516
 11
693.1577758789062
 21
113.6190490722656
  0
LINE
  8
0
  6
CONTINUOUS
 62
     7
 10
618.1577758789062
 20
-143.3433532714844
 11
693.1578369140625
 21
-113.6189956665039
  0
LINE
  8
0
  6
CONTINUOUS
 62
     7
 10
618.1577758789062
 20
-164.5566101074219
 11
693.1578369140625
 21
-134.8322448730469
  0
LINE
  8
0
  6
CONTINUOUS
 62
     7
 10
582
 20
175
 11
582
 21
110.2680053710938
  0
LINE
  8
0
  6
CONTINUOUS
 62
     7
 10
582
 20
175
 11
590
 21
175
  0
LINE
  8
0
  6
CONTINUOUS
 62
     7
 10
582
 20
-175
 11
590
 21
-175
  0
LINE
  8
0
  6
CONTINUOUS
 62
     7
 10
450
 20
47.5
 11
590
 21
47.5
  0
LINE
  8
0
  6
CONTINUOUS
 62
     7
 10
450
 20
-47.5
 11
590
 21
-47.5
  0
LINE
  8
0
  6
CONTINUOUS
 62
     7
 10
450
 20
12.5
 11
567.5
 21
12.5
  0
LINE
  8
0
  6
CONTINUOUS
 62
     7
 10
450
 20
-12.5
 11
567.5
 21
-12.5
  0
LINE
  8
0
  6
CONTINUOUS
 62
     7
 10
450
 20
47.5
 11
450
 21
-47.5
  0
LINE
  8
0
  6
CONTINUOUS
 62
     7
 10
590
 20
55.00000381469727
 11
590
 21
-54.99999618530273
  0
LINE
  8
0
  6
CONTINUOUS
 62
     7
 10
590
 20
55
 11
598.6505126953125
 21
55
  0
LINE
  8
0
  6
CONTINUOUS
 62
     7
 10
590
 20
-55
 11
597.2322387695313
 21
-55
  0
LINE
  8
0
  6
CONTINUOUS
 62
     7
 10
582
 20
-126.021484375
 11
582
 21
-175
  0
LINE
  8
0
  6
CONTINUOUS
 62
     7
 10
590
 20
-105.9050216674805
 11
590
 21
-225
  0
LINE
  8
0
  6
CONTINUOUS
 62
     7
 10
682.0001220703125
 20
8.485223770141602
 11
673.5148315429688
 21
-7.835224096197635E-05
  0
LINE
  8
0
  6
CONTINUOUS
 62
     7
 10
690.4853515625
 20
-3.563577774912119E-05
 11
682.0001831054687
 21
8.485158920288086
  0
LINE
  8
0
  6
CONTINUOUS
 62
     7
 10
682
 20
-8.485252380371094
 11
673.5148315429688
 21
-5.677305307472125E-05
  0
LINE
  8
0
  6
CONTINUOUS
 62
     7
 10
690.4853515625
 20
-8.511195119353943E-06
 11
682.0000610351563
 21
-8.485309600830078
  0
LINE
  8
0
  6
CONTINUOUS
 62
     3
 10
682
 20
15.72766780853271
 11
682
 21
-15.83092594146729
  0
LINE
  8
0
  6
CONTINUOUS
 62
     7
 10
700
 20
-29.99999237060547
 11
700
 21
-177.5
  0
LINE
  8
0
  6
CONTINUOUS
 62
     7
 10
560
 20
12.50000286102295
 11
560
 21
-12.49999713897705
  0
LINE
  8
0
  6
CONTINUOUS
 62
     3
 10
783
 20
-169.9925994873047
 11
783
 21
-201.6517181396484
  0
LINE
  8
0
  6
CONTINUOUS
 62
     7
 10
774.928955078125
 20
-194.6499938964844
 11
791.071044921875
 21
-194.6499938964844
  0
LINE
  8
0
  6
CONTINUOUS
 62
     7
 10
774.492431640625
 20
-185.6499938964844
 11
791.507568359375
 21
-185.6499938964844
  0
LINE
  8
0
  6
CONTINUOUS
 62
     7
 10
774.492431640625
 20
-185.6500091552734
 11
774.6690063476562
 21
-180.0000152587891
  0
LINE
  8
0
  6
CONTINUOUS
 62
     7
 10
791.507568359375
 20
-185.6499786376953
 11
791.3309936523438
 21
-179.9999847412109
  0
LINE
  8
0
  6
CONTINUOUS
 62
     7
 10
774.928955078125
 20
-194.6499786376953
 11
774.928955078125
 21
-185.6499786376953
  0
LINE
  8
0
  6
CONTINUOUS
 62
     7
 10
791.071044921875
 20
-194.6499786376953
 11
791.071044921875
 21
-185.6499786376953
  0
LINE
  8
0
  6
CONTINUOUS
 62
     7
 10
783
 20
-194.6499786376953
 11
783
 21
-185.6499786376953
  0
LINE
  8
0
  6
CONTINUOUS
 62
     3
 10
774.9288940429687
 20
-185.6500244140625
 11
782.9999389648438
 21
-194.6499786376953
  0
LINE
  8
0
  6
CONTINUOUS
 62
     3
 10
774.9288330078125
 20
-194.6498870849609
 11
782.9998779296875
 21
-185.6498870849609
  0
LINE
  8
0
  6
CONTINUOUS
 62
     3
 10
782.9999389648438
 20
-185.6500396728516
 11
791.0709838867188
 21
-194.6500396728516
  0
LINE
  8
0
  6
CONTINUOUS
 62
     3
 10
782.9998779296875
 20
-194.6499176025391
 11
791.0709228515625
 21
-185.6499176025391
  0
LINE
  8
0
  6
CONTINUOUS
 62
     3
 10
822
 20
21.00000953674316
 11
822
 21
-20.99999046325684
  0
LINE
  8
0
  6
CONTINUOUS
 62
     7
 10
822
 20
-16
 11
854
 21
-16
  0
LINE
  8
0
  6
CONTINUOUS
 62
     7
 10
822
 20
16
 11
854
 21
16
  0
LINE
  8
0
  6
CONTINUOUS
 62
     7
 10
872.469970703125
 20
-11.1923713684082
 11
872.469970703125
 21
11.1923942565918
  0
LINE
  8
0
  6
CONTINUOUS
 62
     7
 10
861.469970703125
 20
-13.45341873168945
 11
861.469970703125
 21
13.45344161987305
  0
LINE
  8
0
  6
CONTINUOUS
 62
     7
 10
861.4700317382813
 20
-13.45345497131348
 11
854.0000610351563
 21
-13.22001647949219
  0
LINE
  8
0
  6
CONTINUOUS
 62
     7
 10
861.4700317382813
 20
13.45342540740967
 11
854.0000610351563
 21
13.21998977661133
  0
LINE
  8
0
  6
CONTINUOUS
 62
     7
 10
872.4700317382813
 20
-11.1923828125
 11
861.4700317382813
 21
-11.1923828125
  0
LINE
  8
0
  6
CONTINUOUS
 62
     7
 10
872.469970703125
 20
11.1923828125
 11
861.469970703125
 21
11.1923828125
  0
LINE
  8
0
  6
CONTINUOUS
 62
     7
 10
872.469970703125
 20
0
 11
861.469970703125
 21
0
  0
LINE
  8
0
  6
CONTINUOUS
 62
     3
 10
861.469970703125
 20
-11.19238758087158
 11
872.4700317382813
 21
9.680243238108233E-06
  0
LINE
  8
0
  6
CONTINUOUS
 62
     3
 10
872.469970703125
 20
-11.19233703613281
 11
861.469970703125
 21
6.378862599376589E-05
  0
LINE
  8
0
  6
CONTINUOUS
 62
     3
 10
861.469970703125
 20
-8.989652997115627E-06
 11
872.469970703125
 21
11.1923885345459
  0
LINE
  8
0
  6
CONTINUOUS
 62
     3
 10
872.469970703125
 20
-1.372682163491845E-06
 11
861.469970703125
 21
11.1923999786377
  0
LINE
  8
0
  6
CONTINUOUS
 62
     7
 10
854
 20
16.0000114440918
 11
854
 21
-15.9999885559082
  0
LINE
  8
0
  6
CONTINUOUS
 62
     7
 10
855
 20
-13.25125408172607
 11
855
 21
-130.8044891357422
  0
LINE
  8
0
  6
CONTINUOUS
 62
     7
 10
948.0000610351562
 20
91.5
 11
948.0000610351562
 21
24.17669486999512
  0
LINE
  8
0
  6
CONTINUOUS
 62
     7
 10
948.0000610351562
 20
-91.5
 11
948.0000610351562
 21
0
  0
LINE
  8
0
  6
CONTINUOUS
 62
     7
 10
948
 20
-557.5
 11
948
 21
-742.5
  0
LINE
  8
0
  6
CONTINUOUS
 62
     7
 10
1018
 20
-550
 11
1018
 21
-750
  0
LINE
  8
0
  6
CONTINUOUS
 62
     7
 10
1003
 20
-750
 11
1018
 21
-750
  0
LINE
  8
0
  6
CONTINUOUS
 62
     7
 10
1003
 20
-550
 11
1018
 21
-550
  0
LINE
  8
0
  6
CONTINUOUS
 62
     7
 10
1003
 20
-550
 11
1003
 21
-750
  0
LINE
  8
0
  6
CONTINUOUS
 62
     7
 10
971
 20
-700
 11
998
 21
-700
  0
LINE
  8
0
  6
CONTINUOUS
 62
     7
 10
948
 20
-742.5
 11
966
 21
-742.5
  0
LINE
  8
0
  6
CONTINUOUS
 62
     7
 10
966
 20
-557.5
 11
966
 21
-742.5
  0
LINE
  8
0
  6
CONTINUOUS
 62
     7
 10
966
 20
-645
 11
1003
 21
-645
  0
LINE
  8
0
  6
CONTINUOUS
 62
     7
 10
966
 20
-655
 11
1003
 21
-655
  0
LINE
  8
0
  6
CONTINUOUS
 62
     7
 10
971
 20
-600
 11
998
 21
-600
  0
LINE
  8
0
  6
CONTINUOUS
 62
     7
 10
966
 20
-577
 11
1003
 21
-577
  0
LINE
  8
0
  6
CONTINUOUS
 62
     7
 10
966
 20
-723
 11
1003
 21
-723
  0
LINE
  8
0
  6
CONTINUOUS
 62
     7
 10
948
 20
-557.5
 11
966
 21
-557.5
  0
LINE
  8
0
  6
CONTINUOUS
 62
     7
 10
957
 20
-520.4805908203125
 11
957
 21
-561.133544921875
  0
LINE
  8
0
  6
CONTINUOUS
 62
     7
 10
937.2440185546875
 20
-540.3936767578125
 11
976.7515869140625
 21
-540.3936767578125
  0
LINE
  8
0
  6
CONTINUOUS
 62
     7
 10
948.9999389648438
 20
-557.3936157226562
 11
949.5901489257812
 21
-554.0463256835938
  0
LINE
  8
0
  6
CONTINUOUS
 62
     7
 10
964.4098510742187
 20
-554.0463256835938
 11
965.0000610351562
 21
-557.3936157226562
  0
LINE
  8
0
  6
CONTINUOUS
 62
     7
 10
951.559814453125
 20
-552.3936767578125
 11
962.440185546875
 21
-552.3936767578125
  0
LINE
  8
0
  6
CONTINUOUS
 62
     7
 10
950.8697509765625
 20
-552.5164794921875
 11
956.6597900390625
 21
-550.3878173828125
  0
LINE
  8
0
  6
CONTINUOUS
 62
     7
 10
957.3402709960937
 20
-550.3880004882813
 11
963.1303100585937
 21
-552.5166015625
  0
LINE
  8
0
  6
CONTINUOUS
 62
     7
 10
948.0000610351562
 20
92.5
 11
948.0000610351562
 21
24.1767578125
  0
LINE
  8
0
  6
CONTINUOUS
 62
     7
 10
1018.000061035156
 20
100
 11
1018.000061035156
 21
-100
  0
LINE
  8
0
  6
CONTINUOUS
 62
     7
 10
1003.000061035156
 20
-100
 11
1018.000061035156
 21
-100
  0
LINE
  8
0
  6
CONTINUOUS
 62
     7
 10
1003.000061035156
 20
100
 11
1018.000061035156
 21
100
  0
LINE
  8
0
  6
CONTINUOUS
 62
     7
 10
1003.000061035156
 20
100
 11
1003.000061035156
 21
-100
  0
LINE
  8
0
  6
CONTINUOUS
 62
     7
 10
971.0000610351563
 20
-50
 11
998.0000610351562
 21
-50
  0
LINE
  8
0
  6
CONTINUOUS
 62
     7
 10
948.0000610351562
 20
-92.5
 11
966.0000610351563
 21
-92.5
  0
LINE
  8
0
  6
CONTINUOUS
 62
     7
 10
966.0000610351563
 20
92.5
 11
966.0000610351563
 21
24.1767578125
  0
LINE
  8
0
  6
CONTINUOUS
 62
     7
 10
966.0000610351563
 20
5
 11
1003.000061035156
 21
5
  0
LINE
  8
0
  6
CONTINUOUS
 62
     7
 10
966.0000610351563
 20
-5
 11
1003.000061035156
 21
-5
  0
LINE
  8
0
  6
CONTINUOUS
 62
     7
 10
971.0000610351563
 20
50
 11
998.0000610351562
 21
50
  0
LINE
  8
0
  6
CONTINUOUS
 62
     7
 10
966.0000610351563
 20
73
 11
1003.000061035156
 21
73
  0
LINE
  8
0
  6
CONTINUOUS
 62
     7
 10
966.0000610351563
 20
-73
 11
1003.000061035156
 21
-73
  0
LINE
  8
0
  6
CONTINUOUS
 62
     7
 10
948.0000610351562
 20
14.64276313781738
 11
948.0000610351562
 21
-92.5
  0
LINE
  8
0
  6
CONTINUOUS
 62
     7
 10
948.0000610351562
 20
92.5
 11
966.0000610351563
 21
92.5
  0
LINE
  8
0
  6
CONTINUOUS
 62
     7
 10
966.0000610351563
 20
14.6427001953125
 11
966.0000610351563
 21
-92.5
  0
LINE
  8
0
  6
CONTINUOUS
 62
     7
 10
755
 20
-398.0368957519531
 11
755
 21
-474.68310546875
  0
LINE
  8
0
  6
CONTINUOUS
 62
     7
 10
722.7386474609375
 20
-431
 11
786.2186279296875
 21
-431
  0
ARC
  8
0
  6
CONTINUOUS
 62
     7
 10
850
 20
-780.8045043945312
 40
5.000000000000016
 50
279.9998315725273
 51
0
  0
ARC
  8
0
  6
CONTINUOUS
 62
     7
 10
850
 20
-519.195556640625
 40
5
 50
0
 51
79.99984057839296
  0
ARC
  8
0
  6
CONTINUOUS
 62
     7
 10
832
 20
-794.1326904296875
 40
5.000000000000065
 50
100.000191751321
 51
179.9999640278219
  0
ARC
  8
0
  6
CONTINUOUS
 62
     7
 10
832
 20
-505.8673706054688
 40
5.000000000000038
 50
179.9999776881996
 51
260.0001666062392
  0
ARC
  8
0
  6
CONTINUOUS
 62
     7
 10
845
 20
-508.1596069335937
 40
5.000000000000038
 50
179.9999776881996
 51
259.9998114364029
  0
ARC
  8
0
  6
CONTINUOUS
 62
     7
 10
755
 20
-431
 40
25
 50
306.4238458862582
 51
233.5761318019415
  0
CIRCLE
  8
0
  6
CONTINUOUS
 62
     7
 10
755
 20
-431
 40
15
  0
ARC
  8
0
  6
CONTINUOUS
 62
     7
 10
745.76513671875
 20
-450
 40
1.999999999999985
 50
89.99998201391097
 51
170.0000206677889
  0
ARC
  8
0
  6
CONTINUOUS
 62
     7
 10
764.23486328125
 20
-450
 40
1.999999999999964
 50
9.999994586450628
 51
89.99998201391097
  0
ARC
  8
0
  6
CONTINUOUS
 62
     7
 10
736.5936279296875
 20
-455.9440612792969
 40
6.000000000000009
 50
349.8636347103541
 51
53.57615411374161
  0
ARC
  8
0
  6
CONTINUOUS
 62
     7
 10
773.4063720703125
 20
-455.9440612792969
 40
6.000000000000024
 50
126.4238645555929
 51
189.9999620293671
  0
ARC
  8
0
  6
CONTINUOUS
 62
     7
 10
625
 20
-462.5
 40
9.999999999999963
 50
179.9999776881996
 51
270.0000280040023
  0
ARC
  8
0
  6
CONTINUOUS
 62
     7
 10
655.7060546875
 20
-559.9932861328125
 40
9.99999999999998
 50
234.4477495447707
 51
270.0000179860891
  0
ARC
  8
0
  6
CONTINUOUS
 62
     7
 10
655.7060546875
 20
-740.0067138671875
 40
10.00000000000004
 50
89.99998201391097
 51
125.5520592099326
  0
ARC
  8
0
  6
CONTINUOUS
 62
     7
 10
695
 20
-768.2672729492188
 40
5
 50
0
 51
111.6196412654544
  0
ARC
  8
0
  6
CONTINUOUS
 62
     7
 10
695
 20
-789.48046875
 40
5
 50
0
 51
111.6196412654544
  0
ARC
  8
0
  6
CONTINUOUS
 62
     7
 10
620
 20
-819.204833984375
 40
4.999999999999943
 50
111.6196412654544
 51
180.0000050089569
  0
ARC
  8
0
  6
CONTINUOUS
 62
     7
 10
620
 20
-797.9916381835938
 40
4.999999999999943
 50
111.6196412654544
 51
180.0000050089569
  0
ARC
  8
0
  6
CONTINUOUS
 62
     7
 10
620
 20
-480.795166015625
 40
4.999999999999943
 50
179.999991348578
 51
248.3803482618904
  0
ARC
  8
0
  6
CONTINUOUS
 62
     7
 10
620
 20
-502.0083618164062
 40
4.999999999999943
 50
179.999991348578
 51
248.3803482618904
  0
ARC
  8
0
  6
CONTINUOUS
 62
     7
 10
695
 20
-510.51953125
 40
4.999999999999943
 50
248.3803587345457
 51
0
  0
ARC
  8
0
  6
CONTINUOUS
 62
     7
 10
695
 20
-531.7327270507812
 40
4.999999999999943
 50
248.3803587345457
 51
0
  0
CIRCLE
  8
0
  6
CONTINUOUS
 62
     3
 10
783
 20
-650
 40
8.507550239562988
  0
ARC
  8
0
  6
CONTINUOUS
 62
     7
 10
838
 20
-435
 40
31.99999999999999
 50
89.99998201391055
 51
179.9999640278213
  0
ARC
  8
0
  6
CONTINUOUS
 62
     7
 10
843
 20
-440
 40
5.000000000000019
 50
89.99998201391031
 51
179.9999640278213
  0
CIRCLE
  8
0
  6
CONTINUOUS
 62
     7
 10
0
 20
-650
 40
225
  0
ARC
  8
0
  6
CONTINUOUS
 62
     7
 10
0
 20
-650
 40
47.49999999999995
 50
105.2575454498303
 51
74.74246957703872
  0
ARC
  8
0
  6
CONTINUOUS
 62
     3
 10
0
 20
-650
 40
200
 50
333.5707059500407
 51
341.4592534225145
  0
CIRCLE
  8
0
  6
CONTINUOUS
 62
     7
 10
184.7759399414062
 20
-726.536865234375
 40
9.5
  0
CIRCLE
  8
0
  6
CONTINUOUS
 62
     7
 10
184.7759399414062
 20
-573.46337890625
 40
9.5
  0
ARC
  8
0
  6
CONTINUOUS
 62
     3
 10
0
 20
-650
 40
200
 50
18.57071915511085
 51
26.45925979739542
  0
CIRCLE
  8
0
  6
CONTINUOUS
 62
     7
 10
76.5367431640625
 20
-465.2240905761719
 40
9.5
  0
ARC
  8
0
  6
CONTINUOUS
 62
     3
 10
0
 20
-650
 40
200
 50
63.57071528470806
 51
71.45925592699263
  0
CIRCLE
  8
0
  6
CONTINUOUS
 62
     7
 10
-76.53662109375
 20
-465.2240600585938
 40
9.5
  0
ARC
  8
0
  6
CONTINUOUS
 62
     3
 10
0
 20
-650
 40
200
 50
108.5707131218526
 51
116.4592605943263
  0
CIRCLE
  8
0
  6
CONTINUOUS
 62
     7
 10
-184.77587890625
 20
-573.4632568359375
 40
9.5
  0
ARC
  8
0
  6
CONTINUOUS
 62
     3
 10
0
 20
-650
 40
200
 50
153.5707109589971
 51
161.4592516012816
  0
CIRCLE
  8
0
  6
CONTINUOUS
 62
     7
 10
-184.7760009765625
 20
-726.53662109375
 40
9.5
  0
ARC
  8
0
  6
CONTINUOUS
 62
     3
 10
0
 20
-650
 40
200
 50
198.5707192687964
 51
206.4592599110809
  0
CIRCLE
  8
0
  6
CONTINUOUS
 62
     7
 10
-76.536865234375
 20
-834.77587890625
 40
9.5
  0
ARC
  8
0
  6
CONTINUOUS
 62
     3
 10
0
 20
-650
 40
200
 50
243.5707102757517
 51
251.4592577482255
  0
CIRCLE
  8
0
  6
CONTINUOUS
 62
     7
 10
76.53656005859375
 20
-834.7760620117188
 40
9.5
  0
ARC
  8
0
  6
CONTINUOUS
 62
     3
 10
0
 20
-650
 40
200
 50
288.5707081128962
 51
296.4592555853699
  0
CIRCLE
  8
0
  6
CONTINUOUS
 62
     7
 10
0
 20
-650
 40
90
  0
CIRCLE
  8
0
  6
CONTINUOUS
 62
     7
 10
0
 20
-650
 40
132.5
  0
ARC
  8
0
  6
CONTINUOUS
 62
     3
 10
0
 20
-650
 40
117.5
 50
55.11785758300787
 51
64.88213892610717
  0
ARC
  8
0
  6
CONTINUOUS
 62
     3
 10
0
 20
-650
 40
117.5
 50
115.1178524224708
 51
124.8821405957593
  0
ARC
  8
0
  6
CONTINUOUS
 62
     3
 10
0
 20
-650
 40
117.5
 50
175.1178540921229
 51
184.8821422654114
  0
ARC
  8
0
  6
CONTINUOUS
 62
     3
 10
0
 20
-650
 40
117.5
 50
235.1178594042407
 51
244.8821475775292
  0
ARC
  8
0
  6
CONTINUOUS
 62
     3
 10
0
 20
-650
 40
117.5
 50
295.1178610738928
 51
304.8821424169921
  0
ARC
  8
0
  6
CONTINUOUS
 62
     3
 10
0
 20
-650
 40
117.5
 50
355.1178576209031
 51
4.882142379096913
  0
ARC
  8
0
  6
CONTINUOUS
 62
     7
 10
0
 20
-650
 40
175
 50
14.86316782267558
 51
185.1368263591828
  0
CIRCLE
  8
0
  6
CONTINUOUS
 62
     3
 10
0
 20
-650
 40
8
  0
CIRCLE
  8
0
  6
CONTINUOUS
 62
     7
 10
0
 20
-650
 40
7
  0
ARC
  8
0
  6
CONTINUOUS
 62
     7
 10
0
 20
-650
 40
165
 50
16.59408973006584
 51
183.4059061593399
  0
CIRCLE
  8
0
  6
CONTINUOUS
 62
     7
 10
-160.03125
 20
-678.2178344726563
 40
19
  0
CIRCLE
  8
0
  6
CONTINUOUS
 62
     7
 10
160.03125
 20
-621.7821655273437
 40
19
  0
ARC
  8
0
  6
CONTINUOUS
 62
     7
 10
0
 20
-650
 40
175
 50
194.8631696439084
 51
5.136832022397078
  0
ARC
  8
0
  6
CONTINUOUS
 62
     7
 10
0
 20
-650
 40
165
 50
196.5940898437514
 51
3.405909688119992
  0
ARC
  8
0
  6
CONTINUOUS
 62
     7
 10
755
 20
8.581966540077701E-06
 40
12.50000000000001
 50
203.5781631757645
 51
336.4218215699954
  0
ARC
  8
0
  6
CONTINUOUS
 62
     7
 10
850
 20
-130.8044891357422
 40
4.999999999999988
 50
279.9998315725274
 51
0
  0
ARC
  8
0
  6
CONTINUOUS
 62
     7
 10
850
 20
130.8045196533203
 40
5
 50
0
 51
79.99984057839285
  0
ARC
  8
0
  6
CONTINUOUS
 62
     7
 10
832
 20
-144.1326446533203
 40
5.000000000000009
 50
100.0001917513211
 51
179.9999640278213
  0
ARC
  8
0
  6
CONTINUOUS
 62
     7
 10
832
 20
144.1326446533203
 40
5.000000000000038
 50
179.9999776881996
 51
260.0001666062394
  0
ARC
  8
0
  6
CONTINUOUS
 62
     7
 10
810
 20
1.012953453027876E-05
 40
29.99999999999999
 50
304.5180762587575
 51
327.7690578916672
  0
ARC
  8
0
  6
CONTINUOUS
 62
     7
 10
755
 20
8.581966540077701E-06
 40
20.04728698730464
 50
14.44262624528875
 51
165.557392424046
  0
ARC
  8
0
  6
CONTINUOUS
 62
     7
 10
755
 20
8.581966540077701E-06
 40
20.04728698730467
 50
194.4426348967107
 51
345.557401075468
  0
ARC
  8
0
  6
CONTINUOUS
 62
     7
 10
755
 20
8.581966540077701E-06
 40
12.5
 50
23.57817843000461
 51
156.4218368242355
  0
ARC
  8
0
  6
CONTINUOUS
 62
     7
 10
735
 20
8.019214874366298E-06
 40
5
 50
89.99998201391031
 51
270.0000006832456
  0
ARC
  8
0
  6
CONTINUOUS
 62
     7
 10
775
 20
9.144718205789104E-06
 40
5
 50
270.0000179860897
 51
89.99998201391031
  0
ARC
  8
0
  6
CONTINUOUS
 62
     7
 10
655.7060546875
 20
90.00684356689453
 40
9.99999999999998
 50
234.4478861485543
 51
270.0000179860891
  0
ARC
  8
0
  6
CONTINUOUS
 62
     7
 10
655.7060546875
 20
-90.00676727294922
 40
9.999999999999995
 50
89.99998201391097
 51
125.5522504552292
  0
ARC
  8
0
  6
CONTINUOUS
 62
     7
 10
695
 20
139.48046875
 40
4.999999999999996
 50
248.3803587345459
 51
0
  0
ARC
  8
0
  6
CONTINUOUS
 62
     7
 10
695
 20
118.2672805786133
 40
4.999999999999982
 50
248.3803587345459
 51
0
  0
ARC
  8
0
  6
CONTINUOUS
 62
     7
 10
620
 20
169.204833984375
 40
4.999999999999943
 50
179.999991348578
 51
248.3803482618903
  0
ARC
  8
0
  6
CONTINUOUS
 62
     7
 10
620
 20
147.9916381835937
 40
4.999999999999943
 50
179.999991348578
 51
248.3803482618903
  0
ARC
  8
0
  6
CONTINUOUS
 62
     7
 10
695
 20
-139.48046875
 40
5
 50
0
 51
111.6196412654541
  0
ARC
  8
0
  6
CONTINUOUS
 62
     7
 10
695
 20
-118.2672653198242
 40
5
 50
0
 51
111.6196412654542
  0
ARC
  8
0
  6
CONTINUOUS
 62
     7
 10
620
 20
-147.9916381835937
 40
4.999999999999996
 50
111.6196412654541
 51
180.0000050089563
  0
ARC
  8
0
  6
CONTINUOUS
 62
     7
 10
620
 20
-169.204833984375
 40
4.999999999999996
 50
111.6196412654541
 51
180.0000050089563
  0
ARC
  8
0
  6
CONTINUOUS
 62
     7
 10
567.5
 20
3.306167400296545E-06
 40
12.5
 50
270.0000179860895
 51
89.99998201391058
  0
CIRCLE
  8
0
  6
CONTINUOUS
 62
     7
 10
682
 20
6.527922323584789E-06
 40
13.5
  0
ARC
  8
0
  6
CONTINUOUS
 62
     7
 10
822
 20
1.046718534780666E-05
 40
16
 50
89.99998201391055
 51
270.0000006832454
  0
ARC
  8
0
  6
CONTINUOUS
 62
     7
 10
810
 20
1.012953453027876E-05
 40
29.99999999999996
 50
32.23094210833278
 51
55.48192374124251
  0
ARC
  8
0
  6
CONTINUOUS
 62
     7
 10
945
 20
-559.6734619140625
 40
4.000000000000005
 50
26.16138158731367
 51
53.76254656109657
  0
ARC
  8
0
  6
CONTINUOUS
 62
     7
 10
971
 20
-595
 40
4.999999999999943
 50
179.9999913485786
 51
270.0000006832456
  0
ARC
  8
0
  6
CONTINUOUS
 62
     7
 10
998
 20
-705
 40
5
 50
0
 51
90.00000250447782
  0
ARC
  8
0
  6
CONTINUOUS
 62
     7
 10
971
 20
-705
 40
5.000000000000004
 50
90.00000250447782
 51
180.0000050089569
  0
ARC
  8
0
  6
CONTINUOUS
 62
     7
 10
998
 20
-595
 40
5.000000000000004
 50
269.9999974955222
 51
0
  0
ARC
  8
0
  6
CONTINUOUS
 62
     7
 10
945.043212890625
 20
-556.7987060546875
 40
4.000000000000021
 50
351.4459282863106
 51
53.91357911911838
  0
ARC
  8
0
  6
CONTINUOUS
 62
     7
 10
968.956787109375
 20
-556.7987060546875
 40
3.999999999999943
 50
126.0864395502159
 51
188.5540383028321
  0
ARC
  8
0
  6
CONTINUOUS
 62
     7
 10
957
 20
-540.3936767578125
 40
16.29999923706057
 50
306.0864140506919
 51
233.9135431469402
  0
CIRCLE
  8
0
  6
CONTINUOUS
 62
     7
 10
957
 20
-540.3936767578125
 40
10
  0
ARC
  8
0
  6
CONTINUOUS
 62
     7
 10
951.559814453125
 20
-554.3936767578125
 40
1.999999999999985
 50
89.99998201391097
 51
170.0000206677889
  0
ARC
  8
0
  6
CONTINUOUS
 62
     7
 10
962.440185546875
 20
-554.3936767578125
 40
1.999999999999974
 50
10.00000397796106
 51
89.99998201391097
  0
ARC
  8
0
  6
CONTINUOUS
 62
     7
 10
971.0000610351563
 20
55
 40
4.999999999999943
 50
179.999991348578
 51
270.0000006832456
  0
ARC
  8
0
  6
CONTINUOUS
 62
     7
 10
998.0000610351562
 20
-55
 40
5
 50
0
 51
90.00000250447782
  0
ARC
  8
0
  6
CONTINUOUS
 62
     7
 10
971.0000610351563
 20
-55
 40
4.999999999999997
 50
90.00000250447782
 51
180.0000050089563
  0
ARC
  8
0
  6
CONTINUOUS
 62
     7
 10
998.0000610351562
 20
55
 40
4.999999999999997
 50
269.9999974955222
 51
0
  0
POLYLINE
  8
0
  6
CONTINUOUS
 62
     7
 66
     1
 10
0
 20
0
  0
VERTEX
  8
0
  6
CONTINUOUS
 62
     7
 10
581.9994920301481
 20
-505.5069415732888
 42
-0.264433567616603
  0
VERTEX
  8
0
  6
CONTINUOUS
 62
     7
 10
598.1872851662569
 20
-523.8381216878563
 42
-0.06854688522174918
  0
VERTEX
  8
0
  6
CONTINUOUS
 62
     7
 10
597.2546255975277
 20
-549.2896106371337
 42
0.01629666372586788
  0
VERTEX
  8
0
  6
CONTINUOUS
 62
     7
 10
595.3136231604607
 20
-574.7761190284749
 42
0.01055545552134326
  0
VERTEX
  8
0
  6
CONTINUOUS
 62
     7
 10
594.7662634893701
 20
-600.3335475323306
 42
0.001925987996233939
  0
VERTEX
  8
0
  6
CONTINUOUS
 62
     7
 10
594.8694813068138
 20
-625.8972391836865
 42
-0.007108209846210176
  0
VERTEX
  8
0
  6
CONTINUOUS
 62
     7
 10
594.697983206706
 20
-651.4599855827706
 42
0.004663524266745996
  0
VERTEX
  8
0
  6
CONTINUOUS
 62
     7
 10
594.2104777984561
 20
-677.0193874773328
 42
0.02512119949334354
  0
VERTEX
  8
0
  6
CONTINUOUS
 62
     7
 10
595.2366896899147
 20
-702.5527041763867
 42
-0.001802716580733988
  0
VERTEX
  8
0
  6
CONTINUOUS
 62
     7
 10
597.9368061427983
 20
-727.9734485715607
 42
-0.08354725274679187
  0
VERTEX
  8
0
  6
CONTINUOUS
 62
     7
 10
596.7529743540019
 20
-753.3869004681283
 42
-0.1909399972316583
  0
VERTEX
  8
0
  6
CONTINUOUS
 62
     7
 10
581.9993381946474
 20
-773.5430709521344
 42
0
  0
SEQEND
  8
0
  0
POLYLINE
  8
0
  6
CONTINUOUS
 62
     7
 66
     1
 10
0
 20
0
  0
VERTEX
  8
0
  6
CONTINUOUS
 62
     7
 10
582.0011457963155
 20
110.2675975823111
 42
-0.09976609936419781
  0
VERTEX
  8
0
  6
CONTINUOUS
 62
     7
 10
594.2703709937169
 20
86.50646165861927
 42
-0.06191136403078601
  0
VERTEX
  8
0
  6
CONTINUOUS
 62
     7
 10
598.5088028407976
 20
59.99300481627795
 42
-0.02907598193944197
  0
VERTEX
  8
0
  6
CONTINUOUS
 62
     7
 10
597.8376746344067
 20
33.09812929543273
 42
0.00540827902797282
  0
VERTEX
  8
0
  6
CONTINUOUS
 62
     7
 10
595.9008832734223
 20
6.249864898200508
 42
0.02392994120570992
  0
VERTEX
  8
0
  6
CONTINUOUS
 62
     7
 10
595.9334329420537
 20
-20.65878337463442
 42
-0.003105135052578796
  0
VERTEX
  8
0
  6
CONTINUOUS
 62
     7
 10
597.104495292147
 20
-47.55184149574209
 42
-0.03121806139236363
  0
VERTEX
  8
0
  6
CONTINUOUS
 62
     7
 10
596.4334415486402
 20
-74.44466138431945
 42
-0.04386661787599869
  0
VERTEX
  8
0
  6
CONTINUOUS
 62
     7
 10
591.4992629620014
 20
-100.8723696791175
 42
-0.04471108467355352
  0
VERTEX
  8
0
  6
CONTINUOUS
 62
     7
 10
582.0000672335743
 20
-126.021321119247
 42
0
  0
SEQEND
  8
0
  0
POLYLINE
  8
0
  6
CONTINUOUS
 62
     7
 66
     1
 10
0
 20
0
  0
VERTEX
  8
0
  6
CONTINUOUS
 62
     7
 10
949.2619630935802
 20
14.45836371299849
 42
0.04188691999822134
  0
VERTEX
  8
0
  6
CONTINUOUS
 62
     7
 10
949.70209399438
 20
13.23038444029914
 42
0.04165559636292063
  0
VERTEX
  8
0
  6
CONTINUOUS
 62
     7
 10
950.3403385522317
 20
12.09245530771915
 42
0.04136485841430299
  0
VERTEX
  8
0
  6
CONTINUOUS
 62
     7
 10
951.1577930169699
 20
11.07559455738322
 42
0.0410610592261343
  0
VERTEX
  8
0
  6
CONTINUOUS
 62
     7
 10
952.1311013080101
 20
10.20645048633456
 42
0.04077367481029671
  0
VERTEX
  8
0
  6
CONTINUOUS
 62
     7
 10
953.2331733946476
 20
9.507262490735021
 42
0.04052906794773185
  0
VERTEX
  8
0
  6
CONTINUOUS
 62
     7
 10
954.4340338578431
 20
8.995507012977415
 42
0.04034774979666173
  0
VERTEX
  8
0
  6
CONTINUOUS
 62
     7
 10
955.7016116589838
 20
8.683690488940211
 42
0.04023569854255673
  0
VERTEX
  8
0
  6
CONTINUOUS
 62
     7
 10
957.0022390449717
 20
8.57922392446773
 42
0.04022884956917144
  0
VERTEX
  8
0
  6
CONTINUOUS
 62
     7
 10
958.3025849185907
 20
8.684351272306222
 42
0.04031599865613164
  0
VERTEX
  8
0
  6
CONTINUOUS
 62
     7
 10
959.5690167624973
 20
8.996483866188315
 42
0.04051172969278381
  0
VERTEX
  8
0
  6
CONTINUOUS
 62
     7
 10
960.7691727843302
 20
9.50843155314149
 42
0.04075994656513546
  0
VERTEX
  8
0
  6
CONTINUOUS
 62
     7
 10
961.8706621894
 20
10.20769049473375
 42
0.04105999637896111
  0
VERTEX
  8
0
  6
CONTINUOUS
 62
     7
 10
962.84371185902
 20
11.07705076975455
 42
0.0413775378126752
  0
VERTEX
  8
0
  6
CONTINUOUS
 62
     7
 10
963.6611225790595
 20
12.09443775497245
 42
0.04167518698829359
  0
VERTEX
  8
0
  6
CONTINUOUS
 62
     7
 10
964.2992673983291
 20
13.23310479088894
 42
0.04191607587234243
  0
VERTEX
  8
0
  6
CONTINUOUS
 62
     7
 10
964.7391570639026
 20
14.46211539099126
 42
0
  0
SEQEND
  8
0
  0
POLYLINE
  8
0
  6
CONTINUOUS
 62
     7
 66
     1
 10
0
 20
0
  0
VERTEX
  8
0
  6
CONTINUOUS
 62
     7
 10
945.4616088867187
 20
15.2122802734375
 42
-0.01902103546960339
  0
VERTEX
  8
0
  6
CONTINUOUS
 62
     7
 10
944.7197257389474
 20
15.41648578758485
 42
-0.01048046971330335
  0
VERTEX
  8
0
  6
CONTINUOUS
 62
     7
 10
943.9910770481818
 20
15.66420657805482
 42
-0.005827118432243246
  0
VERTEX
  8
0
  6
CONTINUOUS
 62
     7
 10
943.2694795993468
 20
15.9328370172171
 42
-0.02972320131789974
  0
VERTEX
  8
0
  6
CONTINUOUS
 62
     7
 10
942.5686494241741
 20
16.24996179141755
 42
-0.05879732618626692
  0
VERTEX
  8
0
  6
CONTINUOUS
 62
     7
 10
941.9355782715297
 20
16.68431552869103
 42
-0.05380159186504689
  0
VERTEX
  8
0
  6
CONTINUOUS
 62
     7
 10
941.4242279608301
 20
17.25758108774254
 42
-0.04811715873197323
  0
VERTEX
  8
0
  6
CONTINUOUS
 62
     7
 10
941.0312961037977
 20
17.91887881847996
 42
-0.05487930104797786
  0
VERTEX
  8
0
  6
CONTINUOUS
 62
     7
 10
940.7857586137433
 20
18.64651197848648
 42
-0.05416947254728692
  0
VERTEX
  8
0
  6
CONTINUOUS
 62
     7
 10
940.7024536132812
 20
19.40966796875
 42
-0.05419959094277995
  0
VERTEX
  8
0
  6
CONTINUOUS
 62
     7
 10
940.7858517580426
 20
20.17324713216431
 42
-0.05489216998589459
  0
VERTEX
  8
0
  6
CONTINUOUS
 62
     7
 10
941.031545441651
 20
20.90099258535727
 42
-0.04804051561436801
  0
VERTEX
  8
0
  6
CONTINUOUS
 62
     7
 10
941.4238614177706
 20
21.56125031285717
 42
-0.05381598832654344
  0
VERTEX
  8
0
  6
CONTINUOUS
 62
     7
 10
941.9354074606863
 20
22.13486876461879
 42
-0.0587854575743038
  0
VERTEX
  8
0
  6
CONTINUOUS
 62
     7
 10
942.5684918382599
 20
22.56931197904963
 42
-0.02971664601842318
  0
VERTEX
  8
0
  6
CONTINUOUS
 62
     7
 10
943.2689750872062
 20
22.88637470581449
 42
-0.005841854667352479
  0
VERTEX
  8
0
  6
CONTINUOUS
 62
     7
 10
943.9903392609631
 20
23.15498301377987
 42
-0.01048727084867839
  0
VERTEX
  8
0
  6
CONTINUOUS
 62
     7
 10
944.7192757934015
 20
23.40283578025574
 42
-0.01901727475893863
  0
VERTEX
  8
0
  6
CONTINUOUS
 62
     7
 10
945.4611206054687
 20
23.6070556640625
 42
0
  0
SEQEND
  8
0
  0
POLYLINE
  8
0
  6
CONTINUOUS
 62
     7
 66
     1
 10
0
 20
0
  0
VERTEX
  8
0
  6
CONTINUOUS
 62
     7
 10
968.5517766432323
 20
23.60292458607801
 42
0.02483018303989642
  0
VERTEX
  8
0
  6
CONTINUOUS
 62
     7
 10
967.1433857221072
 20
23.96503964101343
 42
0.0136484722191186
  0
VERTEX
  8
0
  6
CONTINUOUS
 62
     7
 10
965.7115403092454
 20
24.22234617425202
 42
0.009382790529379901
  0
VERTEX
  8
0
  6
CONTINUOUS
 62
     7
 10
964.2692536688975
 20
24.41468437323695
 42
0.007275393931651528
  0
VERTEX
  8
0
  6
CONTINUOUS
 62
     7
 10
962.8208585056084
 20
24.55939960050867
 42
0.006095649948760016
  0
VERTEX
  8
0
  6
CONTINUOUS
 62
     7
 10
961.3688632492451
 20
24.66558574556321
 42
0.005403400979617474
  0
VERTEX
  8
0
  6
CONTINUOUS
 62
     7
 10
959.9147935872503
 20
24.73848861088204
 42
0.005011271187419757
  0
VERTEX
  8
0
  6
CONTINUOUS
 62
     7
 10
958.4594062229105
 20
24.781183034491
 42
0.004832083732840523
  0
VERTEX
  8
0
  6
CONTINUOUS
 62
     7
 10
957.0034806747366
 20
24.79528800821191
 42
0.004831338334631543
  0
VERTEX
  8
0
  6
CONTINUOUS
 62
     7
 10
955.5476604140913
 20
24.78131775174928
 42
0.005006473239241622
  0
VERTEX
  8
0
  6
CONTINUOUS
 62
     7
 10
954.0932634416305
 20
24.73880202404785
 42
0.005400885097228761
  0
VERTEX
  8
0
  6
CONTINUOUS
 62
     7
 10
952.6391060853518
 20
24.66606607699739
 42
0.006091148482962505
  0
VERTEX
  8
0
  6
CONTINUOUS
 62
     7
 10
951.1870318313174
 20
24.5600658694035
 42
0.007269855108513772
  0
VERTEX
  8
0
  6
CONTINUOUS
 62
     7
 10
949.7381406733184
 20
24.4155223985599
 42
0.009378779576648236
  0
VERTEX
  8
0
  6
CONTINUOUS
 62
     7
 10
948.2944252154339
 20
24.22324385432194
 42
0.01364228778887974
  0
VERTEX
  8
0
  6
CONTINUOUS
 62
     7
 10
946.8609110308762
 20
23.96591851094313
 42
0.0248085746088067
  0
VERTEX
  8
0
  6
CONTINUOUS
 62
     7
 10
945.4510151048372
 20
23.60377682962825
 42
0
  0
SEQEND
  8
0
  0
POLYLINE
  8
0
  6
CONTINUOUS
 62
     7
 66
     1
 10
0
 20
0
  0
VERTEX
  8
0
  6
CONTINUOUS
 62
     7
 10
968.5383911132812
 20
15.2122802734375
 42
0.01901317271506497
  0
VERTEX
  8
0
  6
CONTINUOUS
 62
     7
 10
969.2802903074235
 20
15.41647672190923
 42
0.01048254765825998
  0
VERTEX
  8
0
  6
CONTINUOUS
 62
     7
 10
970.0089589443404
 20
15.66417937895523
 42
0.005830564909487511
  0
VERTEX
  8
0
  6
CONTINUOUS
 62
     7
 10
970.7305699637841
 20
15.93280847095249
 42
0.0297211759326685
  0
VERTEX
  8
0
  6
CONTINUOUS
 62
     7
 10
971.4314153710343
 20
16.24993102556744
 42
0.05879613336045802
  0
VERTEX
  8
0
  6
CONTINUOUS
 62
     7
 10
972.0645053034973
 20
16.68428127181361
 42
0.05380383002755899
  0
VERTEX
  8
0
  6
CONTINUOUS
 62
     7
 10
972.5758713965671
 20
17.25754983350247
 42
0.04811749251852225
  0
VERTEX
  8
0
  6
CONTINUOUS
 62
     7
 10
972.9688150965452
 20
17.91885552453479
 42
0.05488036427794137
  0
VERTEX
  8
0
  6
CONTINUOUS
 62
     7
 10
973.2143606877925
 20
18.64649946713688
 42
0.05417040131012199
  0
VERTEX
  8
0
  6
CONTINUOUS
 62
     7
 10
973.2976684570313
 20
19.40966796875
 42
0.05420045899822624
  0
VERTEX
  8
0
  6
CONTINUOUS
 62
     7
 10
973.2142675501212
 20
20.17325974551107
 42
0.05489306167937714
  0
VERTEX
  8
0
  6
CONTINUOUS
 62
     7
 10
972.9685657755003
 20
20.90101594319095
 42
0.0480407513853599
  0
VERTEX
  8
0
  6
CONTINUOUS
 62
     7
 10
972.5762378508747
 20
21.561281730281
 42
0.05381827043057508
  0
VERTEX
  8
0
  6
CONTINUOUS
 62
     7
 10
972.064676101002
 20
22.13490298750878
 42
0.05878447934274939
  0
VERTEX
  8
0
  6
CONTINUOUS
 62
     7
 10
971.4315735381468
 20
22.56934255263867
 42
0.02971460322141182
  0
VERTEX
  8
0
  6
CONTINUOUS
 62
     7
 10
970.7310747649518
 20
22.88640304592836
 42
0.005845210286822924
  0
VERTEX
  8
0
  6
CONTINUOUS
 62
     7
 10
970.0096967133111
 20
23.15501035935685
 42
0.01048960203317627
  0
VERTEX
  8
0
  6
CONTINUOUS
 62
     7
 10
969.2807317920292
 20
23.40284745616622
 42
0.01900905887518237
  0
VERTEX
  8
0
  6
CONTINUOUS
 62
     7
 10
968.5388793945312
 20
23.6070556640625
 42
0
  0
SEQEND
  8
0
  0
POLYLINE
  8
0
  6
CONTINUOUS
 62
     7
 66
     1
 10
0
 20
0
  0
VERTEX
  8
0
  6
CONTINUOUS
 62
     7
 10
943.8500366210938
 20
16.3076171875
 42
0.1945678779482216
  0
VERTEX
  8
0
  6
CONTINUOUS
 62
     7
 10
946.7921787140737
 20
14.86811337731151
 42
0.02554539515689152
  0
VERTEX
  8
0
  6
CONTINUOUS
 62
     7
 10
950.1707895587564
 20
14.35625144299917
 42
0.0144691204213744
  0
VERTEX
  8
0
  6
CONTINUOUS
 62
     7
 10
953.5801997339231
 20
14.10274139687447
 42
0.01163093268934996
  0
VERTEX
  8
0
  6
CONTINUOUS
 62
     7
 10
957.0000610351563
 20
14.024169921875
 42
0.01162460429331883
  0
VERTEX
  8
0
  6
CONTINUOUS
 62
     7
 10
960.4181773451934
 20
14.10265907270823
 42
0.01447194698139944
  0
VERTEX
  8
0
  6
CONTINUOUS
 62
     7
 10
963.8286928950322
 20
14.35618300204019
 42
0.02555996167658171
  0
VERTEX
  8
0
  6
CONTINUOUS
 62
     7
 10
967.2090335887269
 20
14.86834585091006
 42
0.1952823917149013
  0
VERTEX
  8
0
  6
CONTINUOUS
 62
     7
 10
970.1500793962399
 20
16.30980816789599
 42
0.1938955516856664
  0
VERTEX
  8
0
  6
CONTINUOUS
 62
     7
 10
967.2057937197796
 20
17.74758051427201
 42
0.02553113147662934
  0
VERTEX
  8
0
  6
CONTINUOUS
 62
     7
 10
963.8271434992888
 20
18.25921388185584
 42
0.01446583190083459
  0
VERTEX
  8
0
  6
CONTINUOUS
 62
     7
 10
960.4177222983093
 20
18.51259583541739
 42
0.01162286901854396
  0
VERTEX
  8
0
  6
CONTINUOUS
 62
     7
 10
957.0000610351564
 20
18.591064453125
 42
0.01162460429331672
  0
VERTEX
  8
0
  6
CONTINUOUS
 62
     7
 10
953.5819447251192
 20
18.51257530229177
 42
0.01447194698140239
  0
VERTEX
  8
0
  6
CONTINUOUS
 62
     7
 10
950.1714291752803
 20
18.25905137295982
 42
0.02555996167656971
  0
VERTEX
  8
0
  6
CONTINUOUS
 62
     7
 10
946.7910884815856
 20
17.74688852408995
 42
0.1952823917148898
  0
VERTEX
  8
0
  6
CONTINUOUS
 62
     7
 10
943.8500426740726
 20
16.30542620710409
 42
0
  0
SEQEND
  8
0
  0
TEXT
  8
0
  6
CONTINUOUS
 62
     7
 10
-222.5000486373901
 20
-17.5
 40
35
 41
1.026265465335003
  1
ERKV-NCF-1500
  0
ENDSEC
  0
EOF
