  0
SECTION
  2
HEADER
  0
ENDSEC
  0
SECTION
  2
TABLES
  0
TABLE
  2
LTYPE
 70
    22
  0
LTYPE
  2
CONTINUOUS
 70
    64
  3
Solid line
 72
    65
 73
     0
 40
0.000000
  0
LTYPE
  2
DASHED
 70
    64
  3
__ __ __ __ __ __ __ __ __ __ __ __ __ __ __
 72
    65
 73
     2
 40
3.500000
 49
2.000000
 49
-1.500000
  0
LTYPE
  2
CENTER
 70
    64
  3
____ _ ____ _ ____ _ ____ _ ____ _ ____ _ ____
 72
    65
 73
     4
 40
17.500000
 49
13.000000
 49
-1.500000
 49
1.500000
 49
-1.500000
  0
LTYPE
  2
PHANTOM
 70
    64
  3
_____ _ _ _____ _ _ _____ _ _ _____ _ _ ____  
 72
    65
 73
     6
 40
15.500000
 49
8.000000
 49
-1.500000
 49
1.500000
 49
-1.500000
 49
1.500000
 49
-1.500000
  0
LTYPE
  2
DOT
 70
    64
  3
. . . . . . . . . . . . . . . . . . . . . . . .
 72
    65
 73
     2
 40
0.25
 49
0.0
 49
-0.25
  0
ENDTAB
  0
TABLE
  2
LAYER
 70
     1
  0
LAYER
  2
0
 70
     0
 62
     7
  6
CONTINUOUS
  0
ENDTAB
  0
TABLE
  2
STYLE
 70
     1
  0
STYLE
  2
STANDARD
 70
     0
 40
0.000000
 41
1.000000
 50
0.000000
 71
     0
 42
0.200000
  3
txt
  0
ENDTAB
  0
TABLE
  2
VIEW
 70
     0
  0
ENDTAB
  0
ENDSEC
  0
SECTION
  2
BLOCKS
  0
ENDSEC
  0
SECTION
  2
ENTITIES
  0
LINE
  8
0
  6
CONTINUOUS
 62
     3
 10
380
 20
-600
 11
941.5833129882812
 21
-600
  0
LINE
  8
0
  6
CONTINUOUS
 62
     7
 10
703
 20
-452
 11
703
 21
-748
  0
LINE
  8
0
  6
CONTINUOUS
 62
     7
 10
791
 20
-507.5
 11
791
 21
-692.5
  0
LINE
  8
0
  6
CONTINUOUS
 62
     7
 10
703
 20
-748
 11
723
 21
-748
  0
LINE
  8
0
  6
CONTINUOUS
 62
     7
 10
703
 20
-452
 11
738
 21
-452
  0
LINE
  8
0
  6
CONTINUOUS
 62
     7
 10
723
 20
-452
 11
723
 21
-748
  0
LINE
  8
0
  6
CONTINUOUS
 62
     7
 10
746
 20
-497.0816650390625
 11
746
 21
-702.9183349609375
  0
LINE
  8
0
  6
CONTINUOUS
 62
     7
 10
776
 20
-507.5
 11
776
 21
-692.5
  0
LINE
  8
0
  6
CONTINUOUS
 62
     7
 10
727.5641479492187
 20
-709.1128540039063
 11
741.4357299804687
 21
-707.8992309570313
  0
LINE
  8
0
  6
CONTINUOUS
 62
     7
 10
727.564208984375
 20
-490.886962890625
 11
742.564208984375
 21
-492.1993103027344
  0
LINE
  8
0
  6
CONTINUOUS
 62
     7
 10
776
 20
-692.5
 11
791
 21
-692.5
  0
LINE
  8
0
  6
CONTINUOUS
 62
     7
 10
776
 20
-507.5
 11
791
 21
-507.5
  0
LINE
  8
0
  6
CONTINUOUS
 62
     7
 10
738
 20
-452
 11
738
 21
-487.2184448242187
  0
LINE
  8
0
  6
CONTINUOUS
 62
     7
 10
746
 20
-556.3757934570312
 11
776
 21
-556.3757934570312
  0
LINE
  8
0
  6
CONTINUOUS
 62
     7
 10
746.0000610351562
 20
-518.7059326171875
 11
776.0000610351563
 21
-533.345458984375
  0
LINE
  8
0
  6
CONTINUOUS
 62
     7
 10
746
 20
-643.6242065429688
 11
776
 21
-643.6242065429688
  0
LINE
  8
0
  6
CONTINUOUS
 62
     7
 10
746
 20
-681.2940063476562
 11
775.9999389648437
 21
-666.6544799804687
  0
LINE
  8
0
  6
CONTINUOUS
 62
     7
 10
795
 20
-695
 11
837
 21
-695
  0
LINE
  8
0
  6
CONTINUOUS
 62
     7
 10
795
 20
-505
 11
837
 21
-505
  0
LINE
  8
0
  6
CONTINUOUS
 62
     7
 10
795.0000610351562
 20
-505.0001220703125
 11
791.0001220703125
 21
-509.0000915527344
  0
LINE
  8
0
  6
CONTINUOUS
 62
     7
 10
791.0000610351563
 20
-690.9999389648437
 11
795.0000610351562
 21
-694.9999389648437
  0
LINE
  8
0
  6
CONTINUOUS
 62
     7
 10
837.0000610351563
 20
-695.0001220703125
 11
841.0000610351563
 21
-691.0001220703125
  0
LINE
  8
0
  6
CONTINUOUS
 62
     7
 10
840.9999389648437
 20
-509
 11
836.9999389648437
 21
-505
  0
LINE
  8
0
  6
CONTINUOUS
 62
     7
 10
795
 20
-562.3461303710937
 11
837
 21
-562.3461303710937
  0
LINE
  8
0
  6
CONTINUOUS
 62
     7
 10
795
 20
-573.7877197265625
 11
837
 21
-573.7877197265625
  0
LINE
  8
0
  6
CONTINUOUS
 62
     7
 10
795
 20
-583.53125
 11
837
 21
-583.53125
  0
LINE
  8
0
  6
CONTINUOUS
 62
     7
 10
795
 20
-595.00048828125
 11
837
 21
-595.00048828125
  0
LINE
  8
0
  6
CONTINUOUS
 62
     7
 10
795
 20
-605.0001220703125
 11
837
 21
-605.0001220703125
  0
LINE
  8
0
  6
CONTINUOUS
 62
     7
 10
795
 20
-616.469482421875
 11
837
 21
-616.469482421875
  0
LINE
  8
0
  6
CONTINUOUS
 62
     7
 10
795
 20
-626.2124633789063
 11
837
 21
-626.2124633789063
  0
LINE
  8
0
  6
CONTINUOUS
 62
     7
 10
795
 20
-637.6536865234375
 11
837
 21
-637.6536865234375
  0
LINE
  8
0
  6
CONTINUOUS
 62
     7
 10
795
 20
-656.7067260742187
 11
837
 21
-656.7067260742187
  0
LINE
  8
0
  6
CONTINUOUS
 62
     7
 10
795
 20
-665.9718017578125
 11
837
 21
-665.9718017578125
  0
LINE
  8
0
  6
CONTINUOUS
 62
     7
 10
795
 20
-672.793212890625
 11
837
 21
-672.793212890625
  0
LINE
  8
0
  6
CONTINUOUS
 62
     7
 10
795
 20
-679.658447265625
 11
837
 21
-679.658447265625
  0
LINE
  8
0
  6
CONTINUOUS
 62
     7
 10
795
 20
-684.65869140625
 11
837
 21
-684.65869140625
  0
LINE
  8
0
  6
CONTINUOUS
 62
     7
 10
795
 20
-689.26123046875
 11
837
 21
-689.26123046875
  0
LINE
  8
0
  6
CONTINUOUS
 62
     7
 10
630
 20
-450
 11
698
 21
-450
  0
LINE
  8
0
  6
CONTINUOUS
 62
     7
 10
630
 20
-750
 11
698
 21
-750
  0
LINE
  8
0
  6
CONTINUOUS
 62
     7
 10
625
 20
-455.0000305175781
 11
630
 21
-450.0000305175781
  0
LINE
  8
0
  6
CONTINUOUS
 62
     7
 10
698
 20
-450
 11
703.0000610351563
 21
-455.0000305175781
  0
LINE
  8
0
  6
CONTINUOUS
 62
     7
 10
625
 20
-745
 11
630
 21
-750
  0
LINE
  8
0
  6
CONTINUOUS
 62
     7
 10
698
 20
-750
 11
703
 21
-745
  0
LINE
  8
0
  6
CONTINUOUS
 62
     7
 10
669
 20
-440.0000305175781
 11
637
 21
-440.0000305175781
  0
LINE
  8
0
  6
CONTINUOUS
 62
     7
 10
668.9999389648437
 20
-440.0000305175781
 11
672.6396484375
 21
-450.0000305175781
  0
LINE
  8
0
  6
CONTINUOUS
 62
     7
 10
637
 20
-440.0001220703125
 11
633.3603515625
 21
-450
  0
LINE
  8
0
  6
CONTINUOUS
 62
     7
 10
630
 20
-456.3724670410156
 11
698
 21
-456.3724670410156
  0
LINE
  8
0
  6
CONTINUOUS
 62
     7
 10
630
 20
-487.4244689941406
 11
698
 21
-487.4244689941406
  0
LINE
  8
0
  6
CONTINUOUS
 62
     7
 10
630
 20
-500.8700866699219
 11
698
 21
-500.8700866699219
  0
LINE
  8
0
  6
CONTINUOUS
 62
     7
 10
630
 20
-512.609130859375
 11
698
 21
-512.609130859375
  0
LINE
  8
0
  6
CONTINUOUS
 62
     7
 10
630
 20
-529.0270385742187
 11
698
 21
-529.0270385742187
  0
LINE
  8
0
  6
CONTINUOUS
 62
     7
 10
630
 20
-556.7433471679687
 11
698
 21
-556.7433471679687
  0
LINE
  8
0
  6
CONTINUOUS
 62
     7
 10
630
 20
-575.5888671875
 11
698
 21
-575.5888671875
  0
LINE
  8
0
  6
CONTINUOUS
 62
     7
 10
630
 20
-590.4924926757812
 11
698
 21
-590.4924926757812
  0
LINE
  8
0
  6
CONTINUOUS
 62
     7
 10
630
 20
-609.5074462890625
 11
698
 21
-609.5074462890625
  0
LINE
  8
0
  6
CONTINUOUS
 62
     7
 10
630
 20
-624.4110107421875
 11
698
 21
-624.4110107421875
  0
LINE
  8
0
  6
CONTINUOUS
 62
     7
 10
630
 20
-643.256591796875
 11
698
 21
-643.256591796875
  0
LINE
  8
0
  6
CONTINUOUS
 62
     7
 10
630
 20
-670.9730224609375
 11
698
 21
-670.9730224609375
  0
LINE
  8
0
  6
CONTINUOUS
 62
     7
 10
630
 20
-687.390869140625
 11
698
 21
-687.390869140625
  0
LINE
  8
0
  6
CONTINUOUS
 62
     7
 10
630
 20
-699.1300048828125
 11
698
 21
-699.1300048828125
  0
LINE
  8
0
  6
CONTINUOUS
 62
     7
 10
630
 20
-712.5756225585938
 11
698
 21
-712.5756225585938
  0
LINE
  8
0
  6
CONTINUOUS
 62
     7
 10
630
 20
-721.9133911132812
 11
698
 21
-721.9133911132812
  0
LINE
  8
0
  6
CONTINUOUS
 62
     7
 10
630
 20
-732.14697265625
 11
698
 21
-732.14697265625
  0
LINE
  8
0
  6
CONTINUOUS
 62
     7
 10
630
 20
-743.6275634765625
 11
698
 21
-743.6275634765625
  0
LINE
  8
0
  6
CONTINUOUS
 62
     7
 10
640.5000610351563
 20
-437.0000305175781
 11
641.7955932617188
 21
-429.6527404785156
  0
LINE
  8
0
  6
CONTINUOUS
 62
     7
 10
664.2045288085937
 20
-429.6527099609375
 11
665.5000610351563
 21
-437
  0
LINE
  8
0
  6
CONTINUOUS
 62
     7
 10
643.76513671875
 20
-428.0000305175781
 11
662.23486328125
 21
-428.0000305175781
  0
LINE
  8
0
  6
CONTINUOUS
 62
     7
 10
643.341796875
 20
-428.0453491210938
 11
652.57666015625
 21
-426.0453491210938
  0
LINE
  8
0
  6
CONTINUOUS
 62
     7
 10
653.42333984375
 20
-426.0453491210938
 11
662.658203125
 21
-428.0453186035156
  0
LINE
  8
0
  6
CONTINUOUS
 62
     7
 10
640.5
 20
-437.0000305175781
 11
640.5
 21
-440.0000305175781
  0
LINE
  8
0
  6
CONTINUOUS
 62
     7
 10
665.5
 20
-437.0000305175781
 11
665.5
 21
-440.0000305175781
  0
LINE
  8
0
  6
CONTINUOUS
 62
     7
 10
535
 20
-400
 11
535
 21
-800
  0
LINE
  8
0
  6
CONTINUOUS
 62
     7
 10
625
 20
-452
 11
625
 21
-748
  0
LINE
  8
0
  6
CONTINUOUS
 62
     7
 10
510
 20
-400
 11
510
 21
-487.8723754882812
  0
LINE
  8
0
  6
CONTINUOUS
 62
     7
 10
510
 20
-800
 11
535
 21
-800
  0
LINE
  8
0
  6
CONTINUOUS
 62
     7
 10
510
 20
-400
 11
535
 21
-400
  0
LINE
  8
0
  6
CONTINUOUS
 62
     7
 10
545
 20
-452
 11
625
 21
-452
  0
LINE
  8
0
  6
CONTINUOUS
 62
     7
 10
603
 20
-748
 11
625
 21
-748
  0
LINE
  8
0
  6
CONTINUOUS
 62
     7
 10
603
 20
-452
 11
603
 21
-748
  0
LINE
  8
0
  6
CONTINUOUS
 62
     7
 10
576.3798828125
 20
-537.6568603515625
 11
598
 21
-537.6568603515625
  0
LINE
  8
0
  6
CONTINUOUS
 62
     7
 10
535
 20
-451.9161376953125
 11
603.0000610351563
 21
-488.8349609375
  0
LINE
  8
0
  6
CONTINUOUS
 62
     7
 10
535
 20
-473.1293334960937
 11
602.9999389648438
 21
-510.0481567382812
  0
LINE
  8
0
  6
CONTINUOUS
 62
     7
 10
538.933349609375
 20
-511.6587524414063
 11
570.313232421875
 21
-535.6063842773438
  0
LINE
  8
0
  6
CONTINUOUS
 62
     7
 10
538.9332885742187
 20
-688.34130859375
 11
570.313232421875
 21
-664.3936157226563
  0
LINE
  8
0
  6
CONTINUOUS
 62
     7
 10
576.3798828125
 20
-662.3431396484375
 11
598
 21
-662.3431396484375
  0
LINE
  8
0
  6
CONTINUOUS
 62
     7
 10
535
 20
-726.8706665039063
 11
603
 21
-689.9518432617188
  0
LINE
  8
0
  6
CONTINUOUS
 62
     7
 10
535
 20
-748.0838623046875
 11
603
 21
-711.1650390625
  0
LINE
  8
0
  6
CONTINUOUS
 62
     7
 10
502
 20
-450
 11
502
 21
-479.2485961914063
  0
LINE
  8
0
  6
CONTINUOUS
 62
     7
 10
502
 20
-450
 11
510
 21
-450
  0
LINE
  8
0
  6
CONTINUOUS
 62
     7
 10
502
 20
-750
 11
510
 21
-750
  0
LINE
  8
0
  6
CONTINUOUS
 62
     7
 10
400
 20
-558
 11
400
 21
-637.5
  0
LINE
  8
0
  6
CONTINUOUS
 62
     7
 10
400
 20
-562.5
 11
510
 21
-562.5
  0
LINE
  8
0
  6
CONTINUOUS
 62
     7
 10
400
 20
-637.5
 11
510
 21
-637.5
  0
LINE
  8
0
  6
CONTINUOUS
 62
     7
 10
502
 20
-701.3932495117187
 11
502
 21
-750
  0
LINE
  8
0
  6
CONTINUOUS
 62
     7
 10
510
 20
-691.0530395507813
 11
510
 21
-800
  0
LINE
  8
0
  6
CONTINUOUS
 62
     7
 10
400
 20
-558
 11
490
 21
-558
  0
LINE
  8
0
  6
CONTINUOUS
 62
     7
 10
510
 20
-642.5
 11
517.0518188476562
 21
-642.5
  0
LINE
  8
0
  6
CONTINUOUS
 62
     7
 10
510
 20
-557.5
 11
513.872314453125
 21
-557.5
  0
LINE
  8
0
  6
CONTINUOUS
 62
     7
 10
510
 20
-557.5999755859375
 11
510
 21
-642.5
  0
LINE
  8
0
  6
CONTINUOUS
 62
     7
 10
561.5
 20
-414.7000122070313
 11
588.5
 21
-414.7000122070313
  0
LINE
  8
0
  6
CONTINUOUS
 62
     7
 10
566.3499755859375
 20
-414.7000122070313
 11
566.3499755859375
 21
-452
  0
LINE
  8
0
  6
CONTINUOUS
 62
     7
 10
583.6500244140625
 20
-414.7000122070313
 11
583.6500244140625
 21
-452
  0
LINE
  8
0
  6
CONTINUOUS
 62
     3
 10
575
 20
-360.0375671386719
 11
575
 21
-467
  0
LINE
  8
0
  6
CONTINUOUS
 62
     7
 10
561.5
 20
-382.7000122070313
 11
588.5
 21
-382.7000122070313
  0
LINE
  8
0
  6
CONTINUOUS
 62
     7
 10
583.071044921875
 20
-368.0500183105469
 11
566.928955078125
 21
-368.0500183105469
  0
LINE
  8
0
  6
CONTINUOUS
 62
     7
 10
583.507568359375
 20
-377.0500183105469
 11
566.492431640625
 21
-377.0500183105469
  0
LINE
  8
0
  6
CONTINUOUS
 62
     7
 10
583.507568359375
 20
-377.0500183105469
 11
583.3309936523438
 21
-382.7000122070313
  0
LINE
  8
0
  6
CONTINUOUS
 62
     7
 10
566.492431640625
 20
-377.0500183105469
 11
566.6689453125
 21
-382.6999816894531
  0
LINE
  8
0
  6
CONTINUOUS
 62
     7
 10
583.071044921875
 20
-368.0500183105469
 11
583.071044921875
 21
-377.0500183105469
  0
LINE
  8
0
  6
CONTINUOUS
 62
     7
 10
566.928955078125
 20
-368.0500183105469
 11
566.928955078125
 21
-377.0500183105469
  0
LINE
  8
0
  6
CONTINUOUS
 62
     7
 10
588.5
 20
-382.7000122070313
 11
588.5
 21
-414.7000122070313
  0
LINE
  8
0
  6
CONTINUOUS
 62
     7
 10
561.5
 20
-382.7000122070313
 11
561.5
 21
-414.7000122070313
  0
LINE
  8
0
  6
CONTINUOUS
 62
     3
 10
566.928955078125
 20
-377.0499877929688
 11
575
 21
-368.0499572753906
  0
LINE
  8
0
  6
CONTINUOUS
 62
     7
 10
575
 20
-368.0500183105469
 11
575
 21
-377.0500183105469
  0
LINE
  8
0
  6
CONTINUOUS
 62
     3
 10
575
 20
-377.0499877929688
 11
583.071044921875
 21
-368.0500183105469
  0
LINE
  8
0
  6
CONTINUOUS
 62
     3
 10
583.071044921875
 20
-377.0500183105469
 11
575
 21
-368.050048828125
  0
LINE
  8
0
  6
CONTINUOUS
 62
     3
 10
566.9288940429687
 20
-368.0500183105469
 11
574.9999389648438
 21
-377.0499877929688
  0
LINE
  8
0
  6
CONTINUOUS
 62
     7
 10
490
 20
-558
 11
490
 21
-562.5
  0
LINE
  8
0
  6
CONTINUOUS
 62
     7
 10
841
 20
-507.5
 11
841
 21
-692.5
  0
LINE
  8
0
  6
CONTINUOUS
 62
     7
 10
680.9999389648438
 20
-591.5145874023438
 11
672.5146484375
 21
-599.9998779296875
  0
LINE
  8
0
  6
CONTINUOUS
 62
     7
 10
689.4853515625
 20
-599.9998779296875
 11
681.0000610351562
 21
-591.5145874023438
  0
LINE
  8
0
  6
CONTINUOUS
 62
     3
 10
681
 20
-589.492431640625
 11
681
 21
-610.507568359375
  0
LINE
  8
0
  6
CONTINUOUS
 62
     7
 10
681.0000610351562
 20
-608.4853515625
 11
672.5147705078125
 21
-600.0001220703125
  0
LINE
  8
0
  6
CONTINUOUS
 62
     7
 10
689.4852294921875
 20
-600
 11
680.9999389648438
 21
-608.4852905273438
  0
LINE
  8
0
  6
CONTINUOUS
 62
     3
 10
720
 20
-381.6383361816406
 11
720
 21
-457
  0
LINE
  8
0
  6
CONTINUOUS
 62
     3
 10
702.6383056640625
 20
-399
 11
775.469970703125
 21
-399
  0
LINE
  8
0
  6
CONTINUOUS
 62
     7
 10
752
 20
-383
 11
752
 21
-415
  0
LINE
  8
0
  6
CONTINUOUS
 62
     7
 10
704
 20
-431
 11
736
 21
-431
  0
LINE
  8
0
  6
CONTINUOUS
 62
     7
 10
741
 20
-415
 11
752
 21
-415
  0
LINE
  8
0
  6
CONTINUOUS
 62
     7
 10
736
 20
-383
 11
752
 21
-383
  0
LINE
  8
0
  6
CONTINUOUS
 62
     7
 10
704
 20
-415
 11
704
 21
-431
  0
LINE
  8
0
  6
CONTINUOUS
 62
     7
 10
736
 20
-420
 11
736
 21
-431
  0
LINE
  8
0
  6
CONTINUOUS
 62
     7
 10
770.469970703125
 20
-410.1923828125
 11
770.469970703125
 21
-387.8076171875
  0
LINE
  8
0
  6
CONTINUOUS
 62
     7
 10
759.469970703125
 20
-412.4534301757812
 11
759.469970703125
 21
-385.5465698242188
  0
LINE
  8
0
  6
CONTINUOUS
 62
     7
 10
759.469970703125
 20
-412.4534301757812
 11
752
 21
-412.2200012207031
  0
LINE
  8
0
  6
CONTINUOUS
 62
     7
 10
759.469970703125
 20
-385.5465393066406
 11
752
 21
-385.7799682617188
  0
LINE
  8
0
  6
CONTINUOUS
 62
     7
 10
770.469970703125
 20
-410.1923828125
 11
759.469970703125
 21
-410.1923828125
  0
LINE
  8
0
  6
CONTINUOUS
 62
     7
 10
770.469970703125
 20
-387.8076171875
 11
759.469970703125
 21
-387.8076171875
  0
LINE
  8
0
  6
CONTINUOUS
 62
     3
 10
759.4700317382813
 20
-410.1924133300781
 11
770.4700317382813
 21
-399
  0
LINE
  8
0
  6
CONTINUOUS
 62
     3
 10
770.4700317382813
 20
-410.1923828125
 11
759.4700317382813
 21
-399
  0
LINE
  8
0
  6
CONTINUOUS
 62
     3
 10
759.469970703125
 20
-399
 11
770.4700317382813
 21
-387.8075866699219
  0
LINE
  8
0
  6
CONTINUOUS
 62
     3
 10
770.469970703125
 20
-399
 11
759.469970703125
 21
-387.8076171875
  0
LINE
  8
0
  6
CONTINUOUS
 62
     7
 10
706.5
 20
-431
 11
706.5
 21
-452
  0
LINE
  8
0
  6
CONTINUOUS
 62
     7
 10
733.5
 20
-431
 11
733.5
 21
-452
  0
LINE
  8
0
  6
CONTINUOUS
 62
     7
 10
770.469970703125
 20
-399.0003662109375
 11
759.469970703125
 21
-399.0003662109375
  0
LINE
  8
0
  6
CONTINUOUS
 62
     3
 10
380
 20
0
 11
941.5833129882812
 21
0
  0
LINE
  8
0
  6
CONTINUOUS
 62
     7
 10
703
 20
148.0000152587891
 11
703
 21
-147.9999847412109
  0
LINE
  8
0
  6
CONTINUOUS
 62
     7
 10
791
 20
92.50000762939453
 11
791
 21
-92.49999237060547
  0
LINE
  8
0
  6
CONTINUOUS
 62
     7
 10
703
 20
-148
 11
723
 21
-148
  0
LINE
  8
0
  6
CONTINUOUS
 62
     7
 10
703
 20
148
 11
723
 21
148
  0
LINE
  8
0
  6
CONTINUOUS
 62
     7
 10
723
 20
148.0000152587891
 11
723
 21
28.72284889221191
  0
LINE
  8
0
  6
CONTINUOUS
 62
     7
 10
746
 20
102.918342590332
 11
746
 21
16.00000953674316
  0
LINE
  8
0
  6
CONTINUOUS
 62
     7
 10
776
 20
92.50000762939453
 11
776
 21
-92.49999237060547
  0
LINE
  8
0
  6
CONTINUOUS
 62
     7
 10
727.5641479492187
 20
-109.1126861572266
 11
741.4357299804687
 21
-107.8990859985352
  0
LINE
  8
0
  6
CONTINUOUS
 62
     7
 10
727.5642700195313
 20
109.1132888793945
 11
742.5642700195313
 21
107.8009567260742
  0
LINE
  8
0
  6
CONTINUOUS
 62
     7
 10
776
 20
-92.5
 11
791
 21
-92.5
  0
LINE
  8
0
  6
CONTINUOUS
 62
     7
 10
776
 20
92.5
 11
791
 21
92.5
  0
LINE
  8
0
  6
CONTINUOUS
 62
     7
 10
723
 20
-28.72276878356934
 11
723
 21
-147.9999847412109
  0
LINE
  8
0
  6
CONTINUOUS
 62
     7
 10
746
 20
-40.1566162109375
 11
776
 21
-40.1566162109375
  0
LINE
  8
0
  6
CONTINUOUS
 62
     7
 10
776
 20
-62.53788757324219
 11
746
 21
-76.18947601318359
  0
LINE
  8
0
  6
CONTINUOUS
 62
     7
 10
746
 20
40.1566162109375
 11
776
 21
40.1566162109375
  0
LINE
  8
0
  6
CONTINUOUS
 62
     7
 10
776
 20
62.53785705566406
 11
745.9999389648438
 21
76.189453125
  0
LINE
  8
0
  6
CONTINUOUS
 62
     7
 10
795
 20
-87.21929931640625
 11
837.0001220703125
 21
-87.21929931640625
  0
LINE
  8
0
  6
CONTINUOUS
 62
     7
 10
795
 20
-95
 11
837
 21
-95
  0
LINE
  8
0
  6
CONTINUOUS
 62
     7
 10
795
 20
95
 11
837
 21
95
  0
LINE
  8
0
  6
CONTINUOUS
 62
     7
 10
795.0001831054688
 20
94.99980163574219
 11
791.0001831054687
 21
90.99979400634766
  0
LINE
  8
0
  6
CONTINUOUS
 62
     7
 10
791
 20
-90.99996948242187
 11
795
 21
-94.99996948242188
  0
LINE
  8
0
  6
CONTINUOUS
 62
     7
 10
837.0001220703125
 20
-95.00003814697266
 11
841.0001220703125
 21
-91.00003051757813
  0
LINE
  8
0
  6
CONTINUOUS
 62
     7
 10
840.9999389648437
 20
91.00003051757813
 11
836.9999389648437
 21
95.00003814697266
  0
LINE
  8
0
  6
CONTINUOUS
 62
     7
 10
794.9999389648437
 20
87.218994140625
 11
837.0000610351563
 21
87.218994140625
  0
LINE
  8
0
  6
CONTINUOUS
 62
     7
 10
794.9999389648437
 20
76.21875
 11
837.0000610351563
 21
76.21875
  0
LINE
  8
0
  6
CONTINUOUS
 62
     7
 10
794.9999389648437
 20
68.35662841796875
 11
837.0000610351563
 21
68.35662841796875
  0
LINE
  8
0
  6
CONTINUOUS
 62
     7
 10
794.9999389648437
 20
61.04364013671875
 11
837.0000610351563
 21
61.04364013671875
  0
LINE
  8
0
  6
CONTINUOUS
 62
     7
 10
794.9999389648437
 20
51.7645263671875
 11
837.0000610351563
 21
51.7645263671875
  0
LINE
  8
0
  6
CONTINUOUS
 62
     7
 10
794.9999389648437
 20
43.10443115234375
 11
837.0000610351563
 21
43.10443115234375
  0
LINE
  8
0
  6
CONTINUOUS
 62
     7
 10
794.9999389648437
 20
32.5186767578125
 11
837.0000610351563
 21
32.5186767578125
  0
LINE
  8
0
  6
CONTINUOUS
 62
     7
 10
794.9999389648437
 20
22.95574951171875
 11
834.2802124023437
 21
22.95574951171875
  0
LINE
  8
0
  6
CONTINUOUS
 62
     7
 10
794.9999389648437
 20
11.00006103515625
 11
837.0000610351563
 21
11.00006103515625
  0
LINE
  8
0
  6
CONTINUOUS
 62
     7
 10
630
 20
150.0000610351562
 11
698
 21
150.0000610351562
  0
LINE
  8
0
  6
CONTINUOUS
 62
     7
 10
630
 20
-150
 11
698
 21
-150
  0
LINE
  8
0
  6
CONTINUOUS
 62
     7
 10
625.000244140625
 20
144.9999694824219
 11
630.0001831054688
 21
149.9999389648438
  0
LINE
  8
0
  6
CONTINUOUS
 62
     7
 10
697.9999389648437
 20
150.0001983642578
 11
702.9999389648437
 21
145.0002136230469
  0
LINE
  8
0
  6
CONTINUOUS
 62
     7
 10
624.9999389648437
 20
-144.9998168945312
 11
630
 21
-149.9998779296875
  0
LINE
  8
0
  6
CONTINUOUS
 62
     7
 10
698.0001831054688
 20
-150.0001373291016
 11
703.0001831054687
 21
-145.0001525878906
  0
LINE
  8
0
  6
CONTINUOUS
 62
     7
 10
630.0001831054688
 20
143.6275634765625
 11
697.9998779296875
 21
143.6275634765625
  0
LINE
  8
0
  6
CONTINUOUS
 62
     7
 10
630.0001831054688
 20
132.1470336914063
 11
697.9998779296875
 21
132.1470336914063
  0
LINE
  8
0
  6
CONTINUOUS
 62
     7
 10
630.0001831054688
 20
121.913330078125
 11
697.9998779296875
 21
121.913330078125
  0
LINE
  8
0
  6
CONTINUOUS
 62
     7
 10
630.0001831054688
 20
112.5756225585938
 11
697.9998779296875
 21
112.5756225585938
  0
LINE
  8
0
  6
CONTINUOUS
 62
     7
 10
630.0001831054688
 20
99.1300048828125
 11
697.9998779296875
 21
99.1300048828125
  0
LINE
  8
0
  6
CONTINUOUS
 62
     7
 10
630.0001831054688
 20
43.2567138671875
 11
697.9998779296875
 21
43.2567138671875
  0
LINE
  8
0
  6
CONTINUOUS
 62
     7
 10
630.0001831054688
 20
25.00006103515625
 11
697.9998779296875
 21
25.00006103515625
  0
LINE
  8
0
  6
CONTINUOUS
 62
     7
 10
630.0001831054688
 20
-25
 11
697.9999389648437
 21
-25
  0
LINE
  8
0
  6
CONTINUOUS
 62
     7
 10
630.0001831054688
 20
-43.25653076171875
 11
697.9999389648437
 21
-43.25653076171875
  0
LINE
  8
0
  6
CONTINUOUS
 62
     7
 10
630.0001831054688
 20
-99.12994384765625
 11
697.9999389648437
 21
-99.12994384765625
  0
LINE
  8
0
  6
CONTINUOUS
 62
     7
 10
630.0001831054688
 20
-112.5755615234375
 11
697.9999389648437
 21
-112.5755615234375
  0
LINE
  8
0
  6
CONTINUOUS
 62
     7
 10
630.0001831054688
 20
-121.9132690429687
 11
697.9999389648437
 21
-121.9132690429687
  0
LINE
  8
0
  6
CONTINUOUS
 62
     7
 10
630.0001831054688
 20
-132.1470336914063
 11
697.9999389648437
 21
-132.1470336914063
  0
LINE
  8
0
  6
CONTINUOUS
 62
     7
 10
630.0001831054688
 20
-143.6275329589844
 11
697.9999389648437
 21
-143.6275329589844
  0
LINE
  8
0
  6
CONTINUOUS
 62
     7
 10
632.9999389648437
 20
5
 11
672.9999389648438
 21
5
  0
LINE
  8
0
  6
CONTINUOUS
 62
     7
 10
632.9999389648437
 20
-5
 11
672.9999389648438
 21
-5
  0
LINE
  8
0
  6
CONTINUOUS
 62
     7
 10
625
 20
148
 11
625
 21
-148
  0
LINE
  8
0
  6
CONTINUOUS
 62
     7
 10
510
 20
200
 11
510
 21
90.97784423828125
  0
LINE
  8
0
  6
CONTINUOUS
 62
     7
 10
510
 20
-200
 11
535
 21
-200
  0
LINE
  8
0
  6
CONTINUOUS
 62
     7
 10
510
 20
200
 11
535
 21
200
  0
LINE
  8
0
  6
CONTINUOUS
 62
     7
 10
603
 20
148
 11
625
 21
148
  0
LINE
  8
0
  6
CONTINUOUS
 62
     7
 10
603
 20
-148
 11
625
 21
-148
  0
LINE
  8
0
  6
CONTINUOUS
 62
     7
 10
603
 20
148
 11
603
 21
20.0000057220459
  0
LINE
  8
0
  6
CONTINUOUS
 62
     7
 10
576.3799438476562
 20
-62.3431396484375
 11
598
 21
-62.3431396484375
  0
LINE
  8
0
  6
CONTINUOUS
 62
     7
 10
576.3798828125
 20
62.3431396484375
 11
598
 21
62.3431396484375
  0
LINE
  8
0
  6
CONTINUOUS
 62
     7
 10
535
 20
-20
 11
603
 21
-20
  0
LINE
  8
0
  6
CONTINUOUS
 62
     7
 10
535
 20
20
 11
603
 21
20
  0
LINE
  8
0
  6
CONTINUOUS
 62
     7
 10
603
 20
-19.9999942779541
 11
603
 21
-148
  0
LINE
  8
0
  6
CONTINUOUS
 62
     7
 10
535.0000610351562
 20
148.0838775634766
 11
603
 21
111.1650619506836
  0
LINE
  8
0
  6
CONTINUOUS
 62
     7
 10
535
 20
126.8706665039063
 11
603.0000610351563
 21
89.95182800292969
  0
LINE
  8
0
  6
CONTINUOUS
 62
     7
 10
538.9332885742187
 20
88.34128570556641
 11
570.3131713867187
 21
64.39365386962891
  0
LINE
  8
0
  6
CONTINUOUS
 62
     7
 10
538.9332885742187
 20
-88.34127044677734
 11
570.3131713867187
 21
-64.39363098144531
  0
LINE
  8
0
  6
CONTINUOUS
 62
     7
 10
535
 20
-126.8706817626953
 11
603
 21
-89.95184326171875
  0
LINE
  8
0
  6
CONTINUOUS
 62
     7
 10
535
 20
-148.0838623046875
 11
603
 21
-111.1650390625
  0
LINE
  8
0
  6
CONTINUOUS
 62
     7
 10
535
 20
200
 11
535
 21
-200
  0
LINE
  8
0
  6
CONTINUOUS
 62
     7
 10
510
 20
42.5
 11
515.1341552734375
 21
42.5
  0
LINE
  8
0
  6
CONTINUOUS
 62
     7
 10
510
 20
-42.5
 11
516.2838134765625
 21
-42.5
  0
LINE
  8
0
  6
CONTINUOUS
 62
     7
 10
502
 20
150
 11
502
 21
97.3695068359375
  0
LINE
  8
0
  6
CONTINUOUS
 62
     7
 10
502
 20
150
 11
510
 21
150
  0
LINE
  8
0
  6
CONTINUOUS
 62
     7
 10
502
 20
-150
 11
510
 21
-150
  0
LINE
  8
0
  6
CONTINUOUS
 62
     7
 10
400
 20
37.5
 11
400
 21
-37.5
  0
LINE
  8
0
  6
CONTINUOUS
 62
     7
 10
400
 20
37.5
 11
510
 21
37.5
  0
LINE
  8
0
  6
CONTINUOUS
 62
     7
 10
400
 20
-37.5
 11
510
 21
-37.5
  0
LINE
  8
0
  6
CONTINUOUS
 62
     7
 10
502
 20
-94.56884765625
 11
502
 21
-150
  0
LINE
  8
0
  6
CONTINUOUS
 62
     7
 10
510
 20
-88.9996337890625
 11
510
 21
-200
  0
LINE
  8
0
  6
CONTINUOUS
 62
     7
 10
400
 20
-10
 11
495
 21
-10
  0
LINE
  8
0
  6
CONTINUOUS
 62
     7
 10
400
 20
10
 11
495
 21
10
  0
LINE
  8
0
  6
CONTINUOUS
 62
     7
 10
510
 20
42.40002822875977
 11
510
 21
-42.49999618530273
  0
LINE
  8
0
  6
CONTINUOUS
 62
     7
 10
583.4852905273438
 20
-1.856630842667073E-05
 11
575.0000610351563
 21
8.48521900177002
  0
LINE
  8
0
  6
CONTINUOUS
 62
     7
 10
575.0000610351563
 20
8.485233306884766
 11
566.5147705078125
 21
-4.775362322106957E-05
  0
LINE
  8
0
  6
CONTINUOUS
 62
     7
 10
574.9999389648438
 20
-8.485286712646484
 11
566.5147094726563
 21
-4.775361958309077E-05
  0
LINE
  8
0
  6
CONTINUOUS
 62
     7
 10
583.4852905273438
 20
-5.520988997886889E-05
 11
575
 21
-8.485335350036621
  0
LINE
  8
0
  6
CONTINUOUS
 62
     3
 10
575
 20
15.72766590118408
 11
575
 21
-15.83092784881592
  0
LINE
  8
0
  6
CONTINUOUS
 62
     7
 10
490
 20
10.00000286102295
 11
490
 21
-9.999997138977051
  0
LINE
  8
0
  6
CONTINUOUS
 62
     7
 10
841.0001220703125
 20
-92.50004577636719
 11
841.0001220703125
 21
0
  0
LINE
  8
0
  6
CONTINUOUS
 62
     3
 10
681.0000610351562
 20
-139.9925994873047
 11
681.0000610351562
 21
-171.6517181396484
  0
LINE
  8
0
  6
CONTINUOUS
 62
     7
 10
672.9290161132812
 20
-164.6499938964844
 11
689.0711059570312
 21
-164.6499938964844
  0
LINE
  8
0
  6
CONTINUOUS
 62
     7
 10
672.4924926757813
 20
-155.6499938964844
 11
689.5076293945312
 21
-155.6499938964844
  0
LINE
  8
0
  6
CONTINUOUS
 62
     7
 10
672.4924926757813
 20
-155.6499938964844
 11
672.6690673828125
 21
-150
  0
LINE
  8
0
  6
CONTINUOUS
 62
     7
 10
689.5076293945312
 20
-155.6499938964844
 11
689.3310546875
 21
-149.9999847412109
  0
LINE
  8
0
  6
CONTINUOUS
 62
     7
 10
672.9290161132812
 20
-164.6499786376953
 11
672.9290161132812
 21
-155.6499786376953
  0
LINE
  8
0
  6
CONTINUOUS
 62
     7
 10
689.0711059570312
 20
-164.6499786376953
 11
689.0711059570312
 21
-155.6499786376953
  0
LINE
  8
0
  6
CONTINUOUS
 62
     7
 10
681.0000610351562
 20
-164.6499786376953
 11
681.0000610351562
 21
-155.6499786376953
  0
LINE
  8
0
  6
CONTINUOUS
 62
     3
 10
672.9290161132812
 20
-155.6500549316406
 11
681
 21
-164.6500091552734
  0
LINE
  8
0
  6
CONTINUOUS
 62
     3
 10
672.9288940429688
 20
-164.64990234375
 11
680.9999389648438
 21
-155.64990234375
  0
LINE
  8
0
  6
CONTINUOUS
 62
     3
 10
681
 20
-155.6500549316406
 11
689.0711059570312
 21
-164.6500549316406
  0
LINE
  8
0
  6
CONTINUOUS
 62
     3
 10
680.9999389648438
 20
-164.6499328613281
 11
689.071044921875
 21
-155.6499328613281
  0
LINE
  8
0
  6
CONTINUOUS
 62
     3
 10
720
 20
21.00000953674316
 11
720
 21
-20.99999046325684
  0
LINE
  8
0
  6
CONTINUOUS
 62
     7
 10
720
 20
-16
 11
752
 21
-16
  0
LINE
  8
0
  6
CONTINUOUS
 62
     7
 10
720
 20
16
 11
752
 21
16
  0
LINE
  8
0
  6
CONTINUOUS
 62
     7
 10
770.469970703125
 20
-11.19237995147705
 11
770.469970703125
 21
11.19239330291748
  0
LINE
  8
0
  6
CONTINUOUS
 62
     7
 10
759.469970703125
 20
-13.4534273147583
 11
759.469970703125
 21
13.45344829559326
  0
LINE
  8
0
  6
CONTINUOUS
 62
     7
 10
759.4700317382813
 20
-13.45343589782715
 11
752
 21
-13.21999740600586
  0
LINE
  8
0
  6
CONTINUOUS
 62
     7
 10
759.469970703125
 20
13.45342350006104
 11
752
 21
13.2199878692627
  0
LINE
  8
0
  6
CONTINUOUS
 62
     7
 10
770.4700317382813
 20
-11.19239044189453
 11
759.4700317382813
 21
-11.19239044189453
  0
LINE
  8
0
  6
CONTINUOUS
 62
     7
 10
770.469970703125
 20
11.19239044189453
 11
759.469970703125
 21
11.19239044189453
  0
LINE
  8
0
  6
CONTINUOUS
 62
     7
 10
770.469970703125
 20
0
 11
759.469970703125
 21
0
  0
LINE
  8
0
  6
CONTINUOUS
 62
     3
 10
759.469970703125
 20
-11.19235992431641
 11
770.469970703125
 21
3.728395313373767E-05
  0
LINE
  8
0
  6
CONTINUOUS
 62
     3
 10
770.469970703125
 20
-11.19237422943115
 11
759.469970703125
 21
2.704457074287347E-05
  0
LINE
  8
0
  6
CONTINUOUS
 62
     3
 10
759.469970703125
 20
-2.416857023490593E-05
 11
770.469970703125
 21
11.19237327575684
  0
LINE
  8
0
  6
CONTINUOUS
 62
     3
 10
770.469970703125
 20
-3.811674105236307E-05
 11
759.469970703125
 21
11.19236278533936
  0
LINE
  8
0
  6
CONTINUOUS
 62
     7
 10
752
 20
16.00000953674316
 11
752
 21
-15.99999046325684
  0
LINE
  8
0
  6
CONTINUOUS
 62
     7
 10
746
 20
-15.99999046325684
 11
746
 21
-102.918327331543
  0
LINE
  8
0
  6
CONTINUOUS
 62
     3
 10
0
 20
-355.25
 11
0
 21
-820
  0
LINE
  8
0
  6
CONTINUOUS
 62
     3
 10
-220
 20
-600
 11
220
 21
-600
  0
LINE
  8
0
  6
CONTINUOUS
 62
     7
 10
-10
 20
-558
 11
-10
 21
-570
  0
LINE
  8
0
  6
CONTINUOUS
 62
     7
 10
10
 20
-558
 11
10
 21
-570
  0
LINE
  8
0
  6
CONTINUOUS
 62
     7
 10
-10
 20
-570
 11
10
 21
-570
  0
LINE
  8
0
  6
CONTINUOUS
 62
     7
 10
-10
 20
-558
 11
10
 21
-558
  0
LINE
  8
0
  6
CONTINUOUS
 62
     3
 10
149.4212036132813
 20
-661.8925170898437
 11
173.5414276123047
 21
-671.8834228515625
  0
LINE
  8
0
  6
CONTINUOUS
 62
     3
 10
149.4212646484375
 20
-538.107666015625
 11
173.5415496826172
 21
-528.11669921875
  0
LINE
  8
0
  6
CONTINUOUS
 62
     3
 10
61.89230728149414
 20
-450.5787658691406
 11
71.88325500488281
 21
-426.45849609375
  0
LINE
  8
0
  6
CONTINUOUS
 62
     3
 10
-61.89222717285156
 20
-450.5787353515625
 11
-71.88317108154297
 21
-426.4584655761719
  0
LINE
  8
0
  6
CONTINUOUS
 62
     3
 10
-149.4211883544922
 20
-538.107666015625
 11
-173.5414123535156
 21
-528.11669921875
  0
LINE
  8
0
  6
CONTINUOUS
 62
     3
 10
-149.4212493896484
 20
-661.8922119140625
 11
-173.5414733886719
 21
-671.8831787109375
  0
LINE
  8
0
  6
CONTINUOUS
 62
     3
 10
-61.89249038696289
 20
-749.4210815429687
 11
-71.8834228515625
 21
-773.5413208007812
  0
LINE
  8
0
  6
CONTINUOUS
 62
     3
 10
61.89202117919922
 20
-749.4213256835937
 11
71.88294219970703
 21
-773.5415649414062
  0
LINE
  8
0
  6
CONTINUOUS
 62
     3
 10
52.31839752197266
 20
-509.3819885253906
 11
42.56134796142578
 21
-526.2816772460938
  0
LINE
  8
0
  6
CONTINUOUS
 62
     3
 10
-52.31833267211914
 20
-509.3819274902344
 11
-42.56128311157227
 21
-526.2816162109375
  0
LINE
  8
0
  6
CONTINUOUS
 62
     3
 10
-52.31827926635742
 20
-690.6180419921875
 11
-42.56122589111328
 21
-673.7183227539062
  0
LINE
  8
0
  6
CONTINUOUS
 62
     3
 10
52.31835556030273
 20
-690.6179809570313
 11
42.56130599975586
 21
-673.71826171875
  0
LINE
  8
0
  6
CONTINUOUS
 62
     7
 10
-13.5
 20
-382.7000122070313
 11
13.5
 21
-382.7000122070313
  0
LINE
  8
0
  6
CONTINUOUS
 62
     7
 10
8.507568359375
 20
-377.0500183105469
 11
-8.507568359375
 21
-377.0500183105469
  0
LINE
  8
0
  6
CONTINUOUS
 62
     7
 10
8.507532119750977
 20
-377.0500183105469
 11
8.330970764160156
 21
-382.6999816894531
  0
LINE
  8
0
  6
CONTINUOUS
 62
     7
 10
-8.507613182067871
 20
-377.050048828125
 11
-8.331050872802734
 21
-382.7000427246094
  0
LINE
  8
0
  6
CONTINUOUS
 62
     7
 10
8.071044921875
 20
-368.0500183105469
 11
8.071044921875
 21
-377.0500183105469
  0
LINE
  8
0
  6
CONTINUOUS
 62
     7
 10
-8.071044921875
 20
-368.0500183105469
 11
-8.071044921875
 21
-377.0500183105469
  0
LINE
  8
0
  6
CONTINUOUS
 62
     7
 10
13.5
 20
-382.7000122070313
 11
13.5
 21
-400.4561462402344
  0
LINE
  8
0
  6
CONTINUOUS
 62
     7
 10
-13.5
 20
-382.7000122070313
 11
-13.5
 21
-400.4561462402344
  0
LINE
  8
0
  6
CONTINUOUS
 62
     3
 10
-8.071035385131836
 20
-377.0500183105469
 11
4.260509740561247E-07
 21
-368.0500183105469
  0
LINE
  8
0
  6
CONTINUOUS
 62
     3
 10
-8.071061134338379
 20
-368.050048828125
 11
-4.181722033536062E-06
 21
-377.050048828125
  0
LINE
  8
0
  6
CONTINUOUS
 62
     3
 10
2.455648973409552E-05
 20
-377.0500183105469
 11
8.071061134338379
 21
-368.050048828125
  0
LINE
  8
0
  6
CONTINUOUS
 62
     3
 10
8.071044921875
 20
-377.050048828125
 11
2.896356090786867E-05
 21
-368.0500793457031
  0
LINE
  8
0
  6
CONTINUOUS
 62
     7
 10
0
 20
-368.0500183105469
 11
0
 21
-377.0500183105469
  0
LINE
  8
0
  6
CONTINUOUS
 62
     7
 10
-8.071044921875
 20
-368.0500183105469
 11
8.071044921875
 21
-368.0500183105469
  0
LINE
  8
0
  6
CONTINUOUS
 62
     7
 10
841
 20
-507.5
 11
859
 21
-507.5
  0
LINE
  8
0
  6
CONTINUOUS
 62
     7
 10
841
 20
-507.5
 11
841
 21
-692.5
  0
LINE
  8
0
  6
CONTINUOUS
 62
     7
 10
859
 20
-507.5
 11
859
 21
-692.5
  0
LINE
  8
0
  6
CONTINUOUS
 62
     7
 10
921
 20
-475
 11
921
 21
-725
  0
LINE
  8
0
  6
CONTINUOUS
 62
     7
 10
841
 20
-692.5
 11
859
 21
-692.5
  0
LINE
  8
0
  6
CONTINUOUS
 62
     7
 10
903
 20
-475
 11
903
 21
-725
  0
LINE
  8
0
  6
CONTINUOUS
 62
     7
 10
903
 20
-475
 11
921
 21
-475
  0
LINE
  8
0
  6
CONTINUOUS
 62
     7
 10
903
 20
-725
 11
921
 21
-725
  0
LINE
  8
0
  6
CONTINUOUS
 62
     7
 10
864
 20
-547.5
 11
898
 21
-547.5
  0
LINE
  8
0
  6
CONTINUOUS
 62
     7
 10
864
 20
-652.5
 11
898
 21
-652.5
  0
LINE
  8
0
  6
CONTINUOUS
 62
     7
 10
859
 20
-527.5
 11
903
 21
-527.5
  0
LINE
  8
0
  6
CONTINUOUS
 62
     7
 10
859
 20
-672.5
 11
903
 21
-672.5
  0
LINE
  8
0
  6
CONTINUOUS
 62
     7
 10
859
 20
-595
 11
903
 21
-595
  0
LINE
  8
0
  6
CONTINUOUS
 62
     7
 10
859
 20
-605
 11
903
 21
-605
  0
LINE
  8
0
  6
CONTINUOUS
 62
     7
 10
850
 20
-470.4805908203125
 11
850
 21
-511.133544921875
  0
LINE
  8
0
  6
CONTINUOUS
 62
     7
 10
830.243896484375
 20
-490.3936767578125
 11
869.75146484375
 21
-490.3936767578125
  0
LINE
  8
0
  6
CONTINUOUS
 62
     7
 10
841.9998779296875
 20
-507.3936157226562
 11
842.590087890625
 21
-504.0463256835938
  0
LINE
  8
0
  6
CONTINUOUS
 62
     7
 10
857.40966796875
 20
-504.04638671875
 11
857.9998779296875
 21
-507.3936767578125
  0
LINE
  8
0
  6
CONTINUOUS
 62
     7
 10
844.559814453125
 20
-502.3936767578125
 11
855.440185546875
 21
-502.3936767578125
  0
LINE
  8
0
  6
CONTINUOUS
 62
     7
 10
843.8695068359375
 20
-502.5166015625
 11
849.6595458984375
 21
-500.387939453125
  0
LINE
  8
0
  6
CONTINUOUS
 62
     7
 10
850.340087890625
 20
-500.3878173828125
 11
856.1301879882813
 21
-502.5164489746094
  0
LINE
  8
0
  6
CONTINUOUS
 62
     7
 10
841.0001220703125
 20
92.5
 11
859.0001220703125
 21
92.5
  0
LINE
  8
0
  6
CONTINUOUS
 62
     7
 10
841.0001220703125
 20
92.5
 11
841.0001220703125
 21
24.1767578125
  0
LINE
  8
0
  6
CONTINUOUS
 62
     7
 10
859.0001220703125
 20
92.5
 11
859.0001220703125
 21
24.1767578125
  0
LINE
  8
0
  6
CONTINUOUS
 62
     7
 10
921.0001220703125
 20
125
 11
921.0001220703125
 21
-125
  0
LINE
  8
0
  6
CONTINUOUS
 62
     7
 10
841.0001220703125
 20
-92.5
 11
859.0001220703125
 21
-92.5
  0
LINE
  8
0
  6
CONTINUOUS
 62
     7
 10
903.0001220703125
 20
125
 11
903.0001220703125
 21
-125
  0
LINE
  8
0
  6
CONTINUOUS
 62
     7
 10
903.0001220703125
 20
125
 11
921.0001220703125
 21
125
  0
LINE
  8
0
  6
CONTINUOUS
 62
     7
 10
903.0001220703125
 20
-125
 11
921.0001220703125
 21
-125
  0
LINE
  8
0
  6
CONTINUOUS
 62
     7
 10
864.0001220703125
 20
52.5
 11
898.0001220703125
 21
52.5
  0
LINE
  8
0
  6
CONTINUOUS
 62
     7
 10
864.0001220703125
 20
-52.5
 11
898.0001220703125
 21
-52.5
  0
LINE
  8
0
  6
CONTINUOUS
 62
     7
 10
859.0001220703125
 20
72.5
 11
903.0001220703125
 21
72.5
  0
LINE
  8
0
  6
CONTINUOUS
 62
     7
 10
859.0001220703125
 20
-72.5
 11
903.0001220703125
 21
-72.5
  0
LINE
  8
0
  6
CONTINUOUS
 62
     7
 10
859.0001220703125
 20
5
 11
903.0001220703125
 21
5
  0
LINE
  8
0
  6
CONTINUOUS
 62
     7
 10
859.0001220703125
 20
-5
 11
903.0001220703125
 21
-5
  0
LINE
  8
0
  6
CONTINUOUS
 62
     7
 10
859.0001220703125
 20
14.6427001953125
 11
859.0001220703125
 21
-92.5
  0
LINE
  8
0
  6
CONTINUOUS
 62
     7
 10
841.0001220703125
 20
14.6427001953125
 11
841.0001220703125
 21
-92.5
  0
LINE
  8
0
  6
CONTINUOUS
 62
     7
 10
621.2056274414062
 20
-411.0000305175781
 11
683.2424926757813
 21
-411.0000305175781
  0
LINE
  8
0
  6
CONTINUOUS
 62
     7
 10
653
 20
-380.4122009277344
 11
653
 21
-453.7891540527344
  0
ARC
  8
0
  6
CONTINUOUS
 62
     7
 10
741
 20
-497.0816650390625
 40
5
 50
0
 51
84.99987373011112
  0
ARC
  8
0
  6
CONTINUOUS
 62
     7
 10
741
 20
-702.9183349609375
 40
5.000000000000052
 50
275.0001331000777
 51
0
  0
ARC
  8
0
  6
CONTINUOUS
 62
     7
 10
728
 20
-714.0938720703125
 40
5.000000000000004
 50
95.00015859960162
 51
179.9999640278219
  0
ARC
  8
0
  6
CONTINUOUS
 62
     7
 10
728
 20
-485.9060974121094
 40
5.000000000000038
 50
179.9999776881996
 51
264.9998650786887
  0
ARC
  8
0
  6
CONTINUOUS
 62
     7
 10
743
 20
-487.2184448242187
 40
5.000000000000038
 50
179.9999776881996
 51
264.9998377579323
  0
ARC
  8
0
  6
CONTINUOUS
 62
     7
 10
653
 20
-411.0000305175781
 40
25
 50
306.4238458862582
 51
233.5761318019415
  0
CIRCLE
  8
0
  6
CONTINUOUS
 62
     7
 10
653
 20
-411.0000305175781
 40
15
  0
ARC
  8
0
  6
CONTINUOUS
 62
     7
 10
643.76513671875
 20
-430.0000305175781
 40
1.999999999999985
 50
89.99998201391097
 51
170.0000206677889
  0
ARC
  8
0
  6
CONTINUOUS
 62
     7
 10
662.23486328125
 20
-430.0000305175781
 40
1.999999999999964
 50
9.999994586450628
 51
89.99998201391097
  0
ARC
  8
0
  6
CONTINUOUS
 62
     7
 10
634.5936279296875
 20
-435.944091796875
 40
6.000000000000009
 50
349.8636347103541
 51
53.57615411374161
  0
ARC
  8
0
  6
CONTINUOUS
 62
     7
 10
671.4063720703125
 20
-435.944091796875
 40
6.000000000000024
 50
126.4238645555929
 51
189.9999620293671
  0
ARC
  8
0
  6
CONTINUOUS
 62
     7
 10
545
 20
-442
 40
10
 50
179.999991348578
 51
270.0000006832456
  0
ARC
  8
0
  6
CONTINUOUS
 62
     7
 10
545
 20
-696.2908325195312
 40
9.999999999999964
 50
127.3491502824547
 51
180.0000050089563
  0
ARC
  8
0
  6
CONTINUOUS
 62
     7
 10
576.3798828125
 20
-527.6568603515625
 40
9.999999999999964
 50
232.6508497175452
 51
269.9999974955215
  0
ARC
  8
0
  6
CONTINUOUS
 62
     7
 10
545
 20
-503.7091979980469
 40
10
 50
179.999991348578
 51
232.650859735458
  0
ARC
  8
0
  6
CONTINUOUS
 62
     7
 10
598
 20
-532.6568603515625
 40
5.000000000000004
 50
269.9999974955222
 51
0
  0
ARC
  8
0
  6
CONTINUOUS
 62
     7
 10
576.3798828125
 20
-672.3431396484375
 40
10.00000000000001
 50
90.00000250447847
 51
127.3491502824547
  0
ARC
  8
0
  6
CONTINUOUS
 62
     7
 10
598
 20
-667.3431396484375
 40
5
 50
0
 51
90.00000250447782
  0
CIRCLE
  8
0
  6
CONTINUOUS
 62
     3
 10
681
 20
-600
 40
8.507550239562988
  0
ARC
  8
0
  6
CONTINUOUS
 62
     7
 10
736
 20
-415
 40
31.99999999999999
 50
89.99998201391055
 51
179.9999640278213
  0
ARC
  8
0
  6
CONTINUOUS
 62
     7
 10
741
 20
-420
 40
5.000000000000019
 50
89.99998201391031
 51
179.9999640278213
  0
ARC
  8
0
  6
CONTINUOUS
 62
     7
 10
652.9999389648438
 20
7.11881011739024E-06
 40
12.50000000000001
 50
203.5781631757645
 51
336.4218215699954
  0
ARC
  8
0
  6
CONTINUOUS
 62
     7
 10
741
 20
102.918342590332
 40
5
 50
0
 51
84.99987373011112
  0
ARC
  8
0
  6
CONTINUOUS
 62
     7
 10
741
 20
-102.918327331543
 40
4.999999999999996
 50
275.0001331000777
 51
0
  0
ARC
  8
0
  6
CONTINUOUS
 62
     7
 10
728
 20
-114.093864440918
 40
5.000000000000004
 50
95.00015859960162
 51
179.9999640278213
  0
ARC
  8
0
  6
CONTINUOUS
 62
     7
 10
728
 20
114.093879699707
 40
5.000000000000038
 50
179.9999776881996
 51
264.9998650786887
  0
ARC
  8
0
  6
CONTINUOUS
 62
     7
 10
708
 20
8.666379471833352E-06
 40
29.99999999999999
 50
304.8498834335421
 51
327.7690578916672
  0
ARC
  8
0
  6
CONTINUOUS
 62
     7
 10
728
 20
28.72284889221191
 40
5.000000000000038
 50
179.9999776881997
 51
235.1501079150353
  0
ARC
  8
0
  6
CONTINUOUS
 62
     7
 10
728
 20
-28.72276878356934
 40
5.000000000000026
 50
124.8500796877957
 51
179.9999640278213
  0
ARC
  8
0
  6
CONTINUOUS
 62
     7
 10
653
 20
7.118811481632292E-06
 40
20.13370323181152
 50
14.37929160866249
 51
165.620708277652
  0
ARC
  8
0
  6
CONTINUOUS
 62
     7
 10
653
 20
7.118811481632292E-06
 40
20.13370323181157
 50
194.379291722348
 51
345.6207083913375
  0
ARC
  8
0
  6
CONTINUOUS
 62
     7
 10
652.9999389648438
 20
7.11881011739024E-06
 40
12.5
 50
23.57817843000461
 51
156.4218368242355
  0
ARC
  8
0
  6
CONTINUOUS
 62
     7
 10
632.9999389648437
 20
6.556057996931486E-06
 40
5
 50
89.99998201391031
 51
270.0000006832456
  0
ARC
  8
0
  6
CONTINUOUS
 62
     7
 10
672.9999389648438
 20
7.681562237848993E-06
 40
5
 50
270.0000179860897
 51
89.99998201391031
  0
ARC
  8
0
  6
CONTINUOUS
 62
     7
 10
576.3798828125
 20
72.34314727783203
 40
9.999999999999998
 50
232.6508497175454
 51
269.9999974955215
  0
ARC
  8
0
  6
CONTINUOUS
 62
     7
 10
545
 20
96.29084014892578
 40
10
 50
179.999991348578
 51
232.6508597354581
  0
ARC
  8
0
  6
CONTINUOUS
 62
     7
 10
598
 20
67.34314727783203
 40
4.999999999999997
 50
269.9999974955222
 51
0
  0
ARC
  8
0
  6
CONTINUOUS
 62
     7
 10
576.3799438476562
 20
-72.34313201904297
 40
10
 50
90.00000250447847
 51
127.3491502824545
  0
ARC
  8
0
  6
CONTINUOUS
 62
     7
 10
598
 20
-67.34313201904297
 40
5
 50
0
 51
90.00000250447782
  0
ARC
  8
0
  6
CONTINUOUS
 62
     7
 10
545
 20
-96.29082489013672
 40
10.00000000000001
 50
127.3491502824545
 51
180.0000050089563
  0
ARC
  8
0
  6
CONTINUOUS
 62
     7
 10
495
 20
2.673071548997541E-06
 40
10
 50
270.0000179860893
 51
89.99998201391064
  0
CIRCLE
  8
0
  6
CONTINUOUS
 62
     7
 10
575
 20
4.92407934871153E-06
 40
13.5
  0
ARC
  8
0
  6
CONTINUOUS
 62
     7
 10
720
 20
9.004030289361253E-06
 40
16
 50
89.99998201391055
 51
270.0000006832454
  0
ARC
  8
0
  6
CONTINUOUS
 62
     7
 10
708
 20
8.666379471833352E-06
 40
29.99999999999996
 50
32.23094210833278
 51
55.15011656645787
  0
CIRCLE
  8
0
  6
CONTINUOUS
 62
     7
 10
0
 20
-600
 40
200
  0
ARC
  8
0
  6
CONTINUOUS
 62
     7
 10
0
 20
-600
 40
37.50000000000002
 50
105.4660233138666
 51
74.53398488281326
  0
ARC
  8
0
  6
CONTINUOUS
 62
     3
 10
0
 20
-600
 40
175
 50
333.6566024090428
 51
341.8562240170756
  0
CIRCLE
  8
0
  6
CONTINUOUS
 62
     7
 10
161.678955078125
 20
-666.9696044921875
 40
9.5
  0
ARC
  8
0
  6
CONTINUOUS
 62
     3
 10
0
 20
-600
 40
175
 50
18.6566224443021
 51
26.85623892969301
  0
CIRCLE
  8
0
  6
CONTINUOUS
 62
     7
 10
161.6788940429688
 20
-533.0303955078125
 40
9.5
  0
ARC
  8
0
  6
CONTINUOUS
 62
     3
 10
0
 20
-600
 40
175
 50
63.65661857389931
 51
71.85624018193211
  0
CIRCLE
  8
0
  6
CONTINUOUS
 62
     7
 10
66.9696044921875
 20
-438.3211059570313
 40
9.5
  0
ARC
  8
0
  6
CONTINUOUS
 62
     3
 10
0
 20
-600
 40
175
 50
108.6566164110438
 51
116.8562311888874
  0
CIRCLE
  8
0
  6
CONTINUOUS
 62
     7
 10
-66.9696044921875
 20
-438.3211059570313
 40
9.5
  0
ARC
  8
0
  6
CONTINUOUS
 62
     3
 10
0
 20
-600
 40
175
 50
153.6566074179991
 51
161.8562221958428
  0
CIRCLE
  8
0
  6
CONTINUOUS
 62
     7
 10
-161.678955078125
 20
-533.0303955078125
 40
9.5
  0
ARC
  8
0
  6
CONTINUOUS
 62
     3
 10
0
 20
-600
 40
175
 50
198.6566157277985
 51
206.8562305056421
  0
CIRCLE
  8
0
  6
CONTINUOUS
 62
     7
 10
-161.678955078125
 20
-666.9696044921875
 40
9.5
  0
ARC
  8
0
  6
CONTINUOUS
 62
     3
 10
0
 20
-600
 40
175
 50
243.6566067347538
 51
251.8562283427866
  0
CIRCLE
  8
0
  6
CONTINUOUS
 62
     7
 10
-66.9696044921875
 20
-761.678955078125
 40
9.5
  0
ARC
  8
0
  6
CONTINUOUS
 62
     3
 10
0
 20
-600
 40
175.0000000000001
 50
288.6566045718983
 51
296.8562261799311
  0
CIRCLE
  8
0
  6
CONTINUOUS
 62
     7
 10
66.9696044921875
 20
-761.678955078125
 40
9.5
  0
CIRCLE
  8
0
  6
CONTINUOUS
 62
     7
 10
0
 20
-600
 40
75
  0
CIRCLE
  8
0
  6
CONTINUOUS
 62
     7
 10
0
 20
-600
 40
110
  0
ARC
  8
0
  6
CONTINUOUS
 62
     3
 10
0
 20
-600
 40
95
 50
355.1693713345101
 51
4.830628665489899
  0
ARC
  8
0
  6
CONTINUOUS
 62
     3
 10
0
 20
-600
 40
94.99999999999997
 50
55.16937086972809
 51
64.83062563938695
  0
ARC
  8
0
  6
CONTINUOUS
 62
     3
 10
0
 20
-600
 40
95
 50
115.169365709191
 51
124.8306273090391
  0
ARC
  8
0
  6
CONTINUOUS
 62
     3
 10
0
 20
-600
 40
94.99999999999999
 50
175.1693673788432
 51
184.8306289786912
  0
ARC
  8
0
  6
CONTINUOUS
 62
     3
 10
0
 20
-600
 40
95.00000000000001
 50
235.1693726909609
 51
244.8306342908089
  0
ARC
  8
0
  6
CONTINUOUS
 62
     3
 10
0
 20
-600
 40
94.99999999999997
 50
295.1693743606131
 51
304.8306291302719
  0
CIRCLE
  8
0
  6
CONTINUOUS
 62
     3
 10
0
 20
-600
 40
8
  0
CIRCLE
  8
0
  6
CONTINUOUS
 62
     7
 10
0
 20
-600
 40
7
  0
ARC
  8
0
  6
CONTINUOUS
 62
     7
 10
0
 20
-600
 40
150
 50
13.00753690632465
 51
186.9924658132702
  0
ARC
  8
0
  6
CONTINUOUS
 62
     7
 10
0
 20
-600
 40
142
 50
16.87726083531811
 51
183.1227401767295
  0
CIRCLE
  8
0
  6
CONTINUOUS
 62
     7
 10
-130.4869995117188
 20
-623.0083618164062
 40
19
  0
CIRCLE
  8
0
  6
CONTINUOUS
 62
     7
 10
130.4869995117188
 20
-576.9915771484375
 40
19
  0
ARC
  8
0
  6
CONTINUOUS
 62
     7
 10
0
 20
-600
 40
142
 50
196.8772558263618
 51
3.122739223197954
  0
ARC
  8
0
  6
CONTINUOUS
 62
     7
 10
0
 20
-600
 40
150
 50
193.0075438501993
 51
6.992462938748019
  0
ARC
  8
0
  6
CONTINUOUS
 62
     7
 10
898
 20
-657.5
 40
5
 50
0
 51
90.00000250447782
  0
ARC
  8
0
  6
CONTINUOUS
 62
     7
 10
898
 20
-542.5
 40
5.000000000000004
 50
269.9999974955222
 51
0
  0
ARC
  8
0
  6
CONTINUOUS
 62
     7
 10
864
 20
-542.5
 40
4.999999999999943
 50
179.9999913485786
 51
270.0000006832456
  0
ARC
  8
0
  6
CONTINUOUS
 62
     7
 10
864
 20
-657.5
 40
5.000000000000004
 50
90.00000250447782
 51
180.0000050089569
  0
ARC
  8
0
  6
CONTINUOUS
 62
     7
 10
850
 20
-490.3936767578125
 40
16.29999923706053
 50
306.0864140506921
 51
233.9135431469402
  0
CIRCLE
  8
0
  6
CONTINUOUS
 62
     7
 10
850
 20
-490.3936767578125
 40
10
  0
ARC
  8
0
  6
CONTINUOUS
 62
     7
 10
844.559814453125
 20
-504.3936767578125
 40
1.999999999999985
 50
89.99998201391097
 51
170.0000206677889
  0
ARC
  8
0
  6
CONTINUOUS
 62
     7
 10
855.440185546875
 20
-504.3936767578125
 40
1.999999999999974
 50
10.00000397796106
 51
89.99998201391097
  0
ARC
  8
0
  6
CONTINUOUS
 62
     7
 10
838.043212890625
 20
-506.7987060546875
 40
4.000000000000021
 50
351.4459282863106
 51
53.91357911911838
  0
ARC
  8
0
  6
CONTINUOUS
 62
     7
 10
861.956787109375
 20
-506.7987060546875
 40
3.999999999999989
 50
126.0864395502154
 51
188.5540383028321
  0
ARC
  8
0
  6
CONTINUOUS
 62
     7
 10
898.0001220703125
 20
-57.5
 40
5
 50
0
 51
90.00000250447782
  0
ARC
  8
0
  6
CONTINUOUS
 62
     7
 10
898.0001220703125
 20
57.5
 40
4.999999999999997
 50
269.9999974955222
 51
0
  0
ARC
  8
0
  6
CONTINUOUS
 62
     7
 10
864.0001220703125
 20
57.5
 40
4.999999999999943
 50
179.999991348578
 51
270.0000006832456
  0
ARC
  8
0
  6
CONTINUOUS
 62
     7
 10
864.0001220703125
 20
-57.5
 40
4.999999999999997
 50
90.00000250447782
 51
180.0000050089563
  0
POLYLINE
  8
0
  6
CONTINUOUS
 62
     7
 66
     1
 10
0
 20
0
  0
VERTEX
  8
0
  6
CONTINUOUS
 62
     7
 10
502.0004784336099
 20
-479.2489833012394
 42
-0.1887441098573198
  0
VERTEX
  8
0
  6
CONTINUOUS
 62
     7
 10
515.0519338650771
 20
-500.6487929371884
 42
-0.06038122768987165
  0
VERTEX
  8
0
  6
CONTINUOUS
 62
     7
 10
515.6954081485241
 20
-526.2089097592982
 42
-0.0004319919830163191
  0
VERTEX
  8
0
  6
CONTINUOUS
 62
     7
 10
514.1862672013094
 20
-551.8004435160296
 42
0.00839740202409639
  0
VERTEX
  8
0
  6
CONTINUOUS
 62
     7
 10
513.076164289047
 20
-577.4113469301983
 42
0.01779797832181475
  0
VERTEX
  8
0
  6
CONTINUOUS
 62
     7
 10
513.3110760864065
 20
-603.0406332265914
 42
0.01884735223700291
  0
VERTEX
  8
0
  6
CONTINUOUS
 62
     7
 10
515.6108352139506
 20
-628.5670279755094
 42
-0.02521594252284005
  0
VERTEX
  8
0
  6
CONTINUOUS
 62
     7
 10
517.6467064733705
 20
-654.110463668645
 42
-0.07191624060158859
  0
VERTEX
  8
0
  6
CONTINUOUS
 62
     7
 10
514.7201544938443
 20
-679.4892852933793
 42
-0.1364477369531285
  0
VERTEX
  8
0
  6
CONTINUOUS
 62
     7
 10
502.0005696676433
 20
-701.3925305069559
 42
0
  0
SEQEND
  8
0
  0
POLYLINE
  8
0
  6
CONTINUOUS
 62
     7
 66
     1
 10
0
 20
0
  0
VERTEX
  8
0
  6
CONTINUOUS
 62
     7
 10
502.0004434036538
 20
97.36923273337456
 42
-0.2005712492639326
  0
VERTEX
  8
0
  6
CONTINUOUS
 62
     7
 10
515.9153373200655
 20
80.30383411428011
 42
-0.08979212965490105
  0
VERTEX
  8
0
  6
CONTINUOUS
 62
     7
 10
516.793218419253
 20
57.85378159874256
 42
0.01006587585377241
  0
VERTEX
  8
0
  6
CONTINUOUS
 62
     7
 10
514.5455579002956
 20
35.3720195907124
 42
0.01797347525479605
  0
VERTEX
  8
0
  6
CONTINUOUS
 62
     7
 10
513.7961072957515
 20
12.79353286360645
 42
0.01311212071651885
  0
VERTEX
  8
0
  6
CONTINUOUS
 62
     7
 10
514.4686463976765
 20
-9.78991132807848
 42
0.0001805177193028881
  0
VERTEX
  8
0
  6
CONTINUOUS
 62
     7
 10
515.8135936282858
 20
-32.34515370508434
 42
-0.01242988131275579
  0
VERTEX
  8
0
  6
CONTINUOUS
 62
     7
 10
516.5531327652835
 20
-54.92570424224014
 42
-0.05260472166957844
  0
VERTEX
  8
0
  6
CONTINUOUS
 62
     7
 10
514.9521139035668
 20
-77.41982292323237
 42
-0.2794031917847955
  0
VERTEX
  8
0
  6
CONTINUOUS
 62
     7
 10
502.0011119470325
 20
-94.56841175943761
 42
0
  0
SEQEND
  8
0
  0
POLYLINE
  8
0
  6
CONTINUOUS
 62
     7
 66
     1
 10
0
 20
0
  0
VERTEX
  8
0
  6
CONTINUOUS
 62
     7
 10
842.2620241287366
 20
14.45836371299851
 42
0.04188691999822323
  0
VERTEX
  8
0
  6
CONTINUOUS
 62
     7
 10
842.7021550295361
 20
13.23038444029916
 42
0.04165559636284366
  0
VERTEX
  8
0
  6
CONTINUOUS
 62
     7
 10
843.340399587388
 20
12.09245530771916
 42
0.04136485841423382
  0
VERTEX
  8
0
  6
CONTINUOUS
 62
     7
 10
844.1578540521263
 20
11.07559455738324
 42
0.04106105922596404
  0
VERTEX
  8
0
  6
CONTINUOUS
 62
     7
 10
845.1311623431664
 20
10.20645048633457
 42
0.04077367481030538
  0
VERTEX
  8
0
  6
CONTINUOUS
 62
     7
 10
846.2332344298038
 20
9.507262490735041
 42
0.04052906794770161
  0
VERTEX
  8
0
  6
CONTINUOUS
 62
     7
 10
847.4340948929995
 20
8.995507012977431
 42
0.04034774979670043
  0
VERTEX
  8
0
  6
CONTINUOUS
 62
     7
 10
848.7016726941401
 20
8.683690488940222
 42
0.04023569854255117
  0
VERTEX
  8
0
  6
CONTINUOUS
 62
     7
 10
850.002300080128
 20
8.57922392446773
 42
0.0402288495691741
  0
VERTEX
  8
0
  6
CONTINUOUS
 62
     7
 10
851.3026459537467
 20
8.684351272306213
 42
0.04031599865619814
  0
VERTEX
  8
0
  6
CONTINUOUS
 62
     7
 10
852.5690777976534
 20
8.996483866188296
 42
0.04051172969268017
  0
VERTEX
  8
0
  6
CONTINUOUS
 62
     7
 10
853.7692338194864
 20
9.508431553141465
 42
0.04075994656518195
  0
VERTEX
  8
0
  6
CONTINUOUS
 62
     7
 10
854.8707232245562
 20
10.20769049473372
 42
0.04105999637890262
  0
VERTEX
  8
0
  6
CONTINUOUS
 62
     7
 10
855.8437728941763
 20
11.07705076975452
 42
0.04137753781267676
  0
VERTEX
  8
0
  6
CONTINUOUS
 62
     7
 10
856.6611836142157
 20
12.09443775497242
 42
0.04167518698806916
  0
VERTEX
  8
0
  6
CONTINUOUS
 62
     7
 10
857.2993284334852
 20
13.23310479088892
 42
0.04191607587226102
  0
VERTEX
  8
0
  6
CONTINUOUS
 62
     7
 10
857.7392180990588
 20
14.46211539099123
 42
0
  0
SEQEND
  8
0
  0
POLYLINE
  8
0
  6
CONTINUOUS
 62
     7
 66
     1
 10
0
 20
0
  0
VERTEX
  8
0
  6
CONTINUOUS
 62
     7
 10
838.4617919921875
 20
15.2122802734375
 42
-0.01902127742780586
  0
VERTEX
  8
0
  6
CONTINUOUS
 62
     7
 10
837.7198969010025
 20
15.41648953270345
 42
-0.01048042867662849
  0
VERTEX
  8
0
  6
CONTINUOUS
 62
     7
 10
836.9912366009888
 20
15.66421506323475
 42
-0.005820267893497315
  0
VERTEX
  8
0
  6
CONTINUOUS
 62
     7
 10
836.2696277857776
 20
15.93284444574823
 42
-0.02971624410142502
  0
VERTEX
  8
0
  6
CONTINUOUS
 62
     7
 10
835.5687737889998
 20
16.2499475181881
 42
-0.05880793834996142
  0
VERTEX
  8
0
  6
CONTINUOUS
 62
     7
 10
834.9356703052058
 20
16.68428796364368
 42
-0.05380353320164064
  0
VERTEX
  8
0
  6
CONTINUOUS
 62
     7
 10
834.4243060235982
 20
17.25755764482397
 42
-0.04811757053538199
  0
VERTEX
  8
0
  6
CONTINUOUS
 62
     7
 10
834.0313640784041
 20
17.91886391231326
 42
-0.05488022536661863
  0
VERTEX
  8
0
  6
CONTINUOUS
 62
     7
 10
833.7858204926799
 20
18.64650814444916
 42
-0.05416974907905883
  0
VERTEX
  8
0
  6
CONTINUOUS
 62
     7
 10
833.7025146484375
 20
19.40966796875
 42
-0.05420046575542262
  0
VERTEX
  8
0
  6
CONTINUOUS
 62
     7
 10
833.7859154864603
 20
20.17325936290534
 42
-0.05489311719452956
  0
VERTEX
  8
0
  6
CONTINUOUS
 62
     7
 10
834.0316170271781
 20
20.90101523791584
 42
-0.04804079532566265
  0
VERTEX
  8
0
  6
CONTINUOUS
 62
     7
 10
834.4239445815209
 20
21.56128078769066
 42
-0.05381817564897318
  0
VERTEX
  8
0
  6
CONTINUOUS
 62
     7
 10
834.9355058409665
 20
22.13490197832659
 42
-0.05878438890452797
  0
VERTEX
  8
0
  6
CONTINUOUS
 62
     7
 10
835.5686079000146
 20
22.56934159828583
 42
-0.02971468707350545
  0
VERTEX
  8
0
  6
CONTINUOUS
 62
     7
 10
836.269106158709
 20
22.88640223913619
 42
-0.005845294529777067
  0
VERTEX
  8
0
  6
CONTINUOUS
 62
     7
 10
836.9904838592172
 20
23.15500938077323
 42
-0.01048951448779721
  0
VERTEX
  8
0
  6
CONTINUOUS
 62
     7
 10
837.7194483464834
 20
23.40284654627964
 42
-0.01900922735216867
  0
VERTEX
  8
0
  6
CONTINUOUS
 62
     7
 10
838.4613037109375
 20
23.6070556640625
 42
0
  0
SEQEND
  8
0
  0
POLYLINE
  8
0
  6
CONTINUOUS
 62
     7
 66
     1
 10
0
 20
0
  0
VERTEX
  8
0
  6
CONTINUOUS
 62
     7
 10
861.5519307139386
 20
23.60292460010464
 42
0.02482962367351836
  0
VERTEX
  8
0
  6
CONTINUOUS
 62
     7
 10
860.14352736325
 20
23.96503786028457
 42
0.01364821428352792
  0
VERTEX
  8
0
  6
CONTINUOUS
 62
     7
 10
858.7116701020129
 20
24.22234389100641
 42
0.009382640374567142
  0
VERTEX
  8
0
  6
CONTINUOUS
 62
     7
 10
857.2693717913671
 20
24.41468219917697
 42
0.007275298498336601
  0
VERTEX
  8
0
  6
CONTINUOUS
 62
     7
 10
855.8209650343815
 20
24.55939785041992
 42
0.006095589297893222
  0
VERTEX
  8
0
  6
CONTINUOUS
 62
     7
 10
854.3689583005963
 20
24.66558455342325
 42
0.005403367898785921
  0
VERTEX
  8
0
  6
CONTINUOUS
 62
     7
 10
852.9148771612764
 20
24.73848798489091
 42
0.005011263968838605
  0
VERTEX
  8
0
  6
CONTINUOUS
 62
     7
 10
851.4594783002688
 20
24.78118285408356
 42
0.004832105010580074
  0
VERTEX
  8
0
  6
CONTINUOUS
 62
     7
 10
850.0035412654878
 20
24.79528800823204
 42
0.004831359794020768
  0
VERTEX
  8
0
  6
CONTINUOUS
 62
     7
 10
848.5477095257378
 20
24.78131755489432
 42
0.005006465702551576
  0
VERTEX
  8
0
  6
CONTINUOUS
 62
     7
 10
847.0933012449171
 20
24.73880137119654
 42
0.005400851720748026
  0
VERTEX
  8
0
  6
CONTINUOUS
 62
     7
 10
845.6391325893353
 20
24.66606485279255
 42
0.006091088302560567
  0
VERTEX
  8
0
  6
CONTINUOUS
 62
     7
 10
844.1870468681907
 20
24.5600640736001
 42
0.007269759850331765
  0
VERTEX
  8
0
  6
CONTINUOUS
 62
     7
 10
842.7381442214828
 20
24.41552017332608
 42
0.009378629605910854
  0
VERTEX
  8
0
  6
CONTINUOUS
 62
     7
 10
841.294417206495
 20
24.22324151929955
 42
0.01364203032277494
  0
VERTEX
  8
0
  6
CONTINUOUS
 62
     7
 10
839.8608912706284
 20
23.96591668012872
 42
0.02480801657023289
  0
VERTEX
  8
0
  6
CONTINUOUS
 62
     7
 10
838.4509830083251
 20
23.60377679929943
 42
0
  0
SEQEND
  8
0
  0
POLYLINE
  8
0
  6
CONTINUOUS
 62
     7
 66
     1
 10
0
 20
0
  0
VERTEX
  8
0
  6
CONTINUOUS
 62
     7
 10
861.5384521484375
 20
15.2122802734375
 42
0.01902139214773188
  0
VERTEX
  8
0
  6
CONTINUOUS
 62
     7
 10
862.280347242682
 20
15.41648951323224
 42
0.01048037918431587
  0
VERTEX
  8
0
  6
CONTINUOUS
 62
     7
 10
863.0090075169252
 20
15.66421512101084
 42
0.005820317247131003
  0
VERTEX
  8
0
  6
CONTINUOUS
 62
     7
 10
863.7306163714212
 20
15.93284440133355
 42
0.02971626802199577
  0
VERTEX
  8
0
  6
CONTINUOUS
 62
     7
 10
864.4314703273606
 20
16.24994756203865
 42
0.05880781466683131
  0
VERTEX
  8
0
  6
CONTINUOUS
 62
     7
 10
865.0645738475192
 20
16.68428794885793
 42
0.05380350638862136
  0
VERTEX
  8
0
  6
CONTINUOUS
 62
     7
 10
865.5759381088486
 20
17.25755764946111
 42
0.04811762315552016
  0
VERTEX
  8
0
  6
CONTINUOUS
 62
     7
 10
865.9688800406419
 20
17.91886392098504
 42
0.05488030832176321
  0
VERTEX
  8
0
  6
CONTINUOUS
 62
     7
 10
866.2144236298792
 20
18.64650813192118
 42
0.05416978384129755
  0
VERTEX
  8
0
  6
CONTINUOUS
 62
     7
 10
866.2977294921875
 20
19.40966796875
 42
0.05420043167752045
  0
VERTEX
  8
0
  6
CONTINUOUS
 62
     7
 10
866.2143286693901
 20
20.17325936353885
 42
0.05489303209797549
  0
VERTEX
  8
0
  6
CONTINUOUS
 62
     7
 10
865.9686271401526
 20
20.90101523574097
 42
0.04804074265051849
  0
VERTEX
  8
0
  6
CONTINUOUS
 62
     7
 10
865.5762995771225
 20
21.56128077853881
 42
0.05381820211930942
  0
VERTEX
  8
0
  6
CONTINUOUS
 62
     7
 10
865.0647383024749
 20
22.13490195023759
 42
0.05878451272087427
  0
VERTEX
  8
0
  6
CONTINUOUS
 62
     7
 10
864.4316362918192
 20
22.56934162762735
 42
0.02971466440147337
  0
VERTEX
  8
0
  6
CONTINUOUS
 62
     7
 10
863.7311379873817
 20
22.88640218605602
 42
0.005845245646370979
  0
VERTEX
  8
0
  6
CONTINUOUS
 62
     7
 10
863.0097603235548
 20
23.15500943154399
 42
0.01048956385247142
  0
VERTEX
  8
0
  6
CONTINUOUS
 62
     7
 10
862.2807958052015
 20
23.40284652235847
 42
0.01900911295306773
  0
VERTEX
  8
0
  6
CONTINUOUS
 62
     7
 10
861.5389404296875
 20
23.6070556640625
 42
0
  0
SEQEND
  8
0
  0
POLYLINE
  8
0
  6
CONTINUOUS
 62
     7
 66
     1
 10
0
 20
0
  0
VERTEX
  8
0
  6
CONTINUOUS
 62
     7
 10
836.8499755859375
 20
16.3076171875
 42
0.1945653528070562
  0
VERTEX
  8
0
  6
CONTINUOUS
 62
     7
 10
839.7921524517126
 20
14.86811642672308
 42
0.02554500399366418
  0
VERTEX
  8
0
  6
CONTINUOUS
 62
     7
 10
843.1707927176276
 20
14.35625396790811
 42
0.01446898894456979
  0
VERTEX
  8
0
  6
CONTINUOUS
 62
     7
 10
846.5802319820749
 20
14.10274231822772
 42
0.01163094393798603
  0
VERTEX
  8
0
  6
CONTINUOUS
 62
     7
 10
850.0001220703125
 20
14.024169921875
 42
0.0116246164808123
  0
VERTEX
  8
0
  6
CONTINUOUS
 62
     7
 10
853.4182673959203
 20
14.10266000465488
 42
0.01447181515337031
  0
VERTEX
  8
0
  6
CONTINUOUS
 62
     7
 10
856.8288118936365
 20
14.35618553645803
 42
0.02555956951370046
  0
VERTEX
  8
0
  6
CONTINUOUS
 62
     7
 10
860.2091819007003
 20
14.86834889348697
 42
0.1952798392446952
  0
VERTEX
  8
0
  6
CONTINUOUS
 62
     7
 10
863.1502625019832
 20
16.30980809367065
 42
0.1938930530117741
  0
VERTEX
  8
0
  6
CONTINUOUS
 62
     7
 10
860.2059421247125
 20
17.74757744467296
 42
0.02553074122141628
  0
VERTEX
  8
0
  6
CONTINUOUS
 62
     7
 10
856.8272624854983
 20
18.25921134799347
 42
0.01446570066526931
  0
VERTEX
  8
0
  6
CONTINUOUS
 62
     7
 10
853.4178121960877
 20
18.51259491064082
 42
0.0116228806685832
  0
VERTEX
  8
0
  6
CONTINUOUS
 62
     7
 10
850.0001220703125
 20
18.591064453125
 42
0.01162461648081124
  0
VERTEX
  8
0
  6
CONTINUOUS
 62
     7
 10
846.5819767447047
 20
18.51257437034511
 42
0.01447181515336793
  0
VERTEX
  8
0
  6
CONTINUOUS
 62
     7
 10
843.1714322469886
 20
18.25904883854196
 42
0.02555956951369696
  0
VERTEX
  8
0
  6
CONTINUOUS
 62
     7
 10
839.7910622399247
 20
17.74688548151302
 42
0.1952798392446554
  0
VERTEX
  8
0
  6
CONTINUOUS
 62
     7
 10
836.8499816386418
 20
16.30542628132931
 42
0
  0
SEQEND
  8
0
  0
TEXT
  8
0
  6
CONTINUOUS
 62
     7
 10
-190.7143211364746
 20
-15
 40
30
 41
0.9993763253157837
  1
ERKV-NCE-3700
  0
ENDSEC
  0
EOF
