  0
SECTION
  2
HEADER
  0
ENDSEC
  0
SECTION
  2
TABLES
  0
TABLE
  2
LTYPE
 70
    22
  0
LTYPE
  2
CONTINUOUS
 70
    64
  3
Solid line
 72
    65
 73
     0
 40
0.000000
  0
LTYPE
  2
DASHED
 70
    64
  3
__ __ __ __ __ __ __ __ __ __ __ __ __ __ __
 72
    65
 73
     2
 40
3.500000
 49
2.000000
 49
-1.500000
  0
LTYPE
  2
CENTER
 70
    64
  3
____ _ ____ _ ____ _ ____ _ ____ _ ____ _ ____
 72
    65
 73
     4
 40
17.500000
 49
13.000000
 49
-1.500000
 49
1.500000
 49
-1.500000
  0
LTYPE
  2
PHANTOM
 70
    64
  3
_____ _ _ _____ _ _ _____ _ _ _____ _ _ ____  
 72
    65
 73
     6
 40
15.500000
 49
8.000000
 49
-1.500000
 49
1.500000
 49
-1.500000
 49
1.500000
 49
-1.500000
  0
LTYPE
  2
DOT
 70
    64
  3
. . . . . . . . . . . . . . . . . . . . . . . .
 72
    65
 73
     2
 40
0.25
 49
0.0
 49
-0.25
  0
ENDTAB
  0
TABLE
  2
LAYER
 70
     1
  0
LAYER
  2
0
 70
     0
 62
     7
  6
CONTINUOUS
  0
ENDTAB
  0
TABLE
  2
STYLE
 70
     1
  0
STYLE
  2
STANDARD
 70
     0
 40
0.000000
 41
1.000000
 50
0.000000
 71
     0
 42
0.200000
  3
txt
  0
ENDTAB
  0
TABLE
  2
VIEW
 70
     0
  0
ENDTAB
  0
ENDSEC
  0
SECTION
  2
BLOCKS
  0
ENDSEC
  0
SECTION
  2
ENTITIES
  0
LINE
  8
0
  6
CONTINUOUS
 62
     3
 10
380
 20
-550
 11
933.9761352539062
 21
-550
  0
LINE
  8
0
  6
CONTINUOUS
 62
     7
 10
703
 20
-402
 11
703
 21
-698
  0
LINE
  8
0
  6
CONTINUOUS
 62
     7
 10
791
 20
-457.5
 11
791
 21
-642.5
  0
LINE
  8
0
  6
CONTINUOUS
 62
     7
 10
703
 20
-698
 11
723
 21
-698
  0
LINE
  8
0
  6
CONTINUOUS
 62
     7
 10
703
 20
-402
 11
738
 21
-402
  0
LINE
  8
0
  6
CONTINUOUS
 62
     7
 10
723
 20
-402
 11
723
 21
-698
  0
LINE
  8
0
  6
CONTINUOUS
 62
     7
 10
746
 20
-447.0816650390625
 11
746
 21
-652.9183349609375
  0
LINE
  8
0
  6
CONTINUOUS
 62
     7
 10
776
 20
-457.5
 11
776
 21
-642.5
  0
LINE
  8
0
  6
CONTINUOUS
 62
     7
 10
727.5641479492187
 20
-659.1128540039063
 11
741.4357299804687
 21
-657.8992309570313
  0
LINE
  8
0
  6
CONTINUOUS
 62
     7
 10
727.564208984375
 20
-440.8869934082031
 11
742.564208984375
 21
-442.1993103027344
  0
LINE
  8
0
  6
CONTINUOUS
 62
     7
 10
776
 20
-642.5
 11
791
 21
-642.5
  0
LINE
  8
0
  6
CONTINUOUS
 62
     7
 10
776
 20
-457.5
 11
791
 21
-457.5
  0
LINE
  8
0
  6
CONTINUOUS
 62
     7
 10
738
 20
-402
 11
738
 21
-437.2184448242187
  0
LINE
  8
0
  6
CONTINUOUS
 62
     7
 10
746
 20
-506.3757934570312
 11
776
 21
-506.3757934570312
  0
LINE
  8
0
  6
CONTINUOUS
 62
     7
 10
746.0000610351562
 20
-468.7059326171875
 11
776
 21
-483.345458984375
  0
LINE
  8
0
  6
CONTINUOUS
 62
     7
 10
746
 20
-593.6242065429688
 11
776
 21
-593.6242065429688
  0
LINE
  8
0
  6
CONTINUOUS
 62
     7
 10
745.9999389648438
 20
-631.2940063476563
 11
775.9999389648437
 21
-616.654541015625
  0
LINE
  8
0
  6
CONTINUOUS
 62
     7
 10
795
 20
-645
 11
837
 21
-645
  0
LINE
  8
0
  6
CONTINUOUS
 62
     7
 10
795
 20
-455
 11
837
 21
-455
  0
LINE
  8
0
  6
CONTINUOUS
 62
     7
 10
795.0000610351562
 20
-455.0001220703125
 11
791.0000610351563
 21
-459.0000915527344
  0
LINE
  8
0
  6
CONTINUOUS
 62
     7
 10
791
 20
-640.9999389648437
 11
795
 21
-644.9999389648438
  0
LINE
  8
0
  6
CONTINUOUS
 62
     7
 10
837.0000610351563
 20
-645.0001220703125
 11
841.0000610351563
 21
-641.0001220703125
  0
LINE
  8
0
  6
CONTINUOUS
 62
     7
 10
840.9999389648437
 20
-459
 11
836.9999389648437
 21
-455
  0
LINE
  8
0
  6
CONTINUOUS
 62
     7
 10
795
 20
-512.3461303710937
 11
837
 21
-512.3461303710937
  0
LINE
  8
0
  6
CONTINUOUS
 62
     7
 10
795
 20
-523.7877197265625
 11
837
 21
-523.7877197265625
  0
LINE
  8
0
  6
CONTINUOUS
 62
     7
 10
795
 20
-533.53125
 11
837
 21
-533.53125
  0
LINE
  8
0
  6
CONTINUOUS
 62
     7
 10
795
 20
-545.00048828125
 11
837
 21
-545.00048828125
  0
LINE
  8
0
  6
CONTINUOUS
 62
     7
 10
795
 20
-555.0001220703125
 11
837
 21
-555.0001220703125
  0
LINE
  8
0
  6
CONTINUOUS
 62
     7
 10
795
 20
-566.469482421875
 11
837
 21
-566.469482421875
  0
LINE
  8
0
  6
CONTINUOUS
 62
     7
 10
795
 20
-576.2124633789062
 11
837
 21
-576.2124633789062
  0
LINE
  8
0
  6
CONTINUOUS
 62
     7
 10
795
 20
-587.6536865234375
 11
837
 21
-587.6536865234375
  0
LINE
  8
0
  6
CONTINUOUS
 62
     7
 10
795
 20
-606.7067260742188
 11
837
 21
-606.7067260742188
  0
LINE
  8
0
  6
CONTINUOUS
 62
     7
 10
795
 20
-615.9718017578125
 11
837
 21
-615.9718017578125
  0
LINE
  8
0
  6
CONTINUOUS
 62
     7
 10
795
 20
-622.793212890625
 11
837
 21
-622.793212890625
  0
LINE
  8
0
  6
CONTINUOUS
 62
     7
 10
795
 20
-629.658447265625
 11
837
 21
-629.658447265625
  0
LINE
  8
0
  6
CONTINUOUS
 62
     7
 10
795
 20
-634.65869140625
 11
837
 21
-634.65869140625
  0
LINE
  8
0
  6
CONTINUOUS
 62
     7
 10
795
 20
-639.26123046875
 11
837
 21
-639.26123046875
  0
LINE
  8
0
  6
CONTINUOUS
 62
     7
 10
630
 20
-400
 11
698
 21
-400
  0
LINE
  8
0
  6
CONTINUOUS
 62
     7
 10
630
 20
-700
 11
698
 21
-700
  0
LINE
  8
0
  6
CONTINUOUS
 62
     7
 10
625
 20
-405.0000305175781
 11
630
 21
-400.0000305175781
  0
LINE
  8
0
  6
CONTINUOUS
 62
     7
 10
698
 20
-400
 11
703.0000610351563
 21
-405.0000305175781
  0
LINE
  8
0
  6
CONTINUOUS
 62
     7
 10
625
 20
-695
 11
630
 21
-700
  0
LINE
  8
0
  6
CONTINUOUS
 62
     7
 10
698
 20
-700
 11
703
 21
-695
  0
LINE
  8
0
  6
CONTINUOUS
 62
     7
 10
669
 20
-390.0000305175781
 11
637
 21
-390.0000305175781
  0
LINE
  8
0
  6
CONTINUOUS
 62
     7
 10
668.9999389648437
 20
-390.0000305175781
 11
672.6396484375
 21
-400.0000305175781
  0
LINE
  8
0
  6
CONTINUOUS
 62
     7
 10
637
 20
-390.0001220703125
 11
633.3603515625
 21
-400
  0
LINE
  8
0
  6
CONTINUOUS
 62
     7
 10
630
 20
-406.3724670410156
 11
698
 21
-406.3724670410156
  0
LINE
  8
0
  6
CONTINUOUS
 62
     7
 10
630
 20
-437.4244689941406
 11
698
 21
-437.4244689941406
  0
LINE
  8
0
  6
CONTINUOUS
 62
     7
 10
630
 20
-450.8700866699219
 11
698
 21
-450.8700866699219
  0
LINE
  8
0
  6
CONTINUOUS
 62
     7
 10
630
 20
-462.6091613769531
 11
698
 21
-462.6091613769531
  0
LINE
  8
0
  6
CONTINUOUS
 62
     7
 10
630
 20
-479.0270385742187
 11
698
 21
-479.0270385742187
  0
LINE
  8
0
  6
CONTINUOUS
 62
     7
 10
630
 20
-506.7433471679687
 11
698
 21
-506.7433471679687
  0
LINE
  8
0
  6
CONTINUOUS
 62
     7
 10
630
 20
-525.5888671875
 11
698
 21
-525.5888671875
  0
LINE
  8
0
  6
CONTINUOUS
 62
     7
 10
630
 20
-540.4924926757813
 11
698
 21
-540.4924926757813
  0
LINE
  8
0
  6
CONTINUOUS
 62
     7
 10
630
 20
-559.5074462890625
 11
698
 21
-559.5074462890625
  0
LINE
  8
0
  6
CONTINUOUS
 62
     7
 10
630
 20
-574.4110107421875
 11
698
 21
-574.4110107421875
  0
LINE
  8
0
  6
CONTINUOUS
 62
     7
 10
630
 20
-593.256591796875
 11
698
 21
-593.256591796875
  0
LINE
  8
0
  6
CONTINUOUS
 62
     7
 10
630
 20
-620.9730224609375
 11
698
 21
-620.9730224609375
  0
LINE
  8
0
  6
CONTINUOUS
 62
     7
 10
630
 20
-637.390869140625
 11
698
 21
-637.390869140625
  0
LINE
  8
0
  6
CONTINUOUS
 62
     7
 10
630
 20
-649.1300048828125
 11
698
 21
-649.1300048828125
  0
LINE
  8
0
  6
CONTINUOUS
 62
     7
 10
630
 20
-662.5756225585938
 11
698
 21
-662.5756225585938
  0
LINE
  8
0
  6
CONTINUOUS
 62
     7
 10
630
 20
-671.9133911132812
 11
698
 21
-671.9133911132812
  0
LINE
  8
0
  6
CONTINUOUS
 62
     7
 10
630
 20
-682.14697265625
 11
698
 21
-682.14697265625
  0
LINE
  8
0
  6
CONTINUOUS
 62
     7
 10
630
 20
-693.6275634765625
 11
698
 21
-693.6275634765625
  0
LINE
  8
0
  6
CONTINUOUS
 62
     7
 10
640.5
 20
-387.0000305175781
 11
641.7955322265625
 21
-379.6527404785156
  0
LINE
  8
0
  6
CONTINUOUS
 62
     7
 10
664.2044677734375
 20
-379.6526794433594
 11
665.5
 21
-387
  0
LINE
  8
0
  6
CONTINUOUS
 62
     7
 10
643.76513671875
 20
-378.0000305175781
 11
662.23486328125
 21
-378.0000305175781
  0
LINE
  8
0
  6
CONTINUOUS
 62
     7
 10
643.341796875
 20
-378.0453186035156
 11
652.57666015625
 21
-376.0453186035156
  0
LINE
  8
0
  6
CONTINUOUS
 62
     7
 10
653.42333984375
 20
-376.0453491210937
 11
662.658203125
 21
-378.0453186035156
  0
LINE
  8
0
  6
CONTINUOUS
 62
     7
 10
640.5
 20
-387.0000305175781
 11
640.5
 21
-390.0000305175781
  0
LINE
  8
0
  6
CONTINUOUS
 62
     7
 10
665.5
 20
-387.0000305175781
 11
665.5
 21
-390.0000305175781
  0
LINE
  8
0
  6
CONTINUOUS
 62
     7
 10
535
 20
-350
 11
535
 21
-750
  0
LINE
  8
0
  6
CONTINUOUS
 62
     7
 10
625
 20
-402
 11
625
 21
-698
  0
LINE
  8
0
  6
CONTINUOUS
 62
     7
 10
510
 20
-350
 11
510
 21
-437.8723754882812
  0
LINE
  8
0
  6
CONTINUOUS
 62
     7
 10
510
 20
-750
 11
535
 21
-750
  0
LINE
  8
0
  6
CONTINUOUS
 62
     7
 10
510
 20
-350
 11
535
 21
-350
  0
LINE
  8
0
  6
CONTINUOUS
 62
     7
 10
545
 20
-402
 11
625
 21
-402
  0
LINE
  8
0
  6
CONTINUOUS
 62
     7
 10
603
 20
-698
 11
625
 21
-698
  0
LINE
  8
0
  6
CONTINUOUS
 62
     7
 10
603
 20
-402
 11
603
 21
-698
  0
LINE
  8
0
  6
CONTINUOUS
 62
     7
 10
576.3798828125
 20
-487.6568298339844
 11
598
 21
-487.6568298339844
  0
LINE
  8
0
  6
CONTINUOUS
 62
     7
 10
535
 20
-401.9161376953125
 11
603.0000610351563
 21
-438.8349609375
  0
LINE
  8
0
  6
CONTINUOUS
 62
     7
 10
535
 20
-423.1293334960937
 11
602.9999389648438
 21
-460.0481567382812
  0
LINE
  8
0
  6
CONTINUOUS
 62
     7
 10
538.9332885742187
 20
-461.6587219238281
 11
570.313232421875
 21
-485.6063842773438
  0
LINE
  8
0
  6
CONTINUOUS
 62
     7
 10
538.9332885742187
 20
-638.3412475585937
 11
570.3131713867187
 21
-614.3936157226563
  0
LINE
  8
0
  6
CONTINUOUS
 62
     7
 10
576.3798828125
 20
-612.3431396484375
 11
598
 21
-612.3431396484375
  0
LINE
  8
0
  6
CONTINUOUS
 62
     7
 10
535
 20
-676.8707275390625
 11
603
 21
-639.9518432617188
  0
LINE
  8
0
  6
CONTINUOUS
 62
     7
 10
535
 20
-698.0838623046875
 11
603
 21
-661.1650390625
  0
LINE
  8
0
  6
CONTINUOUS
 62
     7
 10
502
 20
-400
 11
502
 21
-429.2485961914063
  0
LINE
  8
0
  6
CONTINUOUS
 62
     7
 10
502
 20
-400
 11
510
 21
-400
  0
LINE
  8
0
  6
CONTINUOUS
 62
     7
 10
502
 20
-700
 11
510
 21
-700
  0
LINE
  8
0
  6
CONTINUOUS
 62
     7
 10
400
 20
-508
 11
400
 21
-587.5
  0
LINE
  8
0
  6
CONTINUOUS
 62
     7
 10
400
 20
-512.5
 11
510
 21
-512.5
  0
LINE
  8
0
  6
CONTINUOUS
 62
     7
 10
400
 20
-587.5
 11
510
 21
-587.5
  0
LINE
  8
0
  6
CONTINUOUS
 62
     7
 10
502
 20
-651.3932495117187
 11
502
 21
-700
  0
LINE
  8
0
  6
CONTINUOUS
 62
     7
 10
510
 20
-641.0530395507812
 11
510
 21
-750
  0
LINE
  8
0
  6
CONTINUOUS
 62
     7
 10
400
 20
-508
 11
490
 21
-508
  0
LINE
  8
0
  6
CONTINUOUS
 62
     7
 10
510
 20
-592.5
 11
517.0518188476562
 21
-592.5
  0
LINE
  8
0
  6
CONTINUOUS
 62
     7
 10
510
 20
-507.5
 11
513.872314453125
 21
-507.5
  0
LINE
  8
0
  6
CONTINUOUS
 62
     7
 10
510
 20
-507.6000061035156
 11
510
 21
-592.5
  0
LINE
  8
0
  6
CONTINUOUS
 62
     7
 10
561.5
 20
-364.7000122070312
 11
588.5
 21
-364.7000122070312
  0
LINE
  8
0
  6
CONTINUOUS
 62
     7
 10
566.3499755859375
 20
-364.7000122070312
 11
566.3499755859375
 21
-402
  0
LINE
  8
0
  6
CONTINUOUS
 62
     7
 10
583.6500244140625
 20
-364.7000122070312
 11
583.6500244140625
 21
-402
  0
LINE
  8
0
  6
CONTINUOUS
 62
     3
 10
575
 20
-310.0375671386719
 11
575
 21
-417
  0
LINE
  8
0
  6
CONTINUOUS
 62
     7
 10
561.5
 20
-332.7000122070313
 11
588.5
 21
-332.7000122070313
  0
LINE
  8
0
  6
CONTINUOUS
 62
     7
 10
583.071044921875
 20
-318.0500183105469
 11
566.928955078125
 21
-318.0500183105469
  0
LINE
  8
0
  6
CONTINUOUS
 62
     7
 10
583.507568359375
 20
-327.0500183105469
 11
566.492431640625
 21
-327.0500183105469
  0
LINE
  8
0
  6
CONTINUOUS
 62
     7
 10
583.507568359375
 20
-327.0500183105469
 11
583.3309936523438
 21
-332.6999816894531
  0
LINE
  8
0
  6
CONTINUOUS
 62
     7
 10
566.492431640625
 20
-327.0499877929688
 11
566.6690063476562
 21
-332.6999816894531
  0
LINE
  8
0
  6
CONTINUOUS
 62
     7
 10
583.071044921875
 20
-318.0500183105469
 11
583.071044921875
 21
-327.0500183105469
  0
LINE
  8
0
  6
CONTINUOUS
 62
     7
 10
566.928955078125
 20
-318.0500183105469
 11
566.928955078125
 21
-327.0500183105469
  0
LINE
  8
0
  6
CONTINUOUS
 62
     7
 10
588.5
 20
-332.7000122070313
 11
588.5
 21
-364.7000122070312
  0
LINE
  8
0
  6
CONTINUOUS
 62
     7
 10
561.5
 20
-332.7000122070313
 11
561.5
 21
-364.7000122070312
  0
LINE
  8
0
  6
CONTINUOUS
 62
     3
 10
566.928955078125
 20
-327.0499877929688
 11
575
 21
-318.0499572753906
  0
LINE
  8
0
  6
CONTINUOUS
 62
     7
 10
575
 20
-318.0500183105469
 11
575
 21
-327.0500183105469
  0
LINE
  8
0
  6
CONTINUOUS
 62
     3
 10
575
 20
-327.0500183105469
 11
583.071044921875
 21
-318.0500183105469
  0
LINE
  8
0
  6
CONTINUOUS
 62
     3
 10
583.071044921875
 20
-327.0500183105469
 11
575.0000610351563
 21
-318.050048828125
  0
LINE
  8
0
  6
CONTINUOUS
 62
     3
 10
566.928955078125
 20
-318.0500183105469
 11
574.9999389648438
 21
-327.0499877929688
  0
LINE
  8
0
  6
CONTINUOUS
 62
     7
 10
490
 20
-508
 11
490
 21
-512.5
  0
LINE
  8
0
  6
CONTINUOUS
 62
     7
 10
841
 20
-457.5
 11
841
 21
-642.5
  0
LINE
  8
0
  6
CONTINUOUS
 62
     7
 10
680.9999389648438
 20
-541.5145874023438
 11
672.5146484375
 21
-549.9998779296875
  0
LINE
  8
0
  6
CONTINUOUS
 62
     7
 10
689.4854125976562
 20
-549.9999389648437
 11
681.0001220703125
 21
-541.5146484375
  0
LINE
  8
0
  6
CONTINUOUS
 62
     3
 10
681
 20
-539.492431640625
 11
681
 21
-560.507568359375
  0
LINE
  8
0
  6
CONTINUOUS
 62
     7
 10
681.0000610351562
 20
-558.4853515625
 11
672.5147705078125
 21
-550.0001220703125
  0
LINE
  8
0
  6
CONTINUOUS
 62
     7
 10
689.4852294921875
 20
-550
 11
680.9999389648438
 21
-558.4852905273437
  0
LINE
  8
0
  6
CONTINUOUS
 62
     3
 10
720
 20
-331.6383361816406
 11
720
 21
-414.0931396484375
  0
LINE
  8
0
  6
CONTINUOUS
 62
     3
 10
702.6383056640625
 20
-349
 11
775.469970703125
 21
-349
  0
LINE
  8
0
  6
CONTINUOUS
 62
     7
 10
752
 20
-333
 11
752
 21
-365
  0
LINE
  8
0
  6
CONTINUOUS
 62
     7
 10
704
 20
-381
 11
736
 21
-381
  0
LINE
  8
0
  6
CONTINUOUS
 62
     7
 10
741
 20
-365
 11
752
 21
-365
  0
LINE
  8
0
  6
CONTINUOUS
 62
     7
 10
736
 20
-333
 11
752
 21
-333
  0
LINE
  8
0
  6
CONTINUOUS
 62
     7
 10
704
 20
-365
 11
704
 21
-381
  0
LINE
  8
0
  6
CONTINUOUS
 62
     7
 10
736
 20
-370
 11
736
 21
-381
  0
LINE
  8
0
  6
CONTINUOUS
 62
     7
 10
770.469970703125
 20
-360.1923828125
 11
770.469970703125
 21
-337.8076171875
  0
LINE
  8
0
  6
CONTINUOUS
 62
     7
 10
759.469970703125
 20
-362.4534301757813
 11
759.469970703125
 21
-335.5465698242187
  0
LINE
  8
0
  6
CONTINUOUS
 62
     7
 10
759.4700317382813
 20
-362.4534606933594
 11
752.0000610351562
 21
-362.2200012207031
  0
LINE
  8
0
  6
CONTINUOUS
 62
     7
 10
759.469970703125
 20
-335.5465698242187
 11
752
 21
-335.7799987792969
  0
LINE
  8
0
  6
CONTINUOUS
 62
     7
 10
770.469970703125
 20
-360.1923828125
 11
759.469970703125
 21
-360.1923828125
  0
LINE
  8
0
  6
CONTINUOUS
 62
     7
 10
770.469970703125
 20
-337.8076171875
 11
759.469970703125
 21
-337.8076171875
  0
LINE
  8
0
  6
CONTINUOUS
 62
     3
 10
759.469970703125
 20
-360.1923828125
 11
770.4700317382813
 21
-349
  0
LINE
  8
0
  6
CONTINUOUS
 62
     3
 10
770.4700317382813
 20
-360.1923828125
 11
759.469970703125
 21
-348.9999694824219
  0
LINE
  8
0
  6
CONTINUOUS
 62
     3
 10
759.469970703125
 20
-348.9999694824219
 11
770.469970703125
 21
-337.8075866699219
  0
LINE
  8
0
  6
CONTINUOUS
 62
     3
 10
770.469970703125
 20
-349
 11
759.469970703125
 21
-337.8075866699219
  0
LINE
  8
0
  6
CONTINUOUS
 62
     7
 10
706.5
 20
-381
 11
706.5
 21
-402
  0
LINE
  8
0
  6
CONTINUOUS
 62
     7
 10
733.5
 20
-381
 11
733.5
 21
-402
  0
LINE
  8
0
  6
CONTINUOUS
 62
     7
 10
770.469970703125
 20
-349.0003662109375
 11
759.469970703125
 21
-349.0003662109375
  0
LINE
  8
0
  6
CONTINUOUS
 62
     3
 10
0
 20
-305.25
 11
0
 21
-770
  0
LINE
  8
0
  6
CONTINUOUS
 62
     3
 10
-220
 20
-550
 11
220
 21
-550
  0
LINE
  8
0
  6
CONTINUOUS
 62
     7
 10
-10
 20
-508
 11
-10
 21
-520
  0
LINE
  8
0
  6
CONTINUOUS
 62
     7
 10
10
 20
-508
 11
10
 21
-520
  0
LINE
  8
0
  6
CONTINUOUS
 62
     7
 10
-10
 20
-520
 11
10
 21
-520
  0
LINE
  8
0
  6
CONTINUOUS
 62
     7
 10
-10
 20
-508
 11
10
 21
-508
  0
LINE
  8
0
  6
CONTINUOUS
 62
     3
 10
149.4212036132813
 20
-611.8924560546875
 11
173.5414276123047
 21
-621.8834228515625
  0
LINE
  8
0
  6
CONTINUOUS
 62
     3
 10
149.4212493896484
 20
-488.1076354980469
 11
173.5415344238281
 21
-478.11669921875
  0
LINE
  8
0
  6
CONTINUOUS
 62
     3
 10
61.89230728149414
 20
-400.5787963867187
 11
71.88325500488281
 21
-376.45849609375
  0
LINE
  8
0
  6
CONTINUOUS
 62
     3
 10
-61.89223480224609
 20
-400.5787658691406
 11
-71.88318634033203
 21
-376.4584655761719
  0
LINE
  8
0
  6
CONTINUOUS
 62
     3
 10
-149.4211883544922
 20
-488.1076354980469
 11
-173.5414123535156
 21
-478.11669921875
  0
LINE
  8
0
  6
CONTINUOUS
 62
     3
 10
-149.4212493896484
 20
-611.8922119140625
 11
-173.5414733886719
 21
-621.8831787109375
  0
LINE
  8
0
  6
CONTINUOUS
 62
     3
 10
-61.89249801635742
 20
-699.4210815429688
 11
-71.8834228515625
 21
-723.5413208007813
  0
LINE
  8
0
  6
CONTINUOUS
 62
     3
 10
61.89203262329102
 20
-699.4213256835937
 11
71.88294982910156
 21
-723.5415649414062
  0
LINE
  8
0
  6
CONTINUOUS
 62
     3
 10
52.31839752197266
 20
-459.3819885253906
 11
42.56134796142578
 21
-476.2817077636719
  0
LINE
  8
0
  6
CONTINUOUS
 62
     3
 10
-52.31833267211914
 20
-459.3819274902344
 11
-42.56128311157227
 21
-476.2816162109375
  0
LINE
  8
0
  6
CONTINUOUS
 62
     3
 10
-52.31827926635742
 20
-640.6180419921875
 11
-42.56122589111328
 21
-623.7183227539063
  0
LINE
  8
0
  6
CONTINUOUS
 62
     3
 10
52.31835556030273
 20
-640.6179809570312
 11
42.56130599975586
 21
-623.71826171875
  0
LINE
  8
0
  6
CONTINUOUS
 62
     7
 10
-13.5
 20
-332.7000122070313
 11
13.5
 21
-332.7000122070313
  0
LINE
  8
0
  6
CONTINUOUS
 62
     7
 10
8.507568359375
 20
-327.0500183105469
 11
-8.507568359375
 21
-327.0500183105469
  0
LINE
  8
0
  6
CONTINUOUS
 62
     7
 10
8.507533073425293
 20
-327.0499877929688
 11
8.330971717834473
 21
-332.6999816894531
  0
LINE
  8
0
  6
CONTINUOUS
 62
     7
 10
-8.507612228393555
 20
-327.050048828125
 11
-8.331049919128418
 21
-332.7000122070313
  0
LINE
  8
0
  6
CONTINUOUS
 62
     7
 10
8.071044921875
 20
-318.0500183105469
 11
8.071044921875
 21
-327.0500183105469
  0
LINE
  8
0
  6
CONTINUOUS
 62
     7
 10
-8.071044921875
 20
-318.0500183105469
 11
-8.071044921875
 21
-327.0500183105469
  0
LINE
  8
0
  6
CONTINUOUS
 62
     7
 10
13.5
 20
-332.7000122070313
 11
13.5
 21
-350.4561462402344
  0
LINE
  8
0
  6
CONTINUOUS
 62
     7
 10
-13.5
 20
-332.7000122070313
 11
-13.5
 21
-350.4561462402344
  0
LINE
  8
0
  6
CONTINUOUS
 62
     3
 10
-8.071045875549316
 20
-327.0500183105469
 11
6.92299181537237E-07
 21
-318.0500183105469
  0
LINE
  8
0
  6
CONTINUOUS
 62
     3
 10
-8.071061134338379
 20
-318.050048828125
 11
-4.447970241017174E-06
 21
-327.050048828125
  0
LINE
  8
0
  6
CONTINUOUS
 62
     3
 10
2.482273703208193E-05
 20
-327.0500183105469
 11
8.071061134338379
 21
-318.050048828125
  0
LINE
  8
0
  6
CONTINUOUS
 62
     3
 10
8.071044921875
 20
-327.050048828125
 11
2.869731179089285E-05
 21
-318.0500793457031
  0
LINE
  8
0
  6
CONTINUOUS
 62
     7
 10
0
 20
-318.0500183105469
 11
0
 21
-327.0500183105469
  0
LINE
  8
0
  6
CONTINUOUS
 62
     7
 10
-8.071044921875
 20
-318.0500183105469
 11
8.071044921875
 21
-318.0500183105469
  0
LINE
  8
0
  6
CONTINUOUS
 62
     3
 10
380
 20
0
 11
930.1342163085937
 21
0
  0
LINE
  8
0
  6
CONTINUOUS
 62
     7
 10
703
 20
148.0000152587891
 11
703
 21
-147.9999847412109
  0
LINE
  8
0
  6
CONTINUOUS
 62
     7
 10
791
 20
92.50000762939453
 11
791
 21
-92.49999237060547
  0
LINE
  8
0
  6
CONTINUOUS
 62
     7
 10
703
 20
-148
 11
723
 21
-148
  0
LINE
  8
0
  6
CONTINUOUS
 62
     7
 10
703
 20
148
 11
723
 21
148
  0
LINE
  8
0
  6
CONTINUOUS
 62
     7
 10
723
 20
148.0000152587891
 11
723
 21
28.72284889221191
  0
LINE
  8
0
  6
CONTINUOUS
 62
     7
 10
746
 20
102.918342590332
 11
746
 21
16.00000953674316
  0
LINE
  8
0
  6
CONTINUOUS
 62
     7
 10
776
 20
92.50000762939453
 11
776
 21
-92.49999237060547
  0
LINE
  8
0
  6
CONTINUOUS
 62
     7
 10
727.5641479492187
 20
-109.1126861572266
 11
741.4357299804687
 21
-107.8990859985352
  0
LINE
  8
0
  6
CONTINUOUS
 62
     7
 10
727.5642700195313
 20
109.1132888793945
 11
742.5642700195313
 21
107.8009567260742
  0
LINE
  8
0
  6
CONTINUOUS
 62
     7
 10
776
 20
-92.5
 11
791
 21
-92.5
  0
LINE
  8
0
  6
CONTINUOUS
 62
     7
 10
776
 20
92.5
 11
791
 21
92.5
  0
LINE
  8
0
  6
CONTINUOUS
 62
     3
 10
720
 20
21.00000953674316
 11
720
 21
-20.99999046325684
  0
LINE
  8
0
  6
CONTINUOUS
 62
     7
 10
723
 20
-28.72276878356934
 11
723
 21
-147.9999847412109
  0
LINE
  8
0
  6
CONTINUOUS
 62
     7
 10
746
 20
-40.1566162109375
 11
776
 21
-40.1566162109375
  0
LINE
  8
0
  6
CONTINUOUS
 62
     7
 10
776
 20
-62.53788757324219
 11
746
 21
-76.18947601318359
  0
LINE
  8
0
  6
CONTINUOUS
 62
     7
 10
746
 20
40.1566162109375
 11
776
 21
40.1566162109375
  0
LINE
  8
0
  6
CONTINUOUS
 62
     7
 10
776
 20
62.53785705566406
 11
745.9999389648438
 21
76.189453125
  0
LINE
  8
0
  6
CONTINUOUS
 62
     7
 10
795
 20
-87.21929931640625
 11
837.0001220703125
 21
-87.21929931640625
  0
LINE
  8
0
  6
CONTINUOUS
 62
     7
 10
795
 20
-95
 11
837
 21
-95
  0
LINE
  8
0
  6
CONTINUOUS
 62
     7
 10
795
 20
95
 11
837
 21
95
  0
LINE
  8
0
  6
CONTINUOUS
 62
     7
 10
795.0001831054688
 20
94.99980163574219
 11
791.0001831054687
 21
90.99979400634766
  0
LINE
  8
0
  6
CONTINUOUS
 62
     7
 10
791
 20
-90.99996948242187
 11
795
 21
-94.99996948242188
  0
LINE
  8
0
  6
CONTINUOUS
 62
     7
 10
837.0001220703125
 20
-95.00003814697266
 11
841.0001220703125
 21
-91.00003051757813
  0
LINE
  8
0
  6
CONTINUOUS
 62
     7
 10
840.9999389648437
 20
91.00003051757813
 11
836.9999389648437
 21
95.00003814697266
  0
LINE
  8
0
  6
CONTINUOUS
 62
     7
 10
794.9999389648437
 20
87.218994140625
 11
837.0000610351563
 21
87.218994140625
  0
LINE
  8
0
  6
CONTINUOUS
 62
     7
 10
794.9999389648437
 20
76.21875
 11
837.0000610351563
 21
76.21875
  0
LINE
  8
0
  6
CONTINUOUS
 62
     7
 10
794.9999389648437
 20
68.35662841796875
 11
837.0000610351563
 21
68.35662841796875
  0
LINE
  8
0
  6
CONTINUOUS
 62
     7
 10
794.9999389648437
 20
61.04364013671875
 11
837.0000610351563
 21
61.04364013671875
  0
LINE
  8
0
  6
CONTINUOUS
 62
     7
 10
794.9999389648437
 20
51.7645263671875
 11
837.0000610351563
 21
51.7645263671875
  0
LINE
  8
0
  6
CONTINUOUS
 62
     7
 10
794.9999389648437
 20
43.10443115234375
 11
837.0000610351563
 21
43.10443115234375
  0
LINE
  8
0
  6
CONTINUOUS
 62
     7
 10
794.9999389648437
 20
32.5186767578125
 11
837.0000610351563
 21
32.5186767578125
  0
LINE
  8
0
  6
CONTINUOUS
 62
     7
 10
794.9999389648437
 20
22.95574951171875
 11
834.8780517578125
 21
22.95574951171875
  0
LINE
  8
0
  6
CONTINUOUS
 62
     7
 10
794.9999389648437
 20
11.00006103515625
 11
837.0000610351563
 21
11.00006103515625
  0
LINE
  8
0
  6
CONTINUOUS
 62
     7
 10
630
 20
150.0000610351562
 11
698
 21
150.0000610351562
  0
LINE
  8
0
  6
CONTINUOUS
 62
     7
 10
630
 20
-150
 11
698
 21
-150
  0
LINE
  8
0
  6
CONTINUOUS
 62
     7
 10
625.000244140625
 20
144.9999694824219
 11
630.0001831054688
 21
149.9999389648438
  0
LINE
  8
0
  6
CONTINUOUS
 62
     7
 10
697.9999389648437
 20
150.0001983642578
 11
702.9999389648437
 21
145.0002136230469
  0
LINE
  8
0
  6
CONTINUOUS
 62
     7
 10
624.9999389648437
 20
-144.9998168945312
 11
630
 21
-149.9998779296875
  0
LINE
  8
0
  6
CONTINUOUS
 62
     7
 10
698.0001831054688
 20
-150.0001373291016
 11
703.0001831054687
 21
-145.0001525878906
  0
LINE
  8
0
  6
CONTINUOUS
 62
     7
 10
630.0001831054688
 20
143.6275634765625
 11
697.9998779296875
 21
143.6275634765625
  0
LINE
  8
0
  6
CONTINUOUS
 62
     7
 10
630.0001831054688
 20
132.1470336914063
 11
697.9998779296875
 21
132.1470336914063
  0
LINE
  8
0
  6
CONTINUOUS
 62
     7
 10
630.0001831054688
 20
121.913330078125
 11
697.9998779296875
 21
121.913330078125
  0
LINE
  8
0
  6
CONTINUOUS
 62
     7
 10
630.0001831054688
 20
112.5756225585938
 11
697.9998779296875
 21
112.5756225585938
  0
LINE
  8
0
  6
CONTINUOUS
 62
     7
 10
630.0001831054688
 20
99.1300048828125
 11
697.9998779296875
 21
99.1300048828125
  0
LINE
  8
0
  6
CONTINUOUS
 62
     7
 10
630.0001831054688
 20
43.2567138671875
 11
697.9998779296875
 21
43.2567138671875
  0
LINE
  8
0
  6
CONTINUOUS
 62
     7
 10
630.0001831054688
 20
25.00006103515625
 11
697.9998779296875
 21
25.00006103515625
  0
LINE
  8
0
  6
CONTINUOUS
 62
     7
 10
630.0001831054688
 20
-25
 11
697.9999389648437
 21
-25
  0
LINE
  8
0
  6
CONTINUOUS
 62
     7
 10
630.0001831054688
 20
-43.25653076171875
 11
697.9999389648437
 21
-43.25653076171875
  0
LINE
  8
0
  6
CONTINUOUS
 62
     7
 10
630.0001831054688
 20
-99.12994384765625
 11
697.9999389648437
 21
-99.12994384765625
  0
LINE
  8
0
  6
CONTINUOUS
 62
     7
 10
630.0001831054688
 20
-112.5755615234375
 11
697.9999389648437
 21
-112.5755615234375
  0
LINE
  8
0
  6
CONTINUOUS
 62
     7
 10
630.0001831054688
 20
-121.9132690429687
 11
697.9999389648437
 21
-121.9132690429687
  0
LINE
  8
0
  6
CONTINUOUS
 62
     7
 10
630.0001831054688
 20
-132.1470336914063
 11
697.9999389648437
 21
-132.1470336914063
  0
LINE
  8
0
  6
CONTINUOUS
 62
     7
 10
630.0001831054688
 20
-143.6275329589844
 11
697.9999389648437
 21
-143.6275329589844
  0
LINE
  8
0
  6
CONTINUOUS
 62
     7
 10
632.9999389648437
 20
5
 11
672.9999389648438
 21
5
  0
LINE
  8
0
  6
CONTINUOUS
 62
     7
 10
632.9999389648437
 20
-5
 11
672.9999389648438
 21
-5
  0
LINE
  8
0
  6
CONTINUOUS
 62
     7
 10
625
 20
148
 11
625
 21
-148
  0
LINE
  8
0
  6
CONTINUOUS
 62
     7
 10
510
 20
200
 11
510
 21
90.97784423828125
  0
LINE
  8
0
  6
CONTINUOUS
 62
     7
 10
510
 20
-200
 11
535
 21
-200
  0
LINE
  8
0
  6
CONTINUOUS
 62
     7
 10
510
 20
200
 11
535
 21
200
  0
LINE
  8
0
  6
CONTINUOUS
 62
     7
 10
603
 20
148
 11
625
 21
148
  0
LINE
  8
0
  6
CONTINUOUS
 62
     7
 10
603
 20
-148
 11
625
 21
-148
  0
LINE
  8
0
  6
CONTINUOUS
 62
     7
 10
603
 20
148
 11
603
 21
20.0000057220459
  0
LINE
  8
0
  6
CONTINUOUS
 62
     7
 10
576.3799438476562
 20
-62.3431396484375
 11
598
 21
-62.3431396484375
  0
LINE
  8
0
  6
CONTINUOUS
 62
     7
 10
576.3798828125
 20
62.3431396484375
 11
598
 21
62.3431396484375
  0
LINE
  8
0
  6
CONTINUOUS
 62
     7
 10
535
 20
-20
 11
603
 21
-20
  0
LINE
  8
0
  6
CONTINUOUS
 62
     7
 10
535
 20
20
 11
603
 21
20
  0
LINE
  8
0
  6
CONTINUOUS
 62
     7
 10
603
 20
-19.9999942779541
 11
603
 21
-148
  0
LINE
  8
0
  6
CONTINUOUS
 62
     7
 10
535.0000610351562
 20
148.0838775634766
 11
603
 21
111.1650619506836
  0
LINE
  8
0
  6
CONTINUOUS
 62
     7
 10
535
 20
126.8706665039063
 11
603.0000610351563
 21
89.95182800292969
  0
LINE
  8
0
  6
CONTINUOUS
 62
     7
 10
538.9332885742187
 20
88.34128570556641
 11
570.3131713867187
 21
64.39365386962891
  0
LINE
  8
0
  6
CONTINUOUS
 62
     7
 10
538.9332885742187
 20
-88.34127044677734
 11
570.3131713867187
 21
-64.39363098144531
  0
LINE
  8
0
  6
CONTINUOUS
 62
     7
 10
535
 20
-126.8706817626953
 11
603
 21
-89.95184326171875
  0
LINE
  8
0
  6
CONTINUOUS
 62
     7
 10
535
 20
-148.0838623046875
 11
603
 21
-111.1650390625
  0
LINE
  8
0
  6
CONTINUOUS
 62
     7
 10
535
 20
200
 11
535
 21
-200
  0
LINE
  8
0
  6
CONTINUOUS
 62
     7
 10
510
 20
42.5
 11
515.1341552734375
 21
42.5
  0
LINE
  8
0
  6
CONTINUOUS
 62
     7
 10
510
 20
-42.5
 11
516.2838134765625
 21
-42.5
  0
LINE
  8
0
  6
CONTINUOUS
 62
     7
 10
502
 20
150
 11
502
 21
97.3695068359375
  0
LINE
  8
0
  6
CONTINUOUS
 62
     7
 10
502
 20
150
 11
510
 21
150
  0
LINE
  8
0
  6
CONTINUOUS
 62
     7
 10
502
 20
-150
 11
510
 21
-150
  0
LINE
  8
0
  6
CONTINUOUS
 62
     7
 10
400
 20
37.5
 11
400
 21
-37.5
  0
LINE
  8
0
  6
CONTINUOUS
 62
     7
 10
400
 20
37.5
 11
510
 21
37.5
  0
LINE
  8
0
  6
CONTINUOUS
 62
     7
 10
400
 20
-37.5
 11
510
 21
-37.5
  0
LINE
  8
0
  6
CONTINUOUS
 62
     7
 10
502
 20
-94.56884765625
 11
502
 21
-150
  0
LINE
  8
0
  6
CONTINUOUS
 62
     7
 10
510
 20
-88.9996337890625
 11
510
 21
-200
  0
LINE
  8
0
  6
CONTINUOUS
 62
     7
 10
400
 20
-10
 11
495
 21
-10
  0
LINE
  8
0
  6
CONTINUOUS
 62
     7
 10
400
 20
10
 11
495
 21
10
  0
LINE
  8
0
  6
CONTINUOUS
 62
     7
 10
510
 20
42.40002822875977
 11
510
 21
-42.49999618530273
  0
LINE
  8
0
  6
CONTINUOUS
 62
     7
 10
583.4852905273438
 20
-1.856630842667073E-05
 11
575.0000610351563
 21
8.48521900177002
  0
LINE
  8
0
  6
CONTINUOUS
 62
     7
 10
575.0000610351563
 20
8.485233306884766
 11
566.5147705078125
 21
-4.775362322106957E-05
  0
LINE
  8
0
  6
CONTINUOUS
 62
     7
 10
574.9999389648438
 20
-8.485286712646484
 11
566.5147094726563
 21
-4.775361958309077E-05
  0
LINE
  8
0
  6
CONTINUOUS
 62
     7
 10
583.4852905273438
 20
-5.520988997886889E-05
 11
575
 21
-8.485335350036621
  0
LINE
  8
0
  6
CONTINUOUS
 62
     3
 10
575
 20
15.72766590118408
 11
575
 21
-15.83092784881592
  0
LINE
  8
0
  6
CONTINUOUS
 62
     7
 10
490
 20
10.00000286102295
 11
490
 21
-9.999997138977051
  0
LINE
  8
0
  6
CONTINUOUS
 62
     7
 10
841.0000610351563
 20
24.17669486999512
 11
841.0000610351563
 21
92.49998474121094
  0
LINE
  8
0
  6
CONTINUOUS
 62
     3
 10
681.0000610351562
 20
-139.9925994873047
 11
681.0000610351562
 21
-171.6517181396484
  0
LINE
  8
0
  6
CONTINUOUS
 62
     7
 10
672.9290161132812
 20
-164.6499938964844
 11
689.0711059570312
 21
-164.6499938964844
  0
LINE
  8
0
  6
CONTINUOUS
 62
     7
 10
672.4924926757813
 20
-155.6499938964844
 11
689.5076293945312
 21
-155.6499938964844
  0
LINE
  8
0
  6
CONTINUOUS
 62
     7
 10
672.4924926757813
 20
-155.6499938964844
 11
672.6690673828125
 21
-150
  0
LINE
  8
0
  6
CONTINUOUS
 62
     7
 10
689.5076293945312
 20
-155.6499938964844
 11
689.3310546875
 21
-149.9999847412109
  0
LINE
  8
0
  6
CONTINUOUS
 62
     7
 10
672.9290161132812
 20
-164.6499786376953
 11
672.9290161132812
 21
-155.6499786376953
  0
LINE
  8
0
  6
CONTINUOUS
 62
     7
 10
689.0711059570312
 20
-164.6499786376953
 11
689.0711059570312
 21
-155.6499786376953
  0
LINE
  8
0
  6
CONTINUOUS
 62
     7
 10
681.0000610351562
 20
-164.6499786376953
 11
681.0000610351562
 21
-155.6499786376953
  0
LINE
  8
0
  6
CONTINUOUS
 62
     3
 10
672.9290161132812
 20
-155.6500549316406
 11
681
 21
-164.6500091552734
  0
LINE
  8
0
  6
CONTINUOUS
 62
     3
 10
672.9288940429688
 20
-164.64990234375
 11
680.9999389648438
 21
-155.64990234375
  0
LINE
  8
0
  6
CONTINUOUS
 62
     3
 10
681
 20
-155.6500549316406
 11
689.0711059570312
 21
-164.6500549316406
  0
LINE
  8
0
  6
CONTINUOUS
 62
     3
 10
680.9999389648438
 20
-164.6499328613281
 11
689.071044921875
 21
-155.6499328613281
  0
LINE
  8
0
  6
CONTINUOUS
 62
     7
 10
720
 20
-16
 11
752
 21
-16
  0
LINE
  8
0
  6
CONTINUOUS
 62
     7
 10
720
 20
16
 11
752
 21
16
  0
LINE
  8
0
  6
CONTINUOUS
 62
     7
 10
770.469970703125
 20
-11.19237995147705
 11
770.469970703125
 21
11.19239330291748
  0
LINE
  8
0
  6
CONTINUOUS
 62
     7
 10
759.469970703125
 20
-13.4534273147583
 11
759.469970703125
 21
13.45344829559326
  0
LINE
  8
0
  6
CONTINUOUS
 62
     7
 10
759.4700317382813
 20
-13.45343589782715
 11
752
 21
-13.21999740600586
  0
LINE
  8
0
  6
CONTINUOUS
 62
     7
 10
759.469970703125
 20
13.45342350006104
 11
752
 21
13.2199878692627
  0
LINE
  8
0
  6
CONTINUOUS
 62
     7
 10
770.4700317382813
 20
-11.19239044189453
 11
759.4700317382813
 21
-11.19239044189453
  0
LINE
  8
0
  6
CONTINUOUS
 62
     7
 10
770.469970703125
 20
11.19239044189453
 11
759.469970703125
 21
11.19239044189453
  0
LINE
  8
0
  6
CONTINUOUS
 62
     7
 10
770.469970703125
 20
0
 11
759.469970703125
 21
0
  0
LINE
  8
0
  6
CONTINUOUS
 62
     3
 10
759.469970703125
 20
-11.19235992431641
 11
770.469970703125
 21
3.728395313373767E-05
  0
LINE
  8
0
  6
CONTINUOUS
 62
     3
 10
770.469970703125
 20
-11.19237422943115
 11
759.469970703125
 21
2.704457074287347E-05
  0
LINE
  8
0
  6
CONTINUOUS
 62
     3
 10
759.469970703125
 20
-2.416857023490593E-05
 11
770.469970703125
 21
11.19237327575684
  0
LINE
  8
0
  6
CONTINUOUS
 62
     3
 10
770.469970703125
 20
-3.811674105236307E-05
 11
759.469970703125
 21
11.19236278533936
  0
LINE
  8
0
  6
CONTINUOUS
 62
     7
 10
752
 20
16.00000953674316
 11
752
 21
-15.99999046325684
  0
LINE
  8
0
  6
CONTINUOUS
 62
     7
 10
746
 20
-15.99999046325684
 11
746
 21
-102.918327331543
  0
LINE
  8
0
  6
CONTINUOUS
 62
     7
 10
841.0000610351563
 20
-91.5
 11
841.0000610351563
 21
0
  0
LINE
  8
0
  6
CONTINUOUS
 62
     7
 10
841
 20
-457.5
 11
841
 21
-642.5
  0
LINE
  8
0
  6
CONTINUOUS
 62
     7
 10
911
 20
-450
 11
911
 21
-650
  0
LINE
  8
0
  6
CONTINUOUS
 62
     7
 10
896
 20
-650
 11
911
 21
-650
  0
LINE
  8
0
  6
CONTINUOUS
 62
     7
 10
896
 20
-450
 11
911
 21
-450
  0
LINE
  8
0
  6
CONTINUOUS
 62
     7
 10
896
 20
-450
 11
896
 21
-650
  0
LINE
  8
0
  6
CONTINUOUS
 62
     7
 10
864
 20
-600
 11
891
 21
-600
  0
LINE
  8
0
  6
CONTINUOUS
 62
     7
 10
841
 20
-642.5
 11
859
 21
-642.5
  0
LINE
  8
0
  6
CONTINUOUS
 62
     7
 10
859
 20
-457.5
 11
859
 21
-642.5
  0
LINE
  8
0
  6
CONTINUOUS
 62
     7
 10
859
 20
-545
 11
896
 21
-545
  0
LINE
  8
0
  6
CONTINUOUS
 62
     7
 10
859
 20
-555
 11
896
 21
-555
  0
LINE
  8
0
  6
CONTINUOUS
 62
     7
 10
864
 20
-500
 11
891
 21
-500
  0
LINE
  8
0
  6
CONTINUOUS
 62
     7
 10
859
 20
-477
 11
896
 21
-477
  0
LINE
  8
0
  6
CONTINUOUS
 62
     7
 10
859
 20
-623
 11
896
 21
-623
  0
LINE
  8
0
  6
CONTINUOUS
 62
     7
 10
841
 20
-457.5
 11
859
 21
-457.5
  0
LINE
  8
0
  6
CONTINUOUS
 62
     7
 10
850
 20
-420.4805908203125
 11
850
 21
-461.133544921875
  0
LINE
  8
0
  6
CONTINUOUS
 62
     7
 10
830.2440185546875
 20
-440.3936767578125
 11
869.7515869140625
 21
-440.3936767578125
  0
LINE
  8
0
  6
CONTINUOUS
 62
     7
 10
841.9999389648437
 20
-457.3936462402344
 11
842.5901489257812
 21
-454.0463562011719
  0
LINE
  8
0
  6
CONTINUOUS
 62
     7
 10
857.4098510742188
 20
-454.0463562011719
 11
858.0000610351563
 21
-457.3936462402344
  0
LINE
  8
0
  6
CONTINUOUS
 62
     7
 10
844.559814453125
 20
-452.3936767578125
 11
855.440185546875
 21
-452.3936767578125
  0
LINE
  8
0
  6
CONTINUOUS
 62
     7
 10
843.8697509765625
 20
-452.5164489746094
 11
849.6597900390625
 21
-450.3878173828125
  0
LINE
  8
0
  6
CONTINUOUS
 62
     7
 10
850.3402709960938
 20
-450.3879699707031
 11
856.1303100585938
 21
-452.5166015625
  0
LINE
  8
0
  6
CONTINUOUS
 62
     7
 10
841.0000610351563
 20
92.5
 11
841.0000610351563
 21
24.1767578125
  0
LINE
  8
0
  6
CONTINUOUS
 62
     7
 10
911.0000610351563
 20
100
 11
911.0000610351563
 21
-100
  0
LINE
  8
0
  6
CONTINUOUS
 62
     7
 10
896.0000610351563
 20
-100
 11
911.0000610351563
 21
-100
  0
LINE
  8
0
  6
CONTINUOUS
 62
     7
 10
896.0000610351563
 20
100
 11
911.0000610351563
 21
100
  0
LINE
  8
0
  6
CONTINUOUS
 62
     7
 10
896.0000610351563
 20
100
 11
896.0000610351563
 21
-100
  0
LINE
  8
0
  6
CONTINUOUS
 62
     7
 10
864.0000610351562
 20
-50
 11
891.0000610351562
 21
-50
  0
LINE
  8
0
  6
CONTINUOUS
 62
     7
 10
841.0000610351563
 20
-92.5
 11
859.0000610351563
 21
-92.5
  0
LINE
  8
0
  6
CONTINUOUS
 62
     7
 10
859.0000610351563
 20
92.5
 11
859.0000610351563
 21
24.1767578125
  0
LINE
  8
0
  6
CONTINUOUS
 62
     7
 10
859.0000610351563
 20
5
 11
896.0000610351563
 21
5
  0
LINE
  8
0
  6
CONTINUOUS
 62
     7
 10
859.0000610351563
 20
-5
 11
896.0000610351563
 21
-5
  0
LINE
  8
0
  6
CONTINUOUS
 62
     7
 10
864.0000610351562
 20
50
 11
891.0000610351562
 21
50
  0
LINE
  8
0
  6
CONTINUOUS
 62
     7
 10
859.0000610351563
 20
73
 11
896.0000610351563
 21
73
  0
LINE
  8
0
  6
CONTINUOUS
 62
     7
 10
859.0000610351563
 20
-73
 11
896.0000610351563
 21
-73
  0
LINE
  8
0
  6
CONTINUOUS
 62
     7
 10
841.0000610351563
 20
14.64276313781738
 11
841.0000610351563
 21
-92.5
  0
LINE
  8
0
  6
CONTINUOUS
 62
     7
 10
841.0000610351563
 20
92.5
 11
859.0000610351563
 21
92.5
  0
LINE
  8
0
  6
CONTINUOUS
 62
     7
 10
859.0000610351563
 20
14.6427001953125
 11
859.0000610351563
 21
-92.5
  0
LINE
  8
0
  6
CONTINUOUS
 62
     7
 10
620.9030151367188
 20
-361.0000305175781
 11
684.6683349609375
 21
-361.0000305175781
  0
LINE
  8
0
  6
CONTINUOUS
 62
     7
 10
653
 20
-327.9879455566406
 11
653
 21
-404.2290649414063
  0
ARC
  8
0
  6
CONTINUOUS
 62
     7
 10
741
 20
-447.0816650390625
 40
5
 50
0
 51
84.99987373011112
  0
ARC
  8
0
  6
CONTINUOUS
 62
     7
 10
741
 20
-652.9183349609375
 40
5.000000000000052
 50
275.0001331000777
 51
0
  0
ARC
  8
0
  6
CONTINUOUS
 62
     7
 10
728
 20
-664.0938720703125
 40
5.000000000000004
 50
95.00015859960162
 51
179.9999640278219
  0
ARC
  8
0
  6
CONTINUOUS
 62
     7
 10
728
 20
-435.9060974121094
 40
5.000000000000038
 50
179.9999776881996
 51
264.9998650786887
  0
ARC
  8
0
  6
CONTINUOUS
 62
     7
 10
743
 20
-437.2184448242187
 40
5.000000000000038
 50
179.9999776881996
 51
264.9998377579323
  0
ARC
  8
0
  6
CONTINUOUS
 62
     7
 10
653
 20
-361.0000305175781
 40
25
 50
306.4238458862582
 51
233.5761318019415
  0
CIRCLE
  8
0
  6
CONTINUOUS
 62
     7
 10
653
 20
-361.0000305175781
 40
15
  0
ARC
  8
0
  6
CONTINUOUS
 62
     7
 10
643.76513671875
 20
-380.0000305175781
 40
1.999999999999985
 50
89.99998201391097
 51
170.0000206677889
  0
ARC
  8
0
  6
CONTINUOUS
 62
     7
 10
662.23486328125
 20
-380.0000305175781
 40
1.999999999999964
 50
9.999994586450628
 51
89.99998201391097
  0
ARC
  8
0
  6
CONTINUOUS
 62
     7
 10
634.5936279296875
 20
-385.944091796875
 40
6.000000000000009
 50
349.8636347103541
 51
53.57615411374161
  0
ARC
  8
0
  6
CONTINUOUS
 62
     7
 10
671.4063720703125
 20
-385.944091796875
 40
6.000000000000024
 50
126.4238645555929
 51
189.9999620293671
  0
ARC
  8
0
  6
CONTINUOUS
 62
     7
 10
545
 20
-392
 40
10
 50
179.999991348578
 51
270.0000006832456
  0
ARC
  8
0
  6
CONTINUOUS
 62
     7
 10
545
 20
-646.2908325195312
 40
9.999999999999964
 50
127.3491502824547
 51
180.0000050089563
  0
ARC
  8
0
  6
CONTINUOUS
 62
     7
 10
576.3798828125
 20
-477.6568298339844
 40
10.00000000000001
 50
232.6508497175455
 51
269.9999974955215
  0
ARC
  8
0
  6
CONTINUOUS
 62
     7
 10
545
 20
-453.7091979980469
 40
10
 50
179.999991348578
 51
232.650859735458
  0
ARC
  8
0
  6
CONTINUOUS
 62
     7
 10
598
 20
-482.6568298339844
 40
5.000000000000004
 50
269.9999974955222
 51
0
  0
ARC
  8
0
  6
CONTINUOUS
 62
     7
 10
576.3798828125
 20
-622.3431396484375
 40
10.00000000000001
 50
90.00000250447847
 51
127.3491502824547
  0
ARC
  8
0
  6
CONTINUOUS
 62
     7
 10
598
 20
-617.3431396484375
 40
5
 50
0
 51
90.00000250447782
  0
CIRCLE
  8
0
  6
CONTINUOUS
 62
     3
 10
681
 20
-550
 40
8.507550239562988
  0
ARC
  8
0
  6
CONTINUOUS
 62
     7
 10
736
 20
-365
 40
31.99999999999999
 50
89.99998201391055
 51
179.9999640278213
  0
ARC
  8
0
  6
CONTINUOUS
 62
     7
 10
741
 20
-370
 40
5.000000000000019
 50
89.99998201391031
 51
179.9999640278213
  0
CIRCLE
  8
0
  6
CONTINUOUS
 62
     7
 10
0
 20
-550
 40
200
  0
ARC
  8
0
  6
CONTINUOUS
 62
     7
 10
0
 20
-550
 40
37.50000000000002
 50
105.4660233138666
 51
74.53398488281326
  0
ARC
  8
0
  6
CONTINUOUS
 62
     3
 10
0
 20
-550
 40
175
 50
333.6566024090428
 51
341.8562240170756
  0
CIRCLE
  8
0
  6
CONTINUOUS
 62
     7
 10
161.678955078125
 20
-616.9696044921875
 40
9.5
  0
ARC
  8
0
  6
CONTINUOUS
 62
     3
 10
0
 20
-550
 40
175
 50
18.6566224443021
 51
26.85623892969302
  0
CIRCLE
  8
0
  6
CONTINUOUS
 62
     7
 10
161.6788940429688
 20
-483.0303955078125
 40
9.5
  0
ARC
  8
0
  6
CONTINUOUS
 62
     3
 10
0
 20
-550
 40
175
 50
63.65661857389931
 51
71.85624018193211
  0
CIRCLE
  8
0
  6
CONTINUOUS
 62
     7
 10
66.9696044921875
 20
-388.3211059570313
 40
9.5
  0
ARC
  8
0
  6
CONTINUOUS
 62
     3
 10
0
 20
-550
 40
175
 50
108.6566164110438
 51
116.8562311888874
  0
CIRCLE
  8
0
  6
CONTINUOUS
 62
     7
 10
-66.9696044921875
 20
-388.3211059570313
 40
9.5
  0
ARC
  8
0
  6
CONTINUOUS
 62
     3
 10
0
 20
-550
 40
175
 50
153.6566074179991
 51
161.8562221958428
  0
CIRCLE
  8
0
  6
CONTINUOUS
 62
     7
 10
-161.678955078125
 20
-483.0303955078125
 40
9.5
  0
ARC
  8
0
  6
CONTINUOUS
 62
     3
 10
0
 20
-550
 40
175
 50
198.6566157277985
 51
206.8562305056421
  0
CIRCLE
  8
0
  6
CONTINUOUS
 62
     7
 10
-161.678955078125
 20
-616.9696044921875
 40
9.5
  0
ARC
  8
0
  6
CONTINUOUS
 62
     3
 10
0
 20
-550
 40
175
 50
243.6566067347538
 51
251.8562283427866
  0
CIRCLE
  8
0
  6
CONTINUOUS
 62
     7
 10
-66.9696044921875
 20
-711.678955078125
 40
9.5
  0
ARC
  8
0
  6
CONTINUOUS
 62
     3
 10
0
 20
-550
 40
175.0000000000001
 50
288.6566045718983
 51
296.8562261799311
  0
CIRCLE
  8
0
  6
CONTINUOUS
 62
     7
 10
66.9696044921875
 20
-711.678955078125
 40
9.5
  0
CIRCLE
  8
0
  6
CONTINUOUS
 62
     7
 10
0
 20
-550
 40
75
  0
CIRCLE
  8
0
  6
CONTINUOUS
 62
     7
 10
0
 20
-550
 40
110
  0
ARC
  8
0
  6
CONTINUOUS
 62
     3
 10
0
 20
-550
 40
95
 50
355.1693713345101
 51
4.830628665489899
  0
ARC
  8
0
  6
CONTINUOUS
 62
     3
 10
0
 20
-550
 40
95.00000000000001
 50
55.16937086972811
 51
64.83062563938695
  0
ARC
  8
0
  6
CONTINUOUS
 62
     3
 10
0
 20
-550
 40
95
 50
115.169365709191
 51
124.8306273090391
  0
ARC
  8
0
  6
CONTINUOUS
 62
     3
 10
0
 20
-550
 40
94.99999999999999
 50
175.1693673788432
 51
184.8306289786912
  0
ARC
  8
0
  6
CONTINUOUS
 62
     3
 10
0
 20
-550
 40
95.00000000000001
 50
235.1693726909609
 51
244.8306342908089
  0
ARC
  8
0
  6
CONTINUOUS
 62
     3
 10
0
 20
-550
 40
94.99999999999997
 50
295.1693743606131
 51
304.8306291302719
  0
CIRCLE
  8
0
  6
CONTINUOUS
 62
     3
 10
0
 20
-550
 40
8
  0
CIRCLE
  8
0
  6
CONTINUOUS
 62
     7
 10
0
 20
-550
 40
7
  0
ARC
  8
0
  6
CONTINUOUS
 62
     7
 10
0
 20
-550
 40
150
 50
13.00753690632465
 51
186.9924658132702
  0
ARC
  8
0
  6
CONTINUOUS
 62
     7
 10
0
 20
-550
 40
142
 50
16.87726083531811
 51
183.1227401767295
  0
CIRCLE
  8
0
  6
CONTINUOUS
 62
     7
 10
-130.4869995117188
 20
-573.0083618164062
 40
19
  0
CIRCLE
  8
0
  6
CONTINUOUS
 62
     7
 10
130.4869995117188
 20
-526.9915771484375
 40
19
  0
ARC
  8
0
  6
CONTINUOUS
 62
     7
 10
0
 20
-550
 40
142
 50
196.8772558263618
 51
3.122739223197954
  0
ARC
  8
0
  6
CONTINUOUS
 62
     7
 10
0
 20
-550
 40
150
 50
193.0075438501993
 51
6.992462938748019
  0
ARC
  8
0
  6
CONTINUOUS
 62
     7
 10
652.9999389648438
 20
7.11881011739024E-06
 40
12.50000000000001
 50
203.5781631757645
 51
336.4218215699954
  0
ARC
  8
0
  6
CONTINUOUS
 62
     7
 10
741
 20
102.918342590332
 40
5
 50
0
 51
84.99987373011112
  0
ARC
  8
0
  6
CONTINUOUS
 62
     7
 10
741
 20
-102.918327331543
 40
4.999999999999996
 50
275.0001331000777
 51
0
  0
ARC
  8
0
  6
CONTINUOUS
 62
     7
 10
728
 20
-114.093864440918
 40
5.000000000000004
 50
95.00015859960162
 51
179.9999640278213
  0
ARC
  8
0
  6
CONTINUOUS
 62
     7
 10
728
 20
114.093879699707
 40
5.000000000000038
 50
179.9999776881996
 51
264.9998650786887
  0
ARC
  8
0
  6
CONTINUOUS
 62
     7
 10
708
 20
8.666379471833352E-06
 40
29.99999999999999
 50
304.8498834335421
 51
327.7690578916672
  0
ARC
  8
0
  6
CONTINUOUS
 62
     7
 10
728
 20
28.72284889221191
 40
5.000000000000038
 50
179.9999776881997
 51
235.1501079150353
  0
ARC
  8
0
  6
CONTINUOUS
 62
     7
 10
728
 20
-28.72276878356934
 40
5.000000000000026
 50
124.8500796877957
 51
179.9999640278213
  0
ARC
  8
0
  6
CONTINUOUS
 62
     7
 10
653
 20
7.118811481632292E-06
 40
20.13370323181152
 50
14.37929160866249
 51
165.620708277652
  0
ARC
  8
0
  6
CONTINUOUS
 62
     7
 10
653
 20
7.118811481632292E-06
 40
20.13370323181157
 50
194.379291722348
 51
345.6207083913375
  0
ARC
  8
0
  6
CONTINUOUS
 62
     7
 10
652.9999389648438
 20
7.11881011739024E-06
 40
12.5
 50
23.57817843000461
 51
156.4218368242355
  0
ARC
  8
0
  6
CONTINUOUS
 62
     7
 10
632.9999389648437
 20
6.556057996931486E-06
 40
5
 50
89.99998201391031
 51
270.0000006832456
  0
ARC
  8
0
  6
CONTINUOUS
 62
     7
 10
672.9999389648438
 20
7.681562237848993E-06
 40
5
 50
270.0000179860897
 51
89.99998201391031
  0
ARC
  8
0
  6
CONTINUOUS
 62
     7
 10
576.3798828125
 20
72.34314727783203
 40
9.999999999999998
 50
232.6508497175454
 51
269.9999974955215
  0
ARC
  8
0
  6
CONTINUOUS
 62
     7
 10
545
 20
96.29084014892578
 40
10
 50
179.999991348578
 51
232.6508597354581
  0
ARC
  8
0
  6
CONTINUOUS
 62
     7
 10
598
 20
67.34314727783203
 40
4.999999999999997
 50
269.9999974955222
 51
0
  0
ARC
  8
0
  6
CONTINUOUS
 62
     7
 10
576.3799438476562
 20
-72.34313201904297
 40
10
 50
90.00000250447847
 51
127.3491502824545
  0
ARC
  8
0
  6
CONTINUOUS
 62
     7
 10
598
 20
-67.34313201904297
 40
5
 50
0
 51
90.00000250447782
  0
ARC
  8
0
  6
CONTINUOUS
 62
     7
 10
545
 20
-96.29082489013672
 40
10.00000000000001
 50
127.3491502824545
 51
180.0000050089563
  0
ARC
  8
0
  6
CONTINUOUS
 62
     7
 10
495
 20
2.673071548997541E-06
 40
10
 50
270.0000179860893
 51
89.99998201391064
  0
CIRCLE
  8
0
  6
CONTINUOUS
 62
     7
 10
575
 20
4.92407934871153E-06
 40
13.5
  0
ARC
  8
0
  6
CONTINUOUS
 62
     7
 10
720
 20
9.004030289361253E-06
 40
16
 50
89.99998201391055
 51
270.0000006832454
  0
ARC
  8
0
  6
CONTINUOUS
 62
     7
 10
708
 20
8.666379471833352E-06
 40
29.99999999999996
 50
32.23094210833278
 51
55.15011656645787
  0
ARC
  8
0
  6
CONTINUOUS
 62
     7
 10
864
 20
-495
 40
4.999999999999943
 50
179.999991348578
 51
270.0000006832456
  0
ARC
  8
0
  6
CONTINUOUS
 62
     7
 10
891
 20
-605
 40
5
 50
0
 51
90.00000250447782
  0
ARC
  8
0
  6
CONTINUOUS
 62
     7
 10
864
 20
-605
 40
5.000000000000004
 50
90.00000250447782
 51
180.0000050089569
  0
ARC
  8
0
  6
CONTINUOUS
 62
     7
 10
891
 20
-495
 40
5.000000000000004
 50
269.9999974955222
 51
0
  0
ARC
  8
0
  6
CONTINUOUS
 62
     7
 10
838.043212890625
 20
-456.7987060546875
 40
4.000000000000021
 50
351.4459282863106
 51
53.91357911911838
  0
ARC
  8
0
  6
CONTINUOUS
 62
     7
 10
861.956787109375
 20
-456.7987060546875
 40
3.999999999999989
 50
126.0864395502154
 51
188.5540383028321
  0
ARC
  8
0
  6
CONTINUOUS
 62
     7
 10
850
 20
-440.3936767578125
 40
16.29999923706053
 50
306.0864140506921
 51
233.9135431469402
  0
CIRCLE
  8
0
  6
CONTINUOUS
 62
     7
 10
850
 20
-440.3936767578125
 40
10
  0
ARC
  8
0
  6
CONTINUOUS
 62
     7
 10
844.559814453125
 20
-454.3936767578125
 40
1.999999999999985
 50
89.99998201391097
 51
170.0000206677889
  0
ARC
  8
0
  6
CONTINUOUS
 62
     7
 10
855.440185546875
 20
-454.3936767578125
 40
1.999999999999974
 50
10.00000397796106
 51
89.99998201391097
  0
ARC
  8
0
  6
CONTINUOUS
 62
     7
 10
864.0000610351562
 20
55
 40
4.999999999999943
 50
179.999991348578
 51
270.0000006832456
  0
ARC
  8
0
  6
CONTINUOUS
 62
     7
 10
891.0000610351562
 20
-55
 40
5
 50
0
 51
90.00000250447782
  0
ARC
  8
0
  6
CONTINUOUS
 62
     7
 10
864.0000610351562
 20
-55
 40
4.999999999999997
 50
90.00000250447782
 51
180.0000050089563
  0
ARC
  8
0
  6
CONTINUOUS
 62
     7
 10
891.0000610351562
 20
55
 40
4.999999999999997
 50
269.9999974955222
 51
0
  0
POLYLINE
  8
0
  6
CONTINUOUS
 62
     7
 66
     1
 10
0
 20
0
  0
VERTEX
  8
0
  6
CONTINUOUS
 62
     7
 10
502.0004784336099
 20
-429.2489833012394
 42
-0.1887441757932606
  0
VERTEX
  8
0
  6
CONTINUOUS
 62
     7
 10
515.0519323248053
 20
-450.6487934538353
 42
-0.06038121619763795
  0
VERTEX
  8
0
  6
CONTINUOUS
 62
     7
 10
515.6954098172814
 20
-476.2089102021345
 42
-0.0004320068627831836
  0
VERTEX
  8
0
  6
CONTINUOUS
 62
     7
 10
514.1862685719047
 20
-501.8004438907168
 42
0.008397402786702072
  0
VERTEX
  8
0
  6
CONTINUOUS
 62
     7
 10
513.076164555769
 20
-527.4113471967514
 42
0.01779798986694506
  0
VERTEX
  8
0
  6
CONTINUOUS
 62
     7
 10
513.3110760318071
 20
-553.0406334208027
 42
0.01884734953889876
  0
VERTEX
  8
0
  6
CONTINUOUS
 62
     7
 10
515.6108352297322
 20
-578.5670281127724
 42
-0.02521594267557324
  0
VERTEX
  8
0
  6
CONTINUOUS
 62
     7
 10
517.6467064745281
 20
-604.1104637546284
 42
-0.07191624056640712
  0
VERTEX
  8
0
  6
CONTINUOUS
 62
     7
 10
514.7201544846213
 20
-629.4892853259145
 42
-0.1364477367066784
  0
VERTEX
  8
0
  6
CONTINUOUS
 62
     7
 10
502.0005696807495
 20
-651.3925304940998
 42
0
  0
SEQEND
  8
0
  0
POLYLINE
  8
0
  6
CONTINUOUS
 62
     7
 66
     1
 10
0
 20
0
  0
VERTEX
  8
0
  6
CONTINUOUS
 62
     7
 10
502.0004434036538
 20
97.36923273337456
 42
-0.2005712492639326
  0
VERTEX
  8
0
  6
CONTINUOUS
 62
     7
 10
515.9153373200655
 20
80.30383411428011
 42
-0.08979212965490105
  0
VERTEX
  8
0
  6
CONTINUOUS
 62
     7
 10
516.793218419253
 20
57.85378159874256
 42
0.01006587585377241
  0
VERTEX
  8
0
  6
CONTINUOUS
 62
     7
 10
514.5455579002956
 20
35.3720195907124
 42
0.01797347525479605
  0
VERTEX
  8
0
  6
CONTINUOUS
 62
     7
 10
513.7961072957515
 20
12.79353286360645
 42
0.01311212071651885
  0
VERTEX
  8
0
  6
CONTINUOUS
 62
     7
 10
514.4686463976765
 20
-9.78991132807848
 42
0.0001805177193028881
  0
VERTEX
  8
0
  6
CONTINUOUS
 62
     7
 10
515.8135936282858
 20
-32.34515370508434
 42
-0.01242988131275579
  0
VERTEX
  8
0
  6
CONTINUOUS
 62
     7
 10
516.5531327652835
 20
-54.92570424224014
 42
-0.05260472166957844
  0
VERTEX
  8
0
  6
CONTINUOUS
 62
     7
 10
514.9521139035668
 20
-77.41982292323237
 42
-0.2794031917847955
  0
VERTEX
  8
0
  6
CONTINUOUS
 62
     7
 10
502.0011119470325
 20
-94.56841175943761
 42
0
  0
SEQEND
  8
0
  0
POLYLINE
  8
0
  6
CONTINUOUS
 62
     7
 66
     1
 10
0
 20
0
  0
VERTEX
  8
0
  6
CONTINUOUS
 62
     7
 10
842.2619630935802
 20
14.45836371299849
 42
0.04188691999839006
  0
VERTEX
  8
0
  6
CONTINUOUS
 62
     7
 10
842.70209399438
 20
13.23038444029914
 42
0.04165559636306676
  0
VERTEX
  8
0
  6
CONTINUOUS
 62
     7
 10
843.3403385522317
 20
12.09245530771915
 42
0.04136485841423226
  0
VERTEX
  8
0
  6
CONTINUOUS
 62
     7
 10
844.15779301697
 20
11.07559455738322
 42
0.04106105922612607
  0
VERTEX
  8
0
  6
CONTINUOUS
 62
     7
 10
845.1311013080102
 20
10.20645048633456
 42
0.0407736748103452
  0
VERTEX
  8
0
  6
CONTINUOUS
 62
     7
 10
846.2331733946476
 20
9.507262490735025
 42
0.04052906794767002
  0
VERTEX
  8
0
  6
CONTINUOUS
 62
     7
 10
847.4340338578431
 20
8.99550701297742
 42
0.04034774979667085
  0
VERTEX
  8
0
  6
CONTINUOUS
 62
     7
 10
848.7016116589839
 20
8.683690488940217
 42
0.04023569854257052
  0
VERTEX
  8
0
  6
CONTINUOUS
 62
     7
 10
850.0022390449718
 20
8.57922392446773
 42
0.04022884956918367
  0
VERTEX
  8
0
  6
CONTINUOUS
 62
     7
 10
851.3025849185906
 20
8.68435127230622
 42
0.04031599865620437
  0
VERTEX
  8
0
  6
CONTINUOUS
 62
     7
 10
852.5690167624972
 20
8.996483866188308
 42
0.04051172969267706
  0
VERTEX
  8
0
  6
CONTINUOUS
 62
     7
 10
853.7691727843302
 20
9.508431553141481
 42
0.04075994656513814
  0
VERTEX
  8
0
  6
CONTINUOUS
 62
     7
 10
854.8706621894
 20
10.20769049473374
 42
0.04105999637884813
  0
VERTEX
  8
0
  6
CONTINUOUS
 62
     7
 10
855.84371185902
 20
11.07705076975454
 42
0.04137753781254553
  0
VERTEX
  8
0
  6
CONTINUOUS
 62
     7
 10
856.6611225790595
 20
12.09443775497244
 42
0.04167518698814434
  0
VERTEX
  8
0
  6
CONTINUOUS
 62
     7
 10
857.2992673983291
 20
13.23310479088894
 42
0.04191607587242852
  0
VERTEX
  8
0
  6
CONTINUOUS
 62
     7
 10
857.7391570639024
 20
14.46211539099125
 42
0
  0
SEQEND
  8
0
  0
POLYLINE
  8
0
  6
CONTINUOUS
 62
     7
 66
     1
 10
0
 20
0
  0
VERTEX
  8
0
  6
CONTINUOUS
 62
     7
 10
838.4616088867188
 20
15.2122802734375
 42
-0.01902103546960339
  0
VERTEX
  8
0
  6
CONTINUOUS
 62
     7
 10
837.7197257389474
 20
15.41648578758485
 42
-0.01048046971330335
  0
VERTEX
  8
0
  6
CONTINUOUS
 62
     7
 10
836.9910770481818
 20
15.66420657805482
 42
-0.005827118432243246
  0
VERTEX
  8
0
  6
CONTINUOUS
 62
     7
 10
836.2694795993468
 20
15.9328370172171
 42
-0.02972320131789974
  0
VERTEX
  8
0
  6
CONTINUOUS
 62
     7
 10
835.5686494241741
 20
16.24996179141755
 42
-0.05879732618625633
  0
VERTEX
  8
0
  6
CONTINUOUS
 62
     7
 10
834.9355782715297
 20
16.68431552869103
 42
-0.05380159186504689
  0
VERTEX
  8
0
  6
CONTINUOUS
 62
     7
 10
834.4242279608301
 20
17.25758108774254
 42
-0.04811715873197323
  0
VERTEX
  8
0
  6
CONTINUOUS
 62
     7
 10
834.0312961037977
 20
17.91887881847996
 42
-0.05487930104797786
  0
VERTEX
  8
0
  6
CONTINUOUS
 62
     7
 10
833.7857586137433
 20
18.64651197848648
 42
-0.05416947254728692
  0
VERTEX
  8
0
  6
CONTINUOUS
 62
     7
 10
833.7024536132813
 20
19.40966796875
 42
-0.05419959094277995
  0
VERTEX
  8
0
  6
CONTINUOUS
 62
     7
 10
833.7858517580426
 20
20.17324713216431
 42
-0.05489216998588901
  0
VERTEX
  8
0
  6
CONTINUOUS
 62
     7
 10
834.031545441651
 20
20.90099258535727
 42
-0.04804051561436801
  0
VERTEX
  8
0
  6
CONTINUOUS
 62
     7
 10
834.4238614177706
 20
21.56125031285717
 42
-0.05381598832655413
  0
VERTEX
  8
0
  6
CONTINUOUS
 62
     7
 10
834.9354074606863
 20
22.13486876461879
 42
-0.0587854575743038
  0
VERTEX
  8
0
  6
CONTINUOUS
 62
     7
 10
835.5684918382599
 20
22.56931197904963
 42
-0.02971664601842318
  0
VERTEX
  8
0
  6
CONTINUOUS
 62
     7
 10
836.2689750872062
 20
22.88637470581449
 42
-0.005841854667352479
  0
VERTEX
  8
0
  6
CONTINUOUS
 62
     7
 10
836.9903392609631
 20
23.15498301377987
 42
-0.01048727084867839
  0
VERTEX
  8
0
  6
CONTINUOUS
 62
     7
 10
837.7192757934015
 20
23.40283578025574
 42
-0.01901727475893863
  0
VERTEX
  8
0
  6
CONTINUOUS
 62
     7
 10
838.4611206054687
 20
23.6070556640625
 42
0
  0
SEQEND
  8
0
  0
POLYLINE
  8
0
  6
CONTINUOUS
 62
     7
 66
     1
 10
0
 20
0
  0
VERTEX
  8
0
  6
CONTINUOUS
 62
     7
 10
861.5517766432322
 20
23.60292458607803
 42
0.02483018303992008
  0
VERTEX
  8
0
  6
CONTINUOUS
 62
     7
 10
860.1433857221072
 20
23.96503964101344
 42
0.01364847221912155
  0
VERTEX
  8
0
  6
CONTINUOUS
 62
     7
 10
858.7115403092454
 20
24.22234617425203
 42
0.009382790529373127
  0
VERTEX
  8
0
  6
CONTINUOUS
 62
     7
 10
857.2692536688975
 20
24.41468437323696
 42
0.007275393931660577
  0
VERTEX
  8
0
  6
CONTINUOUS
 62
     7
 10
855.8208585056083
 20
24.55939960050867
 42
0.006095649948764179
  0
VERTEX
  8
0
  6
CONTINUOUS
 62
     7
 10
854.368863249245
 20
24.66558574556321
 42
0.005403400979628633
  0
VERTEX
  8
0
  6
CONTINUOUS
 62
     7
 10
852.9147935872502
 20
24.73848861088204
 42
0.005011271187422644
  0
VERTEX
  8
0
  6
CONTINUOUS
 62
     7
 10
851.4594062229105
 20
24.781183034491
 42
0.004832083732830198
  0
VERTEX
  8
0
  6
CONTINUOUS
 62
     7
 10
850.0034806747365
 20
24.79528800821191
 42
0.004831338334620774
  0
VERTEX
  8
0
  6
CONTINUOUS
 62
     7
 10
848.5476604140911
 20
24.78131775174928
 42
0.005006473239245674
  0
VERTEX
  8
0
  6
CONTINUOUS
 62
     7
 10
847.0932634416305
 20
24.73880202404785
 42
0.005400885097236255
  0
VERTEX
  8
0
  6
CONTINUOUS
 62
     7
 10
845.6391060853518
 20
24.66606607699739
 42
0.00609114848297
  0
VERTEX
  8
0
  6
CONTINUOUS
 62
     7
 10
844.1870318313173
 20
24.5600658694035
 42
0.007269855108483018
  0
VERTEX
  8
0
  6
CONTINUOUS
 62
     7
 10
842.7381406733183
 20
24.4155223985599
 42
0.009378779576630471
  0
VERTEX
  8
0
  6
CONTINUOUS
 62
     7
 10
841.2944252154338
 20
24.22324385432193
 42
0.01364228778887974
  0
VERTEX
  8
0
  6
CONTINUOUS
 62
     7
 10
839.8609110308761
 20
23.96591851094312
 42
0.02480857460881575
  0
VERTEX
  8
0
  6
CONTINUOUS
 62
     7
 10
838.4510151048373
 20
23.60377682962824
 42
0
  0
SEQEND
  8
0
  0
POLYLINE
  8
0
  6
CONTINUOUS
 62
     7
 66
     1
 10
0
 20
0
  0
VERTEX
  8
0
  6
CONTINUOUS
 62
     7
 10
861.5383911132813
 20
15.2122802734375
 42
0.01901317271506497
  0
VERTEX
  8
0
  6
CONTINUOUS
 62
     7
 10
862.2802903074235
 20
15.41647672190923
 42
0.01048254765825998
  0
VERTEX
  8
0
  6
CONTINUOUS
 62
     7
 10
863.0089589443404
 20
15.66417937895523
 42
0.005830564909487511
  0
VERTEX
  8
0
  6
CONTINUOUS
 62
     7
 10
863.7305699637841
 20
15.93280847095249
 42
0.0297211759326685
  0
VERTEX
  8
0
  6
CONTINUOUS
 62
     7
 10
864.4314153710343
 20
16.24993102556744
 42
0.05879613336045802
  0
VERTEX
  8
0
  6
CONTINUOUS
 62
     7
 10
865.0645053034973
 20
16.68428127181361
 42
0.05380383002755899
  0
VERTEX
  8
0
  6
CONTINUOUS
 62
     7
 10
865.5758713965671
 20
17.25754983350247
 42
0.04811749251852225
  0
VERTEX
  8
0
  6
CONTINUOUS
 62
     7
 10
865.9688150965452
 20
17.91885552453479
 42
0.05488036427794137
  0
VERTEX
  8
0
  6
CONTINUOUS
 62
     7
 10
866.2143606877925
 20
18.64649946713688
 42
0.05417040131012199
  0
VERTEX
  8
0
  6
CONTINUOUS
 62
     7
 10
866.2976684570313
 20
19.40966796875
 42
0.05420045899822624
  0
VERTEX
  8
0
  6
CONTINUOUS
 62
     7
 10
866.2142675501212
 20
20.17325974551107
 42
0.05489306167937714
  0
VERTEX
  8
0
  6
CONTINUOUS
 62
     7
 10
865.9685657755003
 20
20.90101594319095
 42
0.0480407513853599
  0
VERTEX
  8
0
  6
CONTINUOUS
 62
     7
 10
865.5762378508747
 20
21.561281730281
 42
0.05381827043057508
  0
VERTEX
  8
0
  6
CONTINUOUS
 62
     7
 10
865.064676101002
 20
22.13490298750878
 42
0.05878447934274939
  0
VERTEX
  8
0
  6
CONTINUOUS
 62
     7
 10
864.4315735381468
 20
22.56934255263867
 42
0.02971460322141182
  0
VERTEX
  8
0
  6
CONTINUOUS
 62
     7
 10
863.7310747649518
 20
22.88640304592836
 42
0.005845210286822924
  0
VERTEX
  8
0
  6
CONTINUOUS
 62
     7
 10
863.0096967133111
 20
23.15501035935685
 42
0.01048960203317621
  0
VERTEX
  8
0
  6
CONTINUOUS
 62
     7
 10
862.2807317920292
 20
23.40284745616622
 42
0.01900905887518237
  0
VERTEX
  8
0
  6
CONTINUOUS
 62
     7
 10
861.5388793945313
 20
23.6070556640625
 42
0
  0
SEQEND
  8
0
  0
POLYLINE
  8
0
  6
CONTINUOUS
 62
     7
 66
     1
 10
0
 20
0
  0
VERTEX
  8
0
  6
CONTINUOUS
 62
     7
 10
836.8500366210937
 20
16.3076171875
 42
0.194567877948205
  0
VERTEX
  8
0
  6
CONTINUOUS
 62
     7
 10
839.7921787140737
 20
14.86811337731151
 42
0.02554539515688463
  0
VERTEX
  8
0
  6
CONTINUOUS
 62
     7
 10
843.1707895587565
 20
14.35625144299917
 42
0.01446912042137995
  0
VERTEX
  8
0
  6
CONTINUOUS
 62
     7
 10
846.5801997339232
 20
14.10274139687447
 42
0.01163093268934996
  0
VERTEX
  8
0
  6
CONTINUOUS
 62
     7
 10
850.0000610351562
 20
14.024169921875
 42
0.01162460429331927
  0
VERTEX
  8
0
  6
CONTINUOUS
 62
     7
 10
853.4181773451933
 20
14.10265907270823
 42
0.01447194698140033
  0
VERTEX
  8
0
  6
CONTINUOUS
 62
     7
 10
856.8286928950322
 20
14.35618300204019
 42
0.02555996167658393
  0
VERTEX
  8
0
  6
CONTINUOUS
 62
     7
 10
860.2090335887269
 20
14.86834585091006
 42
0.1952823917148693
  0
VERTEX
  8
0
  6
CONTINUOUS
 62
     7
 10
863.1500793962399
 20
16.30980816789596
 42
0.1938955516856652
  0
VERTEX
  8
0
  6
CONTINUOUS
 62
     7
 10
860.2057937197795
 20
17.747580514272
 42
0.02553113147663157
  0
VERTEX
  8
0
  6
CONTINUOUS
 62
     7
 10
856.8271434992889
 20
18.25921388185584
 42
0.01446583190083692
  0
VERTEX
  8
0
  6
CONTINUOUS
 62
     7
 10
853.4177222983093
 20
18.51259583541738
 42
0.01162286901854357
  0
VERTEX
  8
0
  6
CONTINUOUS
 62
     7
 10
850.0000610351562
 20
18.591064453125
 42
0.0116246042933165
  0
VERTEX
  8
0
  6
CONTINUOUS
 62
     7
 10
846.581944725119
 20
18.51257530229177
 42
0.01447194698139483
  0
VERTEX
  8
0
  6
CONTINUOUS
 62
     7
 10
843.1714291752803
 20
18.25905137295982
 42
0.02555996167656926
  0
VERTEX
  8
0
  6
CONTINUOUS
 62
     7
 10
839.7910884815856
 20
17.74688852408995
 42
0.1952823917148756
  0
VERTEX
  8
0
  6
CONTINUOUS
 62
     7
 10
836.8500426740725
 20
16.30542620710407
 42
0
  0
SEQEND
  8
0
  0
TEXT
  8
0
  6
CONTINUOUS
 62
     7
 10
-190.7143211364746
 20
-15
 40
30
 41
1.026265374427419
  1
ERKV-NCE-1500
  0
ENDSEC
  0
EOF
