  0
SECTION
  2
HEADER
  0
ENDSEC
  0
SECTION
  2
TABLES
  0
TABLE
  2
LTYPE
 70
    22
  0
LTYPE
  2
CONTINUOUS
 70
    64
  3
Solid line
 72
    65
 73
     0
 40
0.000000
  0
LTYPE
  2
DASHED
 70
    64
  3
__ __ __ __ __ __ __ __ __ __ __ __ __ __ __
 72
    65
 73
     2
 40
3.500000
 49
2.000000
 49
-1.500000
  0
LTYPE
  2
CENTER
 70
    64
  3
____ _ ____ _ ____ _ ____ _ ____ _ ____ _ ____
 72
    65
 73
     4
 40
17.500000
 49
13.000000
 49
-1.500000
 49
1.500000
 49
-1.500000
  0
LTYPE
  2
PHANTOM
 70
    64
  3
_____ _ _ _____ _ _ _____ _ _ _____ _ _ ____  
 72
    65
 73
     6
 40
15.500000
 49
8.000000
 49
-1.500000
 49
1.500000
 49
-1.500000
 49
1.500000
 49
-1.500000
  0
LTYPE
  2
DOT
 70
    64
  3
. . . . . . . . . . . . . . . . . . . . . . . .
 72
    65
 73
     2
 40
0.25
 49
0.0
 49
-0.25
  0
ENDTAB
  0
TABLE
  2
LAYER
 70
     1
  0
LAYER
  2
0
 70
     0
 62
     7
  6
CONTINUOUS
  0
ENDTAB
  0
TABLE
  2
STYLE
 70
     1
  0
STYLE
  2
STANDARD
 70
     0
 40
0.000000
 41
1.000000
 50
0.000000
 71
     0
 42
0.200000
  3
txt
  0
ENDTAB
  0
TABLE
  2
VIEW
 70
     0
  0
ENDTAB
  0
ENDSEC
  0
SECTION
  2
BLOCKS
  0
ENDSEC
  0
SECTION
  2
ENTITIES
  0
LINE
  8
0
  6
CONTINUOUS
 62
     3
 10
380
 20
-550
 11
912.3145751953125
 21
-550
  0
LINE
  8
0
  6
CONTINUOUS
 62
     7
 10
703
 20
-402
 11
703
 21
-698
  0
LINE
  8
0
  6
CONTINUOUS
 62
     7
 10
703
 20
-698
 11
723
 21
-698
  0
LINE
  8
0
  6
CONTINUOUS
 62
     7
 10
703
 20
-402
 11
738
 21
-402
  0
LINE
  8
0
  6
CONTINUOUS
 62
     7
 10
746
 20
-448.0938720703125
 11
746
 21
-651.9061279296875
  0
LINE
  8
0
  6
CONTINUOUS
 62
     7
 10
727.5642700195313
 20
-658.1006469726562
 11
741.4358520507812
 21
-656.8870239257813
  0
LINE
  8
0
  6
CONTINUOUS
 62
     7
 10
741.435791015625
 20
-443.1128234863281
 11
742.5642700195313
 21
-443.2115478515625
  0
LINE
  8
0
  6
CONTINUOUS
 62
     7
 10
781
 20
-477.5
 11
781
 21
-622.5
  0
LINE
  8
0
  6
CONTINUOUS
 62
     7
 10
771
 20
-477.5
 11
771
 21
-622.5
  0
LINE
  8
0
  6
CONTINUOUS
 62
     7
 10
771
 20
-622.5
 11
781
 21
-622.5
  0
LINE
  8
0
  6
CONTINUOUS
 62
     7
 10
771
 20
-477.5
 11
781
 21
-477.5
  0
LINE
  8
0
  6
CONTINUOUS
 62
     7
 10
738
 20
-402
 11
738
 21
-438.2306518554688
  0
LINE
  8
0
  6
CONTINUOUS
 62
     7
 10
723
 20
-402
 11
723
 21
-698
  0
LINE
  8
0
  6
CONTINUOUS
 62
     7
 10
727.5642700195313
 20
-441.8992309570313
 11
741.435791015625
 21
-443.1128234863281
  0
LINE
  8
0
  6
CONTINUOUS
 62
     7
 10
746
 20
-515.1884765625
 11
771
 21
-515.1884765625
  0
LINE
  8
0
  6
CONTINUOUS
 62
     7
 10
746
 20
-486.6886901855469
 11
771.0000610351563
 21
-497.2597961425781
  0
LINE
  8
0
  6
CONTINUOUS
 62
     7
 10
746
 20
-584.8115234375
 11
771
 21
-584.8115234375
  0
LINE
  8
0
  6
CONTINUOUS
 62
     7
 10
746.0000610351562
 20
-613.311279296875
 11
771
 21
-602.740234375
  0
LINE
  8
0
  6
CONTINUOUS
 62
     7
 10
784.5
 20
-625
 11
817.5
 21
-625
  0
LINE
  8
0
  6
CONTINUOUS
 62
     7
 10
784.5
 20
-475
 11
817.5
 21
-475
  0
LINE
  8
0
  6
CONTINUOUS
 62
     7
 10
784.5
 20
-475.0000305175781
 11
781
 21
-479.1609191894531
  0
LINE
  8
0
  6
CONTINUOUS
 62
     7
 10
817.4999389648437
 20
-474.9999389648438
 11
820.9999389648437
 21
-479.1608581542969
  0
LINE
  8
0
  6
CONTINUOUS
 62
     7
 10
784.5
 20
-624.9999389648437
 11
781
 21
-620.8390502929687
  0
LINE
  8
0
  6
CONTINUOUS
 62
     7
 10
817.5
 20
-625
 11
821
 21
-620.839111328125
  0
LINE
  8
0
  6
CONTINUOUS
 62
     7
 10
784.5
 20
-520.5653076171875
 11
817.5
 21
-520.5653076171875
  0
LINE
  8
0
  6
CONTINUOUS
 62
     7
 10
784.5
 20
-529.2552490234375
 11
817.5
 21
-529.2552490234375
  0
LINE
  8
0
  6
CONTINUOUS
 62
     7
 10
784.5
 20
-537.0502319335937
 11
817.5
 21
-537.0502319335937
  0
LINE
  8
0
  6
CONTINUOUS
 62
     7
 10
784.5
 20
-546.0000610351562
 11
817.5
 21
-546.0000610351562
  0
LINE
  8
0
  6
CONTINUOUS
 62
     7
 10
784.5
 20
-554.0001220703125
 11
817.5
 21
-554.0001220703125
  0
LINE
  8
0
  6
CONTINUOUS
 62
     7
 10
784.5
 20
-562.949951171875
 11
817.5
 21
-562.949951171875
  0
LINE
  8
0
  6
CONTINUOUS
 62
     7
 10
784.5
 20
-570.744873046875
 11
817.5
 21
-570.744873046875
  0
LINE
  8
0
  6
CONTINUOUS
 62
     7
 10
784.5
 20
-579.434814453125
 11
817.5
 21
-579.434814453125
  0
LINE
  8
0
  6
CONTINUOUS
 62
     7
 10
784.5
 20
-595.0232543945312
 11
817.5
 21
-595.0232543945312
  0
LINE
  8
0
  6
CONTINUOUS
 62
     7
 10
784.5
 20
-602.04541015625
 11
817.5
 21
-602.04541015625
  0
LINE
  8
0
  6
CONTINUOUS
 62
     7
 10
784.5
 20
-607.50146484375
 11
817.5
 21
-607.50146484375
  0
LINE
  8
0
  6
CONTINUOUS
 62
     7
 10
784.5
 20
-612.8594360351563
 11
817.5
 21
-612.8594360351563
  0
LINE
  8
0
  6
CONTINUOUS
 62
     7
 10
784.5
 20
-616.8594360351563
 11
817.5
 21
-616.8594360351563
  0
LINE
  8
0
  6
CONTINUOUS
 62
     7
 10
784.5
 20
-620.4512939453125
 11
817.5
 21
-620.4512939453125
  0
LINE
  8
0
  6
CONTINUOUS
 62
     7
 10
625
 20
-402
 11
625
 21
-698
  0
LINE
  8
0
  6
CONTINUOUS
 62
     7
 10
630
 20
-400
 11
698
 21
-400
  0
LINE
  8
0
  6
CONTINUOUS
 62
     7
 10
630
 20
-700
 11
698
 21
-700
  0
LINE
  8
0
  6
CONTINUOUS
 62
     7
 10
625
 20
-405.0000305175781
 11
630
 21
-400.0000305175781
  0
LINE
  8
0
  6
CONTINUOUS
 62
     7
 10
698
 20
-400.0000305175781
 11
703
 21
-405.0000305175781
  0
LINE
  8
0
  6
CONTINUOUS
 62
     7
 10
625
 20
-694.9999389648437
 11
630.0000610351563
 21
-700
  0
LINE
  8
0
  6
CONTINUOUS
 62
     7
 10
698
 20
-700
 11
703
 21
-695
  0
LINE
  8
0
  6
CONTINUOUS
 62
     7
 10
669
 20
-390.0000305175781
 11
637
 21
-390.0000305175781
  0
LINE
  8
0
  6
CONTINUOUS
 62
     7
 10
669
 20
-390.0000305175781
 11
672.6397094726562
 21
-400.0000305175781
  0
LINE
  8
0
  6
CONTINUOUS
 62
     7
 10
637
 20
-390.0001220703125
 11
633.3603515625
 21
-400
  0
LINE
  8
0
  6
CONTINUOUS
 62
     7
 10
630
 20
-406.3724670410156
 11
698
 21
-406.3724670410156
  0
LINE
  8
0
  6
CONTINUOUS
 62
     7
 10
630
 20
-437.4244689941406
 11
698
 21
-437.4244689941406
  0
LINE
  8
0
  6
CONTINUOUS
 62
     7
 10
630
 20
-450.8700866699219
 11
698
 21
-450.8700866699219
  0
LINE
  8
0
  6
CONTINUOUS
 62
     7
 10
630
 20
-462.6091613769531
 11
698
 21
-462.6091613769531
  0
LINE
  8
0
  6
CONTINUOUS
 62
     7
 10
630
 20
-479.0270385742187
 11
698
 21
-479.0270385742187
  0
LINE
  8
0
  6
CONTINUOUS
 62
     7
 10
630
 20
-506.7433471679687
 11
698
 21
-506.7433471679687
  0
LINE
  8
0
  6
CONTINUOUS
 62
     7
 10
630
 20
-525.5888671875
 11
698
 21
-525.5888671875
  0
LINE
  8
0
  6
CONTINUOUS
 62
     7
 10
630
 20
-540.4924926757813
 11
698
 21
-540.4924926757813
  0
LINE
  8
0
  6
CONTINUOUS
 62
     7
 10
630
 20
-559.5074462890625
 11
698
 21
-559.5074462890625
  0
LINE
  8
0
  6
CONTINUOUS
 62
     7
 10
630
 20
-574.4110107421875
 11
698
 21
-574.4110107421875
  0
LINE
  8
0
  6
CONTINUOUS
 62
     7
 10
630
 20
-593.256591796875
 11
698
 21
-593.256591796875
  0
LINE
  8
0
  6
CONTINUOUS
 62
     7
 10
630
 20
-620.9730224609375
 11
698
 21
-620.9730224609375
  0
LINE
  8
0
  6
CONTINUOUS
 62
     7
 10
630
 20
-637.390869140625
 11
698
 21
-637.390869140625
  0
LINE
  8
0
  6
CONTINUOUS
 62
     7
 10
630
 20
-649.1300048828125
 11
698
 21
-649.1300048828125
  0
LINE
  8
0
  6
CONTINUOUS
 62
     7
 10
630
 20
-662.5756225585938
 11
698
 21
-662.5756225585938
  0
LINE
  8
0
  6
CONTINUOUS
 62
     7
 10
630
 20
-671.9133911132812
 11
698
 21
-671.9133911132812
  0
LINE
  8
0
  6
CONTINUOUS
 62
     7
 10
630
 20
-682.14697265625
 11
698
 21
-682.14697265625
  0
LINE
  8
0
  6
CONTINUOUS
 62
     7
 10
630
 20
-693.6275634765625
 11
698
 21
-693.6275634765625
  0
LINE
  8
0
  6
CONTINUOUS
 62
     7
 10
640.5
 20
-387.0000305175781
 11
641.7955322265625
 21
-379.6527404785156
  0
LINE
  8
0
  6
CONTINUOUS
 62
     7
 10
664.2045288085937
 20
-379.6527099609375
 11
665.5000610351563
 21
-387.0000305175781
  0
LINE
  8
0
  6
CONTINUOUS
 62
     7
 10
643.76513671875
 20
-378.0000305175781
 11
662.23486328125
 21
-378.0000305175781
  0
LINE
  8
0
  6
CONTINUOUS
 62
     7
 10
643.341796875
 20
-378.0453186035156
 11
652.57666015625
 21
-376.0453186035156
  0
LINE
  8
0
  6
CONTINUOUS
 62
     7
 10
653.42333984375
 20
-376.0453186035156
 11
662.6582641601563
 21
-378.0453186035156
  0
LINE
  8
0
  6
CONTINUOUS
 62
     7
 10
640.5
 20
-387.0000305175781
 11
640.5
 21
-390.0000305175781
  0
LINE
  8
0
  6
CONTINUOUS
 62
     7
 10
665.5
 20
-387.0000305175781
 11
665.5
 21
-390.0000305175781
  0
LINE
  8
0
  6
CONTINUOUS
 62
     7
 10
510
 20
-350
 11
510
 21
-437.8723754882812
  0
LINE
  8
0
  6
CONTINUOUS
 62
     7
 10
510
 20
-750
 11
535
 21
-750
  0
LINE
  8
0
  6
CONTINUOUS
 62
     7
 10
510
 20
-350
 11
535
 21
-350
  0
LINE
  8
0
  6
CONTINUOUS
 62
     7
 10
535
 20
-350
 11
535
 21
-750
  0
LINE
  8
0
  6
CONTINUOUS
 62
     7
 10
545
 20
-402
 11
625
 21
-402
  0
LINE
  8
0
  6
CONTINUOUS
 62
     7
 10
603
 20
-698
 11
625
 21
-698
  0
LINE
  8
0
  6
CONTINUOUS
 62
     7
 10
603
 20
-402
 11
603
 21
-698
  0
LINE
  8
0
  6
CONTINUOUS
 62
     7
 10
576.3798828125
 20
-487.6568298339844
 11
598
 21
-487.6568298339844
  0
LINE
  8
0
  6
CONTINUOUS
 62
     7
 10
535
 20
-401.9161071777344
 11
603.0000610351563
 21
-438.8349609375
  0
LINE
  8
0
  6
CONTINUOUS
 62
     7
 10
535.0000610351562
 20
-423.1293334960937
 11
603
 21
-460.0481262207031
  0
LINE
  8
0
  6
CONTINUOUS
 62
     7
 10
538.9332885742187
 20
-461.6587219238281
 11
570.313232421875
 21
-485.6063842773438
  0
LINE
  8
0
  6
CONTINUOUS
 62
     7
 10
538.9332885742187
 20
-638.3412475585937
 11
570.3131713867187
 21
-614.3936157226563
  0
LINE
  8
0
  6
CONTINUOUS
 62
     7
 10
576.3798828125
 20
-612.3431396484375
 11
598
 21
-612.3431396484375
  0
LINE
  8
0
  6
CONTINUOUS
 62
     7
 10
535
 20
-676.8707275390625
 11
603
 21
-639.9518432617188
  0
LINE
  8
0
  6
CONTINUOUS
 62
     7
 10
535
 20
-698.0838623046875
 11
603
 21
-661.1650390625
  0
LINE
  8
0
  6
CONTINUOUS
 62
     7
 10
502
 20
-400
 11
502
 21
-429.2485961914063
  0
LINE
  8
0
  6
CONTINUOUS
 62
     7
 10
502
 20
-400
 11
510
 21
-400
  0
LINE
  8
0
  6
CONTINUOUS
 62
     7
 10
502
 20
-700
 11
510
 21
-700
  0
LINE
  8
0
  6
CONTINUOUS
 62
     7
 10
400
 20
-508
 11
400
 21
-587.5
  0
LINE
  8
0
  6
CONTINUOUS
 62
     7
 10
400
 20
-512.5
 11
510
 21
-512.5
  0
LINE
  8
0
  6
CONTINUOUS
 62
     7
 10
400
 20
-587.5
 11
510
 21
-587.5
  0
LINE
  8
0
  6
CONTINUOUS
 62
     7
 10
502
 20
-651.3932495117187
 11
502
 21
-700
  0
LINE
  8
0
  6
CONTINUOUS
 62
     7
 10
510
 20
-641.0530395507812
 11
510
 21
-750
  0
LINE
  8
0
  6
CONTINUOUS
 62
     7
 10
400
 20
-508
 11
490
 21
-508
  0
LINE
  8
0
  6
CONTINUOUS
 62
     7
 10
510
 20
-592.5
 11
517.0518188476562
 21
-592.5
  0
LINE
  8
0
  6
CONTINUOUS
 62
     7
 10
510
 20
-507.5
 11
513.872314453125
 21
-507.5
  0
LINE
  8
0
  6
CONTINUOUS
 62
     7
 10
510
 20
-507.6000061035156
 11
510
 21
-592.5
  0
LINE
  8
0
  6
CONTINUOUS
 62
     7
 10
561.5
 20
-364.7000122070312
 11
588.5
 21
-364.7000122070312
  0
LINE
  8
0
  6
CONTINUOUS
 62
     7
 10
566.3499755859375
 20
-364.7000122070312
 11
566.3499755859375
 21
-402
  0
LINE
  8
0
  6
CONTINUOUS
 62
     7
 10
583.6500244140625
 20
-364.7000122070312
 11
583.6500244140625
 21
-402
  0
LINE
  8
0
  6
CONTINUOUS
 62
     3
 10
575
 20
-310.0375671386719
 11
575
 21
-417
  0
LINE
  8
0
  6
CONTINUOUS
 62
     7
 10
561.5
 20
-332.7000122070313
 11
588.5
 21
-332.7000122070313
  0
LINE
  8
0
  6
CONTINUOUS
 62
     7
 10
583.071044921875
 20
-318.0500183105469
 11
566.928955078125
 21
-318.0500183105469
  0
LINE
  8
0
  6
CONTINUOUS
 62
     7
 10
583.507568359375
 20
-327.0500183105469
 11
566.492431640625
 21
-327.0500183105469
  0
LINE
  8
0
  6
CONTINUOUS
 62
     7
 10
583.507568359375
 20
-327.0500183105469
 11
583.3309936523438
 21
-332.6999816894531
  0
LINE
  8
0
  6
CONTINUOUS
 62
     7
 10
566.492431640625
 20
-327.0499877929688
 11
566.6690063476562
 21
-332.6999816894531
  0
LINE
  8
0
  6
CONTINUOUS
 62
     7
 10
583.071044921875
 20
-318.0500183105469
 11
583.071044921875
 21
-327.0500183105469
  0
LINE
  8
0
  6
CONTINUOUS
 62
     7
 10
566.928955078125
 20
-318.0500183105469
 11
566.928955078125
 21
-327.0500183105469
  0
LINE
  8
0
  6
CONTINUOUS
 62
     7
 10
588.5
 20
-332.7000122070313
 11
588.5
 21
-364.7000122070312
  0
LINE
  8
0
  6
CONTINUOUS
 62
     7
 10
561.5
 20
-332.7000122070313
 11
561.5
 21
-364.7000122070312
  0
LINE
  8
0
  6
CONTINUOUS
 62
     3
 10
566.928955078125
 20
-327.0499877929688
 11
575
 21
-318.0499572753906
  0
LINE
  8
0
  6
CONTINUOUS
 62
     7
 10
575
 20
-318.0500183105469
 11
575
 21
-327.0500183105469
  0
LINE
  8
0
  6
CONTINUOUS
 62
     3
 10
575
 20
-327.0500183105469
 11
583.071044921875
 21
-318.0500183105469
  0
LINE
  8
0
  6
CONTINUOUS
 62
     3
 10
583.071044921875
 20
-327.0500183105469
 11
575.0000610351563
 21
-318.050048828125
  0
LINE
  8
0
  6
CONTINUOUS
 62
     3
 10
566.9290161132813
 20
-318.0500183105469
 11
575.0000610351563
 21
-327.0499877929688
  0
LINE
  8
0
  6
CONTINUOUS
 62
     7
 10
490
 20
-508
 11
490
 21
-512.5
  0
LINE
  8
0
  6
CONTINUOUS
 62
     7
 10
821
 20
-477.5
 11
821
 21
-622.5
  0
LINE
  8
0
  6
CONTINUOUS
 62
     7
 10
680.9999389648438
 20
-541.5145874023438
 11
672.5146484375
 21
-549.9998779296875
  0
LINE
  8
0
  6
CONTINUOUS
 62
     7
 10
689.4854125976562
 20
-549.9999389648437
 11
681.0001220703125
 21
-541.5146484375
  0
LINE
  8
0
  6
CONTINUOUS
 62
     3
 10
681
 20
-539.492431640625
 11
681
 21
-560.507568359375
  0
LINE
  8
0
  6
CONTINUOUS
 62
     7
 10
681.0000610351562
 20
-558.4853515625
 11
672.5147705078125
 21
-550.0001220703125
  0
LINE
  8
0
  6
CONTINUOUS
 62
     7
 10
689.4852294921875
 20
-550
 11
680.9999389648438
 21
-558.4852905273437
  0
LINE
  8
0
  6
CONTINUOUS
 62
     3
 10
720
 20
-331.6383361816406
 11
720
 21
-407
  0
LINE
  8
0
  6
CONTINUOUS
 62
     3
 10
702.6383056640625
 20
-349
 11
775.469970703125
 21
-349
  0
LINE
  8
0
  6
CONTINUOUS
 62
     7
 10
752
 20
-333
 11
752
 21
-365
  0
LINE
  8
0
  6
CONTINUOUS
 62
     7
 10
704
 20
-381
 11
736
 21
-381
  0
LINE
  8
0
  6
CONTINUOUS
 62
     7
 10
741
 20
-365
 11
752
 21
-365
  0
LINE
  8
0
  6
CONTINUOUS
 62
     7
 10
736
 20
-333
 11
752
 21
-333
  0
LINE
  8
0
  6
CONTINUOUS
 62
     7
 10
704
 20
-365
 11
704
 21
-381
  0
LINE
  8
0
  6
CONTINUOUS
 62
     7
 10
736
 20
-370
 11
736
 21
-381
  0
LINE
  8
0
  6
CONTINUOUS
 62
     7
 10
770.469970703125
 20
-360.1923828125
 11
770.469970703125
 21
-337.8076171875
  0
LINE
  8
0
  6
CONTINUOUS
 62
     7
 10
759.469970703125
 20
-362.4534301757813
 11
759.469970703125
 21
-335.5465698242187
  0
LINE
  8
0
  6
CONTINUOUS
 62
     7
 10
759.4700317382813
 20
-362.4534606933594
 11
752.0000610351562
 21
-362.2200012207031
  0
LINE
  8
0
  6
CONTINUOUS
 62
     7
 10
759.469970703125
 20
-335.5465698242187
 11
752
 21
-335.7799987792969
  0
LINE
  8
0
  6
CONTINUOUS
 62
     7
 10
770.469970703125
 20
-360.1923828125
 11
759.469970703125
 21
-360.1923828125
  0
LINE
  8
0
  6
CONTINUOUS
 62
     7
 10
770.469970703125
 20
-337.8076171875
 11
759.469970703125
 21
-337.8076171875
  0
LINE
  8
0
  6
CONTINUOUS
 62
     3
 10
759.469970703125
 20
-360.1923828125
 11
770.4700317382813
 21
-349
  0
LINE
  8
0
  6
CONTINUOUS
 62
     3
 10
770.4700317382813
 20
-360.1923828125
 11
759.469970703125
 21
-348.9999694824219
  0
LINE
  8
0
  6
CONTINUOUS
 62
     3
 10
759.469970703125
 20
-348.9999694824219
 11
770.469970703125
 21
-337.8075866699219
  0
LINE
  8
0
  6
CONTINUOUS
 62
     3
 10
770.469970703125
 20
-349
 11
759.469970703125
 21
-337.8075866699219
  0
LINE
  8
0
  6
CONTINUOUS
 62
     7
 10
706.5
 20
-381
 11
706.5
 21
-402
  0
LINE
  8
0
  6
CONTINUOUS
 62
     7
 10
733.5
 20
-381
 11
733.5
 21
-402
  0
LINE
  8
0
  6
CONTINUOUS
 62
     7
 10
770.469970703125
 20
-349.0003662109375
 11
759.469970703125
 21
-349.0003662109375
  0
LINE
  8
0
  6
CONTINUOUS
 62
     3
 10
0
 20
-305.25
 11
0
 21
-770
  0
LINE
  8
0
  6
CONTINUOUS
 62
     3
 10
-220
 20
-550
 11
220
 21
-550
  0
LINE
  8
0
  6
CONTINUOUS
 62
     7
 10
-10
 20
-508
 11
-10
 21
-520
  0
LINE
  8
0
  6
CONTINUOUS
 62
     7
 10
10
 20
-508
 11
10
 21
-520
  0
LINE
  8
0
  6
CONTINUOUS
 62
     7
 10
-10
 20
-520
 11
10
 21
-520
  0
LINE
  8
0
  6
CONTINUOUS
 62
     7
 10
-10
 20
-508
 11
10
 21
-508
  0
LINE
  8
0
  6
CONTINUOUS
 62
     3
 10
149.4212036132813
 20
-611.8924560546875
 11
173.5414276123047
 21
-621.8834228515625
  0
LINE
  8
0
  6
CONTINUOUS
 62
     3
 10
149.4212493896484
 20
-488.1076354980469
 11
173.5415344238281
 21
-478.11669921875
  0
LINE
  8
0
  6
CONTINUOUS
 62
     3
 10
61.89230728149414
 20
-400.5787963867187
 11
71.88325500488281
 21
-376.45849609375
  0
LINE
  8
0
  6
CONTINUOUS
 62
     3
 10
-61.89223480224609
 20
-400.5787658691406
 11
-71.88318634033203
 21
-376.4584655761719
  0
LINE
  8
0
  6
CONTINUOUS
 62
     3
 10
-149.4211883544922
 20
-488.1076354980469
 11
-173.5414123535156
 21
-478.11669921875
  0
LINE
  8
0
  6
CONTINUOUS
 62
     3
 10
-149.4212493896484
 20
-611.8922119140625
 11
-173.5414733886719
 21
-621.8831787109375
  0
LINE
  8
0
  6
CONTINUOUS
 62
     3
 10
-61.89249801635742
 20
-699.4210815429688
 11
-71.8834228515625
 21
-723.5413208007813
  0
LINE
  8
0
  6
CONTINUOUS
 62
     3
 10
61.89203262329102
 20
-699.4213256835937
 11
71.88294982910156
 21
-723.5415649414062
  0
LINE
  8
0
  6
CONTINUOUS
 62
     3
 10
52.31839752197266
 20
-459.3819885253906
 11
42.56134796142578
 21
-476.2817077636719
  0
LINE
  8
0
  6
CONTINUOUS
 62
     3
 10
-52.31833267211914
 20
-459.3819274902344
 11
-42.56128311157227
 21
-476.2816162109375
  0
LINE
  8
0
  6
CONTINUOUS
 62
     3
 10
-52.31827926635742
 20
-640.6180419921875
 11
-42.56122589111328
 21
-623.7183227539063
  0
LINE
  8
0
  6
CONTINUOUS
 62
     3
 10
52.31835556030273
 20
-640.6179809570312
 11
42.56130599975586
 21
-623.71826171875
  0
LINE
  8
0
  6
CONTINUOUS
 62
     7
 10
-13.5
 20
-332.7000122070313
 11
13.5
 21
-332.7000122070313
  0
LINE
  8
0
  6
CONTINUOUS
 62
     7
 10
8.071044921875
 20
-318.0500183105469
 11
-8.071044921875
 21
-318.0500183105469
  0
LINE
  8
0
  6
CONTINUOUS
 62
     7
 10
8.507568359375
 20
-327.0500183105469
 11
-8.507568359375
 21
-327.0500183105469
  0
LINE
  8
0
  6
CONTINUOUS
 62
     7
 10
8.507533073425293
 20
-327.0499877929688
 11
8.330971717834473
 21
-332.6999816894531
  0
LINE
  8
0
  6
CONTINUOUS
 62
     7
 10
-8.507612228393555
 20
-327.050048828125
 11
-8.331049919128418
 21
-332.7000122070313
  0
LINE
  8
0
  6
CONTINUOUS
 62
     7
 10
8.071044921875
 20
-318.0500183105469
 11
8.071044921875
 21
-327.0500183105469
  0
LINE
  8
0
  6
CONTINUOUS
 62
     7
 10
-8.071044921875
 20
-318.0500183105469
 11
-8.071044921875
 21
-327.0500183105469
  0
LINE
  8
0
  6
CONTINUOUS
 62
     7
 10
13.5
 20
-332.7000122070313
 11
13.5
 21
-350.4561462402344
  0
LINE
  8
0
  6
CONTINUOUS
 62
     7
 10
-13.5
 20
-332.7000122070313
 11
-13.5
 21
-350.4561462402344
  0
LINE
  8
0
  6
CONTINUOUS
 62
     3
 10
-8.071045875549316
 20
-327.0500183105469
 11
6.92299181537237E-07
 21
-318.0500183105469
  0
LINE
  8
0
  6
CONTINUOUS
 62
     3
 10
-8.071061134338379
 20
-318.050048828125
 11
-4.447970241017174E-06
 21
-327.050048828125
  0
LINE
  8
0
  6
CONTINUOUS
 62
     3
 10
2.482273703208193E-05
 20
-327.0500183105469
 11
8.071061134338379
 21
-318.050048828125
  0
LINE
  8
0
  6
CONTINUOUS
 62
     3
 10
8.071044921875
 20
-327.050048828125
 11
2.869731179089285E-05
 21
-318.0500793457031
  0
LINE
  8
0
  6
CONTINUOUS
 62
     7
 10
0
 20
-318.0500183105469
 11
0
 21
-327.0500183105469
  0
LINE
  8
0
  6
CONTINUOUS
 62
     3
 10
380
 20
0
 11
910.9764404296875
 21
0
  0
LINE
  8
0
  6
CONTINUOUS
 62
     7
 10
703
 20
148.0000152587891
 11
703
 21
-147.9999847412109
  0
LINE
  8
0
  6
CONTINUOUS
 62
     7
 10
703
 20
-148
 11
723
 21
-148
  0
LINE
  8
0
  6
CONTINUOUS
 62
     7
 10
703
 20
148
 11
723
 21
148
  0
LINE
  8
0
  6
CONTINUOUS
 62
     7
 10
746
 20
101.906135559082
 11
746
 21
16.00000953674316
  0
LINE
  8
0
  6
CONTINUOUS
 62
     7
 10
727.564208984375
 20
-108.100456237793
 11
741.435791015625
 21
-106.886848449707
  0
LINE
  8
0
  6
CONTINUOUS
 62
     7
 10
741.4359130859375
 20
106.887451171875
 11
742.5643310546875
 21
106.7887268066406
  0
LINE
  8
0
  6
CONTINUOUS
 62
     7
 10
781
 20
72.50000762939453
 11
781
 21
-72.49999237060547
  0
LINE
  8
0
  6
CONTINUOUS
 62
     7
 10
771
 20
72.50000762939453
 11
771
 21
-72.49999237060547
  0
LINE
  8
0
  6
CONTINUOUS
 62
     7
 10
771
 20
-72.5
 11
781
 21
-72.5
  0
LINE
  8
0
  6
CONTINUOUS
 62
     7
 10
771
 20
72.5
 11
781
 21
72.5
  0
LINE
  8
0
  6
CONTINUOUS
 62
     7
 10
723
 20
148.0000152587891
 11
723
 21
28.72284698486328
  0
LINE
  8
0
  6
CONTINUOUS
 62
     7
 10
727.5643310546875
 20
108.1010589599609
 11
741.4359130859375
 21
106.887451171875
  0
LINE
  8
0
  6
CONTINUOUS
 62
     7
 10
723
 20
-28.72283172607422
 11
723
 21
-147.9999847412109
  0
LINE
  8
0
  6
CONTINUOUS
 62
     7
 10
746
 20
-31.98541259765625
 11
771
 21
-31.98541259765625
  0
LINE
  8
0
  6
CONTINUOUS
 62
     7
 10
771.0000610351563
 20
-49.56256103515625
 11
746
 21
-59.42026901245117
  0
LINE
  8
0
  6
CONTINUOUS
 62
     7
 10
746
 20
31.98541259765625
 11
771
 21
31.98541259765625
  0
LINE
  8
0
  6
CONTINUOUS
 62
     7
 10
770.9999389648437
 20
49.56260681152344
 11
746
 21
59.42026901245117
  0
LINE
  8
0
  6
CONTINUOUS
 62
     7
 10
784.5
 20
75
 11
817.5
 21
75
  0
LINE
  8
0
  6
CONTINUOUS
 62
     7
 10
784.5
 20
74.99998474121094
 11
781
 21
70.83908843994141
  0
LINE
  8
0
  6
CONTINUOUS
 62
     7
 10
817.5
 20
75.00000762939453
 11
821
 21
70.839111328125
  0
LINE
  8
0
  6
CONTINUOUS
 62
     7
 10
817.4999389648437
 20
-75.00003051757812
 11
820.9999389648437
 21
-70.83913421630859
  0
LINE
  8
0
  6
CONTINUOUS
 62
     7
 10
784.5
 20
-75
 11
817.5
 21
-75
  0
LINE
  8
0
  6
CONTINUOUS
 62
     7
 10
784.5
 20
-75.00003051757812
 11
781.0000610351563
 21
-70.83917999267578
  0
LINE
  8
0
  6
CONTINUOUS
 62
     7
 10
784.5
 20
72.07391357421875
 11
817.5
 21
72.07391357421875
  0
LINE
  8
0
  6
CONTINUOUS
 62
     7
 10
784.5
 20
68.98248291015625
 11
817.5
 21
68.98248291015625
  0
LINE
  8
0
  6
CONTINUOUS
 62
     7
 10
784.5
 20
59.98248291015625
 11
817.5
 21
59.98248291015625
  0
LINE
  8
0
  6
CONTINUOUS
 62
     7
 10
784.5
 20
54.0025634765625
 11
817.5
 21
54.0025634765625
  0
LINE
  8
0
  6
CONTINUOUS
 62
     7
 10
784.5
 20
40.91082763671875
 11
817.5
 21
40.91082763671875
  0
LINE
  8
0
  6
CONTINUOUS
 62
     7
 10
784.5
 20
48.15167236328125
 11
817.5
 21
48.15167236328125
  0
LINE
  8
0
  6
CONTINUOUS
 62
     7
 10
784.5
 20
33.98260498046875
 11
817.5
 21
33.98260498046875
  0
LINE
  8
0
  6
CONTINUOUS
 62
     7
 10
784.5
 20
25.72198486328125
 11
817.5
 21
25.72198486328125
  0
LINE
  8
0
  6
CONTINUOUS
 62
     7
 10
784.5
 20
18.07147216796875
 11
812.6163330078125
 21
18.07147216796875
  0
LINE
  8
0
  6
CONTINUOUS
 62
     7
 10
784.5
 20
9.00006103515625
 11
817.5
 21
9.00006103515625
  0
LINE
  8
0
  6
CONTINUOUS
 62
     7
 10
784.5
 20
-68.98260498046875
 11
817.5
 21
-68.98260498046875
  0
LINE
  8
0
  6
CONTINUOUS
 62
     7
 10
784.5
 20
-72.073974609375
 11
817.5
 21
-72.073974609375
  0
LINE
  8
0
  6
CONTINUOUS
 62
     7
 10
630
 20
150.0000610351562
 11
698
 21
150.0000610351562
  0
LINE
  8
0
  6
CONTINUOUS
 62
     7
 10
630
 20
-150
 11
698
 21
-150
  0
LINE
  8
0
  6
CONTINUOUS
 62
     7
 10
625.0001831054688
 20
144.9998931884766
 11
630.0001831054688
 21
149.9998779296875
  0
LINE
  8
0
  6
CONTINUOUS
 62
     7
 10
697.9998779296875
 20
150.0001678466797
 11
702.9998779296875
 21
145.0001831054687
  0
LINE
  8
0
  6
CONTINUOUS
 62
     7
 10
624.9999389648437
 20
-144.9998168945312
 11
630
 21
-149.9998779296875
  0
LINE
  8
0
  6
CONTINUOUS
 62
     7
 10
698.0001831054688
 20
-150.0001373291016
 11
703.0001831054687
 21
-145.0001525878906
  0
LINE
  8
0
  6
CONTINUOUS
 62
     7
 10
630.0001831054688
 20
143.6275634765625
 11
697.9998779296875
 21
143.6275634765625
  0
LINE
  8
0
  6
CONTINUOUS
 62
     7
 10
630.0001831054688
 20
132.1470336914063
 11
697.9998779296875
 21
132.1470336914063
  0
LINE
  8
0
  6
CONTINUOUS
 62
     7
 10
630.0001831054688
 20
121.913330078125
 11
697.9998779296875
 21
121.913330078125
  0
LINE
  8
0
  6
CONTINUOUS
 62
     7
 10
630.0001831054688
 20
112.5756225585938
 11
697.9998779296875
 21
112.5756225585938
  0
LINE
  8
0
  6
CONTINUOUS
 62
     7
 10
630.0001831054688
 20
99.1300048828125
 11
697.9998779296875
 21
99.1300048828125
  0
LINE
  8
0
  6
CONTINUOUS
 62
     7
 10
630.0001831054688
 20
43.2567138671875
 11
697.9998779296875
 21
43.2567138671875
  0
LINE
  8
0
  6
CONTINUOUS
 62
     7
 10
630.0001831054688
 20
25.00006103515625
 11
697.9998779296875
 21
25.00006103515625
  0
LINE
  8
0
  6
CONTINUOUS
 62
     7
 10
630.0001831054688
 20
-25
 11
697.9999389648437
 21
-25
  0
LINE
  8
0
  6
CONTINUOUS
 62
     7
 10
630.0001831054688
 20
-43.25653076171875
 11
697.9999389648437
 21
-43.25653076171875
  0
LINE
  8
0
  6
CONTINUOUS
 62
     7
 10
630.0001831054688
 20
-99.12994384765625
 11
697.9999389648437
 21
-99.12994384765625
  0
LINE
  8
0
  6
CONTINUOUS
 62
     7
 10
630.0001831054688
 20
-112.5755615234375
 11
697.9999389648437
 21
-112.5755615234375
  0
LINE
  8
0
  6
CONTINUOUS
 62
     7
 10
630.0001831054688
 20
-121.9132690429687
 11
697.9999389648437
 21
-121.9132690429687
  0
LINE
  8
0
  6
CONTINUOUS
 62
     7
 10
630.0001831054688
 20
-132.1470336914063
 11
697.9999389648437
 21
-132.1470336914063
  0
LINE
  8
0
  6
CONTINUOUS
 62
     7
 10
630.0001831054688
 20
-143.6275329589844
 11
697.9999389648437
 21
-143.6275329589844
  0
LINE
  8
0
  6
CONTINUOUS
 62
     7
 10
632.9999389648437
 20
5
 11
672.9999389648438
 21
5
  0
LINE
  8
0
  6
CONTINUOUS
 62
     7
 10
632.9999389648437
 20
-5
 11
672.9999389648438
 21
-5
  0
LINE
  8
0
  6
CONTINUOUS
 62
     7
 10
625
 20
148
 11
625
 21
-148
  0
LINE
  8
0
  6
CONTINUOUS
 62
     7
 10
510
 20
200
 11
510
 21
90.97784423828125
  0
LINE
  8
0
  6
CONTINUOUS
 62
     7
 10
510
 20
-200
 11
535
 21
-200
  0
LINE
  8
0
  6
CONTINUOUS
 62
     7
 10
510
 20
200
 11
535
 21
200
  0
LINE
  8
0
  6
CONTINUOUS
 62
     7
 10
603
 20
148
 11
625
 21
148
  0
LINE
  8
0
  6
CONTINUOUS
 62
     7
 10
603
 20
-148
 11
625
 21
-148
  0
LINE
  8
0
  6
CONTINUOUS
 62
     7
 10
603
 20
148
 11
603
 21
20.0000057220459
  0
LINE
  8
0
  6
CONTINUOUS
 62
     7
 10
576.3799438476562
 20
-62.3431396484375
 11
598
 21
-62.3431396484375
  0
LINE
  8
0
  6
CONTINUOUS
 62
     7
 10
576.3798828125
 20
62.3431396484375
 11
598
 21
62.3431396484375
  0
LINE
  8
0
  6
CONTINUOUS
 62
     7
 10
535
 20
-20
 11
603
 21
-20
  0
LINE
  8
0
  6
CONTINUOUS
 62
     7
 10
535
 20
20
 11
603
 21
20
  0
LINE
  8
0
  6
CONTINUOUS
 62
     7
 10
603
 20
-19.9999942779541
 11
603
 21
-148
  0
LINE
  8
0
  6
CONTINUOUS
 62
     7
 10
535.0000610351562
 20
148.0839080810547
 11
603
 21
111.1651000976562
  0
LINE
  8
0
  6
CONTINUOUS
 62
     7
 10
535
 20
126.8706665039063
 11
603.0000610351563
 21
89.95182800292969
  0
LINE
  8
0
  6
CONTINUOUS
 62
     7
 10
538.9332885742187
 20
88.34128570556641
 11
570.3131713867187
 21
64.39365386962891
  0
LINE
  8
0
  6
CONTINUOUS
 62
     7
 10
538.9332885742187
 20
-88.34127044677734
 11
570.3131713867187
 21
-64.39363098144531
  0
LINE
  8
0
  6
CONTINUOUS
 62
     7
 10
535
 20
-126.8706817626953
 11
603
 21
-89.95184326171875
  0
LINE
  8
0
  6
CONTINUOUS
 62
     7
 10
535
 20
-148.0838623046875
 11
603
 21
-111.1650390625
  0
LINE
  8
0
  6
CONTINUOUS
 62
     7
 10
535
 20
200
 11
535
 21
-200
  0
LINE
  8
0
  6
CONTINUOUS
 62
     7
 10
510
 20
42.5
 11
515.1341552734375
 21
42.5
  0
LINE
  8
0
  6
CONTINUOUS
 62
     7
 10
510
 20
-42.5
 11
516.2838134765625
 21
-42.5
  0
LINE
  8
0
  6
CONTINUOUS
 62
     7
 10
502
 20
150
 11
502
 21
97.3695068359375
  0
LINE
  8
0
  6
CONTINUOUS
 62
     7
 10
502
 20
150
 11
510
 21
150
  0
LINE
  8
0
  6
CONTINUOUS
 62
     7
 10
502
 20
-150
 11
510
 21
-150
  0
LINE
  8
0
  6
CONTINUOUS
 62
     7
 10
400
 20
37.5
 11
400
 21
-37.5
  0
LINE
  8
0
  6
CONTINUOUS
 62
     7
 10
400
 20
37.5
 11
510
 21
37.5
  0
LINE
  8
0
  6
CONTINUOUS
 62
     7
 10
400
 20
-37.5
 11
510
 21
-37.5
  0
LINE
  8
0
  6
CONTINUOUS
 62
     7
 10
502
 20
-94.56884765625
 11
502
 21
-150
  0
LINE
  8
0
  6
CONTINUOUS
 62
     7
 10
510
 20
-88.9996337890625
 11
510
 21
-200
  0
LINE
  8
0
  6
CONTINUOUS
 62
     7
 10
400
 20
-10
 11
495
 21
-10
  0
LINE
  8
0
  6
CONTINUOUS
 62
     7
 10
400
 20
10
 11
495
 21
10
  0
LINE
  8
0
  6
CONTINUOUS
 62
     7
 10
510
 20
42.40002822875977
 11
510
 21
-42.49999618530273
  0
LINE
  8
0
  6
CONTINUOUS
 62
     7
 10
583.4852905273438
 20
-1.856630842667073E-05
 11
575.0000610351563
 21
8.48521900177002
  0
LINE
  8
0
  6
CONTINUOUS
 62
     7
 10
575.0000610351563
 20
8.485233306884766
 11
566.5147705078125
 21
-4.775362322106957E-05
  0
LINE
  8
0
  6
CONTINUOUS
 62
     7
 10
574.9999389648438
 20
-8.485286712646484
 11
566.5147094726563
 21
-4.775361958309077E-05
  0
LINE
  8
0
  6
CONTINUOUS
 62
     7
 10
583.4852905273438
 20
-5.520988997886889E-05
 11
575
 21
-8.485335350036621
  0
LINE
  8
0
  6
CONTINUOUS
 62
     3
 10
575
 20
15.72766590118408
 11
575
 21
-15.83092784881592
  0
LINE
  8
0
  6
CONTINUOUS
 62
     7
 10
490
 20
10.00000190734863
 11
490
 21
-9.999998092651367
  0
LINE
  8
0
  6
CONTINUOUS
 62
     7
 10
821.0000610351562
 20
-72.50002288818359
 11
821.0000610351562
 21
10.77445793151855
  0
LINE
  8
0
  6
CONTINUOUS
 62
     3
 10
681.0000610351562
 20
-139.9926147460938
 11
681.0000610351562
 21
-171.6517333984375
  0
LINE
  8
0
  6
CONTINUOUS
 62
     7
 10
672.9290161132812
 20
-164.6499938964844
 11
689.0711059570312
 21
-164.6499938964844
  0
LINE
  8
0
  6
CONTINUOUS
 62
     7
 10
672.4924926757813
 20
-155.6499938964844
 11
689.5076293945312
 21
-155.6499938964844
  0
LINE
  8
0
  6
CONTINUOUS
 62
     7
 10
672.4924926757813
 20
-155.6499938964844
 11
672.6690673828125
 21
-150
  0
LINE
  8
0
  6
CONTINUOUS
 62
     7
 10
689.5076293945312
 20
-155.6499938964844
 11
689.3310546875
 21
-149.9999847412109
  0
LINE
  8
0
  6
CONTINUOUS
 62
     7
 10
672.9290161132812
 20
-164.6499938964844
 11
672.9290161132812
 21
-155.6499938964844
  0
LINE
  8
0
  6
CONTINUOUS
 62
     7
 10
689.0711059570312
 20
-164.6499938964844
 11
689.0711059570312
 21
-155.6499938964844
  0
LINE
  8
0
  6
CONTINUOUS
 62
     7
 10
681.0000610351562
 20
-164.6499938964844
 11
681.0000610351562
 21
-155.6499938964844
  0
LINE
  8
0
  6
CONTINUOUS
 62
     3
 10
672.9290161132812
 20
-155.6500549316406
 11
681
 21
-164.6500091552734
  0
LINE
  8
0
  6
CONTINUOUS
 62
     3
 10
672.9288940429688
 20
-164.64990234375
 11
680.9999389648438
 21
-155.64990234375
  0
LINE
  8
0
  6
CONTINUOUS
 62
     3
 10
681
 20
-155.6500549316406
 11
689.0711059570312
 21
-164.6500549316406
  0
LINE
  8
0
  6
CONTINUOUS
 62
     3
 10
680.9999389648438
 20
-164.6499328613281
 11
689.071044921875
 21
-155.6499328613281
  0
LINE
  8
0
  6
CONTINUOUS
 62
     3
 10
720
 20
21.00000762939453
 11
720
 21
-20.99999237060547
  0
LINE
  8
0
  6
CONTINUOUS
 62
     7
 10
720
 20
-16
 11
752
 21
-16
  0
LINE
  8
0
  6
CONTINUOUS
 62
     7
 10
720
 20
16
 11
752
 21
16
  0
LINE
  8
0
  6
CONTINUOUS
 62
     7
 10
770.469970703125
 20
-11.19238090515137
 11
770.469970703125
 21
11.19239234924316
  0
LINE
  8
0
  6
CONTINUOUS
 62
     7
 10
759.469970703125
 20
-13.45342826843262
 11
759.469970703125
 21
13.45344734191895
  0
LINE
  8
0
  6
CONTINUOUS
 62
     7
 10
759.4700317382813
 20
-13.45343589782715
 11
752
 21
-13.21999740600586
  0
LINE
  8
0
  6
CONTINUOUS
 62
     7
 10
759.469970703125
 20
13.45342350006104
 11
752
 21
13.2199878692627
  0
LINE
  8
0
  6
CONTINUOUS
 62
     7
 10
770.4700317382813
 20
-11.19239044189453
 11
759.4700317382813
 21
-11.19239044189453
  0
LINE
  8
0
  6
CONTINUOUS
 62
     7
 10
770.469970703125
 20
11.19239044189453
 11
759.469970703125
 21
11.19239044189453
  0
LINE
  8
0
  6
CONTINUOUS
 62
     7
 10
770.469970703125
 20
0
 11
759.469970703125
 21
0
  0
LINE
  8
0
  6
CONTINUOUS
 62
     3
 10
759.469970703125
 20
-11.19235992431641
 11
770.469970703125
 21
3.728395313373767E-05
  0
LINE
  8
0
  6
CONTINUOUS
 62
     3
 10
770.469970703125
 20
-11.19237422943115
 11
759.469970703125
 21
2.704457074287347E-05
  0
LINE
  8
0
  6
CONTINUOUS
 62
     3
 10
759.469970703125
 20
-2.416857023490593E-05
 11
770.469970703125
 21
11.19237327575684
  0
LINE
  8
0
  6
CONTINUOUS
 62
     3
 10
770.469970703125
 20
-3.811674105236307E-05
 11
759.469970703125
 21
11.19236278533936
  0
LINE
  8
0
  6
CONTINUOUS
 62
     7
 10
752
 20
16.00000953674316
 11
752
 21
-15.99999046325684
  0
LINE
  8
0
  6
CONTINUOUS
 62
     7
 10
746
 20
-15.99999141693115
 11
746
 21
-101.9060592651367
  0
LINE
  8
0
  6
CONTINUOUS
 62
     7
 10
822.000244140625
 20
-72.50002288818359
 11
821.0001831054688
 21
-71.49996185302734
  0
LINE
  8
0
  6
CONTINUOUS
 62
     7
 10
822.000244140625
 20
72.50002288818359
 11
821.0001831054688
 21
71.49996185302734
  0
LINE
  8
0
  6
CONTINUOUS
 62
     7
 10
836
 20
-555
 11
876
 21
-555
  0
LINE
  8
0
  6
CONTINUOUS
 62
     7
 10
836
 20
-545
 11
876
 21
-545
  0
LINE
  8
0
  6
CONTINUOUS
 62
     7
 10
836
 20
-494
 11
876
 21
-494
  0
LINE
  8
0
  6
CONTINUOUS
 62
     7
 10
836
 20
-606
 11
876
 21
-606
  0
LINE
  8
0
  6
CONTINUOUS
 62
     7
 10
841
 20
-591
 11
871
 21
-591
  0
LINE
  8
0
  6
CONTINUOUS
 62
     7
 10
841
 20
-509
 11
871
 21
-509
  0
LINE
  8
0
  6
CONTINUOUS
 62
     7
 10
821
 20
-477.5
 11
836
 21
-477.5
  0
LINE
  8
0
  6
CONTINUOUS
 62
     7
 10
821
 20
-622.5
 11
836
 21
-622.5
  0
LINE
  8
0
  6
CONTINUOUS
 62
     7
 10
836
 20
-477.5
 11
836
 21
-622.5
  0
LINE
  8
0
  6
CONTINUOUS
 62
     7
 10
876
 20
-450
 11
876
 21
-650
  0
LINE
  8
0
  6
CONTINUOUS
 62
     7
 10
876
 20
-450
 11
891
 21
-450
  0
LINE
  8
0
  6
CONTINUOUS
 62
     7
 10
876
 20
-650
 11
891
 21
-650
  0
LINE
  8
0
  6
CONTINUOUS
 62
     7
 10
891
 20
-450
 11
891
 21
-650
  0
LINE
  8
0
  6
CONTINUOUS
 62
     7
 10
821
 20
-477.5
 11
821
 21
-622.5
  0
LINE
  8
0
  6
CONTINUOUS
 62
     7
 10
829
 20
-477.0897827148438
 11
829.4102172851563
 21
-477.4999694824219
  0
LINE
  8
0
  6
CONTINUOUS
 62
     7
 10
827.0001220703125
 20
-477.0896911621094
 11
827.4103393554687
 21
-477.4998779296875
  0
LINE
  8
0
  6
CONTINUOUS
 62
     7
 10
829
 20
-480.2459716796875
 11
829
 21
-441.255859375
  0
LINE
  8
0
  6
CONTINUOUS
 62
     7
 10
809.579345703125
 20
-460.08984375
 11
847.9560546875
 21
-460.08984375
  0
LINE
  8
0
  6
CONTINUOUS
 62
     7
 10
820.9998168945312
 20
-477.0899963378906
 11
821.5900268554688
 21
-473.7427062988281
  0
LINE
  8
0
  6
CONTINUOUS
 62
     7
 10
823.559814453125
 20
-472.08984375
 11
834.440185546875
 21
-472.08984375
  0
LINE
  8
0
  6
CONTINUOUS
 62
     7
 10
822.86962890625
 20
-472.2127380371094
 11
828.65966796875
 21
-470.0841064453125
  0
LINE
  8
0
  6
CONTINUOUS
 62
     7
 10
829.3401489257813
 20
-470.0840454101563
 11
835.1302490234375
 21
-472.2126770019531
  0
LINE
  8
0
  6
CONTINUOUS
 62
     7
 10
820.998779296875
 20
-477.08984375
 11
837
 21
-477.08984375
  0
LINE
  8
0
  6
CONTINUOUS
 62
     7
 10
821.300048828125
 20
-477.08984375
 11
821.300048828125
 21
-477.5
  0
LINE
  8
0
  6
CONTINUOUS
 62
     7
 10
836.699951171875
 20
-477.08984375
 11
836.699951171875
 21
-479.08984375
  0
LINE
  8
0
  6
CONTINUOUS
 62
     7
 10
836
 20
-479.08984375
 11
836.699951171875
 21
-479.08984375
  0
LINE
  8
0
  6
CONTINUOUS
 62
     7
 10
836.4097900390625
 20
-473.7425231933594
 11
837
 21
-477.0898132324219
  0
LINE
  8
0
  6
CONTINUOUS
 62
     7
 10
836.0000610351563
 20
5
 11
876.0000610351562
 21
5
  0
LINE
  8
0
  6
CONTINUOUS
 62
     7
 10
836.0000610351563
 20
-5
 11
876.0000610351562
 21
-5
  0
LINE
  8
0
  6
CONTINUOUS
 62
     7
 10
836.0000610351563
 20
56
 11
876.0000610351562
 21
56
  0
LINE
  8
0
  6
CONTINUOUS
 62
     7
 10
836.0000610351563
 20
-56
 11
876.0000610351562
 21
-56
  0
LINE
  8
0
  6
CONTINUOUS
 62
     7
 10
841.0000610351563
 20
-41
 11
871.0000610351563
 21
-41
  0
LINE
  8
0
  6
CONTINUOUS
 62
     7
 10
841.0000610351563
 20
41
 11
871.0000610351563
 21
41
  0
LINE
  8
0
  6
CONTINUOUS
 62
     7
 10
876.0000610351562
 20
100
 11
876.0000610351562
 21
-100
  0
LINE
  8
0
  6
CONTINUOUS
 62
     7
 10
876.0000610351562
 20
-100
 11
891.0000610351562
 21
-100
  0
LINE
  8
0
  6
CONTINUOUS
 62
     7
 10
891.0000610351562
 20
100
 11
891.0000610351562
 21
-100
  0
LINE
  8
0
  6
CONTINUOUS
 62
     7
 10
821.0000610351562
 20
20.85110855102539
 11
821.0000610351562
 21
72.5
  0
LINE
  8
0
  6
CONTINUOUS
 62
     7
 10
876.0000610351562
 20
100
 11
891.0000610351562
 21
100
  0
LINE
  8
0
  6
CONTINUOUS
 62
     7
 10
836.0000610351563
 20
20.971923828125
 11
836.0000610351563
 21
72.5
  0
LINE
  8
0
  6
CONTINUOUS
 62
     7
 10
821.0000610351562
 20
72.5
 11
836.0000610351563
 21
72.5
  0
LINE
  8
0
  6
CONTINUOUS
 62
     7
 10
821.0000610351562
 20
-72.5
 11
836.0000610351563
 21
-72.5
  0
LINE
  8
0
  6
CONTINUOUS
 62
     7
 10
836.0000610351563
 20
-72.5
 11
836.0000610351563
 21
9.170654296875
  0
LINE
  8
0
  6
CONTINUOUS
 62
     7
 10
821.0000610351562
 20
-72.5
 11
821.0000610351562
 21
11.0224609375
  0
LINE
  8
0
  6
CONTINUOUS
 62
     7
 10
653
 20
-329.7970581054687
 11
653
 21
-403.4772338867188
  0
LINE
  8
0
  6
CONTINUOUS
 62
     7
 10
622.2387084960938
 20
-361.0000305175781
 11
684.5159912109375
 21
-361.0000305175781
  0
ARC
  8
0
  6
CONTINUOUS
 62
     7
 10
741
 20
-651.9061279296875
 40
4.999999999999999
 50
275.0001399302667
 51
0
  0
ARC
  8
0
  6
CONTINUOUS
 62
     7
 10
728
 20
-663.0816650390625
 40
5.000000000000004
 50
95.00015859960162
 51
179.9999640278219
  0
ARC
  8
0
  6
CONTINUOUS
 62
     7
 10
741
 20
-448.0938720703125
 40
5
 50
359.9999453584866
 51
84.99980542821913
  0
ARC
  8
0
  6
CONTINUOUS
 62
     7
 10
743
 20
-438.2306518554688
 40
5.000000000000038
 50
179.9999776881996
 51
264.9998650786887
  0
ARC
  8
0
  6
CONTINUOUS
 62
     7
 10
728
 20
-436.9183349609375
 40
5.000000000000038
 50
179.9999776881996
 51
264.9998377579323
  0
ARC
  8
0
  6
CONTINUOUS
 62
     7
 10
671.4063720703125
 20
-385.944091796875
 40
6.000000000000024
 50
126.4238645555929
 51
189.9999620293671
  0
ARC
  8
0
  6
CONTINUOUS
 62
     7
 10
653
 20
-361.0000305175781
 40
25
 50
306.4238458862582
 51
233.5761318019415
  0
CIRCLE
  8
0
  6
CONTINUOUS
 62
     7
 10
653
 20
-361.0000305175781
 40
15
  0
ARC
  8
0
  6
CONTINUOUS
 62
     7
 10
643.76513671875
 20
-380.0000305175781
 40
1.999999999999985
 50
89.99998201391097
 51
170.0000206677889
  0
ARC
  8
0
  6
CONTINUOUS
 62
     7
 10
662.23486328125
 20
-380.0000305175781
 40
1.999999999999964
 50
9.999994586450628
 51
89.99998201391097
  0
ARC
  8
0
  6
CONTINUOUS
 62
     7
 10
634.5936279296875
 20
-385.944091796875
 40
6.000000000000009
 50
349.8636347103541
 51
53.57615411374161
  0
ARC
  8
0
  6
CONTINUOUS
 62
     7
 10
545
 20
-392
 40
10
 50
179.999991348578
 51
270.0000006832456
  0
ARC
  8
0
  6
CONTINUOUS
 62
     7
 10
545
 20
-646.2908325195312
 40
9.999999999999964
 50
127.3491502824547
 51
180.0000050089563
  0
ARC
  8
0
  6
CONTINUOUS
 62
     7
 10
576.3798828125
 20
-477.6568298339844
 40
10.00000000000001
 50
232.6508497175455
 51
269.9999974955215
  0
ARC
  8
0
  6
CONTINUOUS
 62
     7
 10
545
 20
-453.7091979980469
 40
10
 50
179.999991348578
 51
232.650859735458
  0
ARC
  8
0
  6
CONTINUOUS
 62
     7
 10
598
 20
-482.6568298339844
 40
5.000000000000004
 50
269.9999974955222
 51
0
  0
ARC
  8
0
  6
CONTINUOUS
 62
     7
 10
576.3798828125
 20
-622.3431396484375
 40
10.00000000000001
 50
90.00000250447847
 51
127.3491502824547
  0
ARC
  8
0
  6
CONTINUOUS
 62
     7
 10
598
 20
-617.3431396484375
 40
5
 50
0
 51
90.00000250447782
  0
CIRCLE
  8
0
  6
CONTINUOUS
 62
     3
 10
681
 20
-550
 40
8.507550239562988
  0
ARC
  8
0
  6
CONTINUOUS
 62
     7
 10
736
 20
-365
 40
31.99999999999999
 50
89.99998201391055
 51
179.9999640278213
  0
ARC
  8
0
  6
CONTINUOUS
 62
     7
 10
741
 20
-370
 40
5.000000000000019
 50
89.99998201391031
 51
179.9999640278213
  0
CIRCLE
  8
0
  6
CONTINUOUS
 62
     7
 10
0
 20
-550
 40
200
  0
ARC
  8
0
  6
CONTINUOUS
 62
     7
 10
0
 20
-550
 40
37.50000000000002
 50
105.4660233138666
 51
74.53398488281326
  0
ARC
  8
0
  6
CONTINUOUS
 62
     3
 10
0
 20
-550
 40
175
 50
333.6566024090428
 51
341.8562240170756
  0
CIRCLE
  8
0
  6
CONTINUOUS
 62
     7
 10
161.678955078125
 20
-616.9696044921875
 40
9.5
  0
ARC
  8
0
  6
CONTINUOUS
 62
     3
 10
0
 20
-550
 40
175
 50
18.6566224443021
 51
26.85623892969302
  0
CIRCLE
  8
0
  6
CONTINUOUS
 62
     7
 10
161.6788940429688
 20
-483.0303955078125
 40
9.5
  0
ARC
  8
0
  6
CONTINUOUS
 62
     3
 10
0
 20
-550
 40
175
 50
63.65661857389931
 51
71.85624018193211
  0
CIRCLE
  8
0
  6
CONTINUOUS
 62
     7
 10
66.9696044921875
 20
-388.3211059570313
 40
9.5
  0
ARC
  8
0
  6
CONTINUOUS
 62
     3
 10
0
 20
-550
 40
175
 50
108.6566164110438
 51
116.8562311888874
  0
CIRCLE
  8
0
  6
CONTINUOUS
 62
     7
 10
-66.9696044921875
 20
-388.3211059570313
 40
9.5
  0
ARC
  8
0
  6
CONTINUOUS
 62
     3
 10
0
 20
-550
 40
175
 50
153.6566074179991
 51
161.8562221958428
  0
CIRCLE
  8
0
  6
CONTINUOUS
 62
     7
 10
-161.678955078125
 20
-483.0303955078125
 40
9.5
  0
ARC
  8
0
  6
CONTINUOUS
 62
     3
 10
0
 20
-550
 40
175
 50
198.6566157277985
 51
206.8562305056421
  0
CIRCLE
  8
0
  6
CONTINUOUS
 62
     7
 10
-161.678955078125
 20
-616.9696044921875
 40
9.5
  0
ARC
  8
0
  6
CONTINUOUS
 62
     3
 10
0
 20
-550
 40
175
 50
243.6566067347538
 51
251.8562283427866
  0
CIRCLE
  8
0
  6
CONTINUOUS
 62
     7
 10
-66.9696044921875
 20
-711.678955078125
 40
9.5
  0
ARC
  8
0
  6
CONTINUOUS
 62
     3
 10
0
 20
-550
 40
175.0000000000001
 50
288.6566045718983
 51
296.8562261799311
  0
CIRCLE
  8
0
  6
CONTINUOUS
 62
     7
 10
66.9696044921875
 20
-711.678955078125
 40
9.5
  0
CIRCLE
  8
0
  6
CONTINUOUS
 62
     7
 10
0
 20
-550
 40
75
  0
CIRCLE
  8
0
  6
CONTINUOUS
 62
     7
 10
0
 20
-550
 40
110
  0
ARC
  8
0
  6
CONTINUOUS
 62
     3
 10
0
 20
-550
 40
95
 50
355.1693713345101
 51
4.830628665489899
  0
ARC
  8
0
  6
CONTINUOUS
 62
     3
 10
0
 20
-550
 40
95.00000000000001
 50
55.16937086972811
 51
64.83062563938695
  0
ARC
  8
0
  6
CONTINUOUS
 62
     3
 10
0
 20
-550
 40
95
 50
115.169365709191
 51
124.8306273090391
  0
ARC
  8
0
  6
CONTINUOUS
 62
     3
 10
0
 20
-550
 40
94.99999999999999
 50
175.1693673788432
 51
184.8306289786912
  0
ARC
  8
0
  6
CONTINUOUS
 62
     3
 10
0
 20
-550
 40
95.00000000000001
 50
235.1693726909609
 51
244.8306342908089
  0
ARC
  8
0
  6
CONTINUOUS
 62
     3
 10
0
 20
-550
 40
94.99999999999997
 50
295.1693743606131
 51
304.8306291302719
  0
CIRCLE
  8
0
  6
CONTINUOUS
 62
     3
 10
0
 20
-550
 40
8
  0
CIRCLE
  8
0
  6
CONTINUOUS
 62
     7
 10
0
 20
-550
 40
7
  0
ARC
  8
0
  6
CONTINUOUS
 62
     7
 10
0
 20
-550
 40
150
 50
13.00753690632465
 51
186.9924658132702
  0
ARC
  8
0
  6
CONTINUOUS
 62
     7
 10
0
 20
-550
 40
142
 50
16.87726083531811
 51
183.1227401767295
  0
CIRCLE
  8
0
  6
CONTINUOUS
 62
     7
 10
-130.4869995117188
 20
-573.0083618164062
 40
19
  0
CIRCLE
  8
0
  6
CONTINUOUS
 62
     7
 10
130.4869995117188
 20
-526.9915771484375
 40
19
  0
ARC
  8
0
  6
CONTINUOUS
 62
     7
 10
0
 20
-550
 40
142
 50
196.8772558263618
 51
3.122739223197954
  0
ARC
  8
0
  6
CONTINUOUS
 62
     7
 10
0
 20
-550
 40
150
 50
193.0075438501993
 51
6.992462938748019
  0
ARC
  8
0
  6
CONTINUOUS
 62
     7
 10
652.9999389648438
 20
6.542456048919121E-06
 40
12.50000000000001
 50
203.5781631757645
 51
336.4218215699954
  0
ARC
  8
0
  6
CONTINUOUS
 62
     7
 10
741
 20
-101.9060592651367
 40
4.999999999999999
 50
275.0001399302667
 51
0
  0
ARC
  8
0
  6
CONTINUOUS
 62
     7
 10
728
 20
-113.0815963745117
 40
5.000000000000004
 50
95.00015859960162
 51
179.9999640278213
  0
ARC
  8
0
  6
CONTINUOUS
 62
     7
 10
741
 20
101.906135559082
 40
5
 50
359.9999453584866
 51
84.99980542821916
  0
ARC
  8
0
  6
CONTINUOUS
 62
     7
 10
728
 20
113.081672668457
 40
5.000000000000038
 50
179.9999776881996
 51
264.9998377579323
  0
ARC
  8
0
  6
CONTINUOUS
 62
     7
 10
708
 20
7.964731594256591E-06
 40
30.00000000000001
 50
304.849917584488
 51
327.7690578916672
  0
ARC
  8
0
  6
CONTINUOUS
 62
     7
 10
728
 20
-28.72283172607422
 40
5.000000000000028
 50
124.849888442499
 51
179.9999640278213
  0
ARC
  8
0
  6
CONTINUOUS
 62
     7
 10
728
 20
28.72284698486328
 40
5.000000000000038
 50
179.9999776881997
 51
235.1501079150353
  0
ARC
  8
0
  6
CONTINUOUS
 62
     7
 10
653
 20
6.542457867908524E-06
 40
20.13370323181152
 50
14.37929160866249
 51
165.620708277652
  0
ARC
  8
0
  6
CONTINUOUS
 62
     7
 10
653
 20
6.542457867908524E-06
 40
20.13370323181157
 50
194.379291722348
 51
345.6207083913375
  0
ARC
  8
0
  6
CONTINUOUS
 62
     7
 10
652.9999389648438
 20
6.542456048919121E-06
 40
12.5
 50
23.57817843000461
 51
156.4218368242355
  0
ARC
  8
0
  6
CONTINUOUS
 62
     7
 10
632.9999389648437
 20
6.025265975040384E-06
 40
5
 50
89.99998201391031
 51
270.0000006832456
  0
ARC
  8
0
  6
CONTINUOUS
 62
     7
 10
672.9999389648438
 20
7.059646577545209E-06
 40
5
 50
270.0000179860897
 51
89.99998201391031
  0
ARC
  8
0
  6
CONTINUOUS
 62
     7
 10
576.3798828125
 20
72.34314727783203
 40
9.999999999999998
 50
232.6508497175454
 51
269.9999974955215
  0
ARC
  8
0
  6
CONTINUOUS
 62
     7
 10
545
 20
96.29083251953125
 40
10
 50
179.999991348578
 51
232.6508597354581
  0
ARC
  8
0
  6
CONTINUOUS
 62
     7
 10
598
 20
67.34314727783203
 40
4.999999999999997
 50
269.9999974955222
 51
0
  0
ARC
  8
0
  6
CONTINUOUS
 62
     7
 10
576.3799438476562
 20
-72.34313201904297
 40
10
 50
90.00000250447847
 51
127.3491502824545
  0
ARC
  8
0
  6
CONTINUOUS
 62
     7
 10
598
 20
-67.34313201904297
 40
5
 50
0
 51
90.00000250447782
  0
ARC
  8
0
  6
CONTINUOUS
 62
     7
 10
545
 20
-96.29083251953125
 40
10.00000000000001
 50
127.3491502824545
 51
180.0000050089563
  0
ARC
  8
0
  6
CONTINUOUS
 62
     7
 10
495
 20
2.456654101479216E-06
 40
10
 50
270.0000179860893
 51
89.99998201391064
  0
CIRCLE
  8
0
  6
CONTINUOUS
 62
     7
 10
575
 20
4.525415533862542E-06
 40
13.5
  0
ARC
  8
0
  6
CONTINUOUS
 62
     7
 10
720
 20
8.275045729533304E-06
 40
16
 50
89.99998201391055
 51
270.0000006832454
  0
ARC
  8
0
  6
CONTINUOUS
 62
     7
 10
708
 20
7.964731594256591E-06
 40
29.99999999999996
 50
32.23094210833278
 51
55.15011656645787
  0
ARC
  8
0
  6
CONTINUOUS
 62
     7
 10
841
 20
-504
 40
4.999999999999943
 50
179.999991348578
 51
270.0000006832456
  0
ARC
  8
0
  6
CONTINUOUS
 62
     7
 10
871
 20
-504
 40
5.000000000000004
 50
269.9999974955222
 51
0
  0
ARC
  8
0
  6
CONTINUOUS
 62
     7
 10
841
 20
-596
 40
5.000000000000004
 50
90.00000250447782
 51
180.0000050089569
  0
ARC
  8
0
  6
CONTINUOUS
 62
     7
 10
871
 20
-596
 40
5
 50
0
 51
90.00000250447782
  0
ARC
  8
0
  6
CONTINUOUS
 62
     7
 10
840.956787109375
 20
-476.494873046875
 40
3.999999999999989
 50
126.0864395502154
 51
188.5540383028321
  0
ARC
  8
0
  6
CONTINUOUS
 62
     7
 10
829
 20
-460.08984375
 40
16.29999923706053
 50
306.0864140506921
 51
233.9135431469402
  0
CIRCLE
  8
0
  6
CONTINUOUS
 62
     7
 10
829
 20
-460.08984375
 40
10
  0
ARC
  8
0
  6
CONTINUOUS
 62
     7
 10
823.559814453125
 20
-474.08984375
 40
1.999999999999985
 50
89.99998201391097
 51
170.0000206677889
  0
ARC
  8
0
  6
CONTINUOUS
 62
     7
 10
834.440185546875
 20
-474.08984375
 40
1.999999999999974
 50
10.00000397796106
 51
89.99998201391097
  0
ARC
  8
0
  6
CONTINUOUS
 62
     7
 10
817.043212890625
 20
-476.494873046875
 40
4.000000000000021
 50
351.4459282863106
 51
53.91357911911838
  0
ARC
  8
0
  6
CONTINUOUS
 62
     7
 10
841.0000610351563
 20
46
 40
4.999999999999943
 50
179.999991348578
 51
270.0000006832456
  0
ARC
  8
0
  6
CONTINUOUS
 62
     7
 10
871.0000610351563
 20
46
 40
4.999999999999997
 50
269.9999974955222
 51
0
  0
ARC
  8
0
  6
CONTINUOUS
 62
     7
 10
841.0000610351563
 20
-46
 40
4.999999999999997
 50
90.00000250447782
 51
180.0000050089563
  0
ARC
  8
0
  6
CONTINUOUS
 62
     7
 10
871.0000610351563
 20
-46
 40
5
 50
0
 51
90.00000250447782
  0
POLYLINE
  8
0
  6
CONTINUOUS
 62
     7
 66
     1
 10
0
 20
0
  0
VERTEX
  8
0
  6
CONTINUOUS
 62
     7
 10
502.0004784336099
 20
-429.2489833012394
 42
-0.1887441757932606
  0
VERTEX
  8
0
  6
CONTINUOUS
 62
     7
 10
515.0519323248053
 20
-450.6487934538353
 42
-0.06038121619763795
  0
VERTEX
  8
0
  6
CONTINUOUS
 62
     7
 10
515.6954098172814
 20
-476.2089102021345
 42
-0.0004320068627831836
  0
VERTEX
  8
0
  6
CONTINUOUS
 62
     7
 10
514.1862685719047
 20
-501.8004438907168
 42
0.008397402786702072
  0
VERTEX
  8
0
  6
CONTINUOUS
 62
     7
 10
513.076164555769
 20
-527.4113471967514
 42
0.01779798986694506
  0
VERTEX
  8
0
  6
CONTINUOUS
 62
     7
 10
513.3110760318071
 20
-553.0406334208027
 42
0.01884734953889876
  0
VERTEX
  8
0
  6
CONTINUOUS
 62
     7
 10
515.6108352297322
 20
-578.5670281127724
 42
-0.02521594267557324
  0
VERTEX
  8
0
  6
CONTINUOUS
 62
     7
 10
517.6467064745281
 20
-604.1104637546284
 42
-0.07191624056640712
  0
VERTEX
  8
0
  6
CONTINUOUS
 62
     7
 10
514.7201544846213
 20
-629.4892853259145
 42
-0.1364477367066784
  0
VERTEX
  8
0
  6
CONTINUOUS
 62
     7
 10
502.0005696807495
 20
-651.3925304940998
 42
0
  0
SEQEND
  8
0
  0
POLYLINE
  8
0
  6
CONTINUOUS
 62
     7
 66
     1
 10
0
 20
0
  0
VERTEX
  8
0
  6
CONTINUOUS
 62
     7
 10
502.0004434992384
 20
97.36923273337376
 42
-0.200571251715874
  0
VERTEX
  8
0
  6
CONTINUOUS
 62
     7
 10
515.9153373498641
 20
80.3038340731899
 42
-0.08979213067969195
  0
VERTEX
  8
0
  6
CONTINUOUS
 62
     7
 10
516.793218484338
 20
57.85378156613257
 42
0.01006587844511274
  0
VERTEX
  8
0
  6
CONTINUOUS
 62
     7
 10
514.5455579083637
 20
35.37201956952175
 42
0.01797347473342327
  0
VERTEX
  8
0
  6
CONTINUOUS
 62
     7
 10
513.796107329835
 20
12.79353284598513
 42
0.01311211982281277
  0
VERTEX
  8
0
  6
CONTINUOUS
 62
     7
 10
514.4686463735444
 20
-9.789911343884295
 42
0.0001805182026332796
  0
VERTEX
  8
0
  6
CONTINUOUS
 62
     7
 10
515.8135936331186
 20
-32.3451537143975
 42
-0.01242988226344705
  0
VERTEX
  8
0
  6
CONTINUOUS
 62
     7
 10
516.553132767745
 20
-54.92570424635097
 42
-0.05260472089823202
  0
VERTEX
  8
0
  6
CONTINUOUS
 62
     7
 10
514.9521138902643
 20
-77.41982292272098
 42
-0.2794031920417805
  0
VERTEX
  8
0
  6
CONTINUOUS
 62
     7
 10
502.0011119464914
 20
-94.56841176098887
 42
0
  0
SEQEND
  8
0
  0
POLYLINE
  8
0
  6
CONTINUOUS
 62
     7
 66
     1
 10
0
 20
0
  0
VERTEX
  8
0
  6
CONTINUOUS
 62
     7
 10
840.5383911132813
 20
11.7392578125
 42
0.01902146622957774
  0
VERTEX
  8
0
  6
CONTINUOUS
 62
     7
 10
841.2802898643256
 20
11.94346819896747
 42
0.01048036661696294
  0
VERTEX
  8
0
  6
CONTINUOUS
 62
     7
 10
842.0089536930554
 20
12.1911952580453
 42
0.005839354613801174
  0
VERTEX
  8
0
  6
CONTINUOUS
 62
     7
 10
842.7305596202074
 20
12.45983964136556
 42
0.02971924920642081
  0
VERTEX
  8
0
  6
CONTINUOUS
 62
     7
 10
843.4313914549566
 20
12.77700076415314
 42
0.05877631418418106
  0
VERTEX
  8
0
  6
CONTINUOUS
 62
     7
 10
844.064502876848
 20
13.21137135418768
 42
0.05384139659327695
  0
VERTEX
  8
0
  6
CONTINUOUS
 62
     7
 10
844.5759704924784
 20
13.78454287119097
 42
0.04812138103694307
  0
VERTEX
  8
0
  6
CONTINUOUS
 62
     7
 10
844.968888043528
 20
14.44586769373637
 42
0.05488166665007427
  0
VERTEX
  8
0
  6
CONTINUOUS
 62
     7
 10
845.2143747484083
 20
15.17353730549175
 42
0.05415929437784416
  0
VERTEX
  8
0
  6
CONTINUOUS
 62
     7
 10
845.2976684570313
 20
15.936767578125
 42
0.05421304940334361
  0
VERTEX
  8
0
  6
CONTINUOUS
 62
     7
 10
845.2142440429468
 20
16.70034767591385
 42
0.05489568489036082
  0
VERTEX
  8
0
  6
CONTINUOUS
 62
     7
 10
844.9685611999313
 20
17.4281253765758
 42
0.04804076410465666
  0
VERTEX
  8
0
  6
CONTINUOUS
 62
     7
 10
844.5762294255439
 20
18.08839294262476
 42
0.05381899032935662
  0
VERTEX
  8
0
  6
CONTINUOUS
 62
     7
 10
844.0646628679476
 20
18.66201436570646
 42
0.05878404345715364
  0
VERTEX
  8
0
  6
CONTINUOUS
 62
     7
 10
843.4315549149078
 20
19.09645218612511
 42
0.02971392343425828
  0
VERTEX
  8
0
  6
CONTINUOUS
 62
     7
 10
842.7310518032937
 20
19.41351168207861
 42
0.005857536912088626
  0
VERTEX
  8
0
  6
CONTINUOUS
 62
     7
 10
842.0096669291923
 20
19.68211031021227
 42
0.01049959459118514
  0
VERTEX
  8
0
  6
CONTINUOUS
 62
     7
 10
841.2806813941713
 20
19.9298856757461
 42
0.01898559936149375
  0
VERTEX
  8
0
  6
CONTINUOUS
 62
     7
 10
840.5388793945313
 20
20.134033203125
 42
0
  0
SEQEND
  8
0
  0
POLYLINE
  8
0
  6
CONTINUOUS
 62
     7
 66
     1
 10
0
 20
0
  0
VERTEX
  8
0
  6
CONTINUOUS
 62
     7
 10
815.8499145507812
 20
12.83447265625
 42
0.194567226575529
  0
VERTEX
  8
0
  6
CONTINUOUS
 62
     7
 10
818.7921009629709
 20
11.39506792304863
 42
0.02554288674070665
  0
VERTEX
  8
0
  6
CONTINUOUS
 62
     7
 10
822.1707243444043
 20
10.88328645201489
 42
0.01446680416668493
  0
VERTEX
  8
0
  6
CONTINUOUS
 62
     7
 10
825.5801383570918
 20
10.62982527780327
 42
0.01162852758222519
  0
VERTEX
  8
0
  6
CONTINUOUS
 62
     7
 10
829.0000610351563
 20
10.55126953125
 42
0.01162216241365036
  0
VERTEX
  8
0
  6
CONTINUOUS
 62
     7
 10
832.4181778898194
 20
10.6297409761288
 42
0.01447018319482655
  0
VERTEX
  8
0
  6
CONTINUOUS
 62
     7
 10
835.8286971802377
 20
10.88321875740916
 42
0.02555924876822633
  0
VERTEX
  8
0
  6
CONTINUOUS
 62
     7
 10
839.2090478010592
 20
11.39531802020467
 42
0.1953275025857896
  0
VERTEX
  8
0
  6
CONTINUOUS
 62
     7
 10
842.1499566022181
 20
12.83679094178838
 42
0.193857249787743
  0
VERTEX
  8
0
  6
CONTINUOUS
 62
     7
 10
839.2055910811598
 20
14.27456181851656
 42
0.02553281135331325
  0
VERTEX
  8
0
  6
CONTINUOUS
 62
     7
 10
835.8269511022861
 20
14.78626235167341
 42
0.01446795730180308
  0
VERTEX
  8
0
  6
CONTINUOUS
 62
     7
 10
832.4175330942528
 20
15.03968571399598
 42
0.01162480404299549
  0
VERTEX
  8
0
  6
CONTINUOUS
 62
     7
 10
829.0000610351563
 20
15.1181640625
 42
0.01162704613698965
  0
VERTEX
  8
0
  6
CONTINUOUS
 62
     7
 10
825.5819452685699
 20
15.03965720584789
 42
0.01447371067920214
  0
VERTEX
  8
0
  6
CONTINUOUS
 62
     7
 10
822.1714334585523
 20
14.78608712945823
 42
0.02556067450977383
  0
VERTEX
  8
0
  6
CONTINUOUS
 62
     7
 10
818.7911026915099
 20
14.2738606967848
 42
0.1951803014309763
  0
VERTEX
  8
0
  6
CONTINUOUS
 62
     7
 10
815.8499188172796
 20
12.83263321011897
 42
0
  0
SEQEND
  8
0
  0
POLYLINE
  8
0
  6
CONTINUOUS
 62
     7
 66
     1
 10
0
 20
0
  0
VERTEX
  8
0
  6
CONTINUOUS
 62
     7
 10
821.2619630938467
 20
10.98545465218177
 42
0.04188613022361914
  0
VERTEX
  8
0
  6
CONTINUOUS
 62
     7
 10
821.7020927166629
 20
9.757465205901296
 42
0.04165468219617657
  0
VERTEX
  8
0
  6
CONTINUOUS
 62
     7
 10
822.3403336996045
 20
8.619523715053338
 42
0.04136408119847618
  0
VERTEX
  8
0
  6
CONTINUOUS
 62
     7
 10
823.1577831983798
 20
7.602647361325626
 42
0.04106062826738151
  0
VERTEX
  8
0
  6
CONTINUOUS
 62
     7
 10
824.1310870301094
 20
6.733484675914852
 42
0.04077373210737653
  0
VERTEX
  8
0
  6
CONTINUOUS
 62
     7
 10
825.2331572048714
 20
6.034276735056622
 42
0.04052967900159058
  0
VERTEX
  8
0
  6
CONTINUOUS
 62
     7
 10
826.4340196521777
 20
5.522502872004356
 42
0.04034890219000467
  0
VERTEX
  8
0
  6
CONTINUOUS
 62
     7
 10
827.7016034082601
 20
5.210673016431506
 42
0.04023730416244801
  0
VERTEX
  8
0
  6
CONTINUOUS
 62
     7
 10
829.002239282085
 20
5.106201463604696
 42
0.04023045196247596
  0
VERTEX
  8
0
  6
CONTINUOUS
 62
     7
 10
830.3025935776484
 20
5.211333892784857
 42
0.04031713967843033
  0
VERTEX
  8
0
  6
CONTINUOUS
 62
     7
 10
831.569031067954
 20
5.523479794206819
 42
0.04051233780471766
  0
VERTEX
  8
0
  6
CONTINUOUS
 62
     7
 10
832.7691890157738
 20
6.035445857417736
 42
0.04075999998141548
  0
VERTEX
  8
0
  6
CONTINUOUS
 62
     7
 10
833.8706764246805
 20
6.734724687252745
 42
0.04105956262813598
  0
VERTEX
  8
0
  6
CONTINUOUS
 62
     7
 10
834.8437215912633
 20
7.604103517515707
 42
0.04137676030969522
  0
VERTEX
  8
0
  6
CONTINUOUS
 62
     7
 10
835.6611273663688
 20
8.621506103344204
 42
0.0416742753407361
  0
VERTEX
  8
0
  6
CONTINUOUS
 62
     7
 10
836.2992686667948
 20
9.76018557367966
 42
0.0419152862812483
  0
VERTEX
  8
0
  6
CONTINUOUS
 62
     7
 10
836.739157060896
 20
10.989206351124
 42
0
  0
SEQEND
  8
0
  0
POLYLINE
  8
0
  6
CONTINUOUS
 62
     7
 66
     1
 10
0
 20
0
  0
VERTEX
  8
0
  6
CONTINUOUS
 62
     7
 10
840.5516836076849
 20
20.12990211111256
 42
0.02483087067147858
  0
VERTEX
  8
0
  6
CONTINUOUS
 62
     7
 10
839.1432938720957
 20
20.4920213273689
 42
0.01364876553538293
  0
VERTEX
  8
0
  6
CONTINUOUS
 62
     7
 10
837.7114488245826
 20
20.74932948674045
 42
0.009382959064418543
  0
VERTEX
  8
0
  6
CONTINUOUS
 62
     7
 10
836.269162301246
 20
20.94166803513351
 42
0.007275504699611289
  0
VERTEX
  8
0
  6
CONTINUOUS
 62
     7
 10
834.8207671599698
 20
21.08638282005157
 42
0.006095727122752097
  0
VERTEX
  8
0
  6
CONTINUOUS
 62
     7
 10
833.36877183588
 20
21.19256798741133
 42
0.005403454110788516
  0
VERTEX
  8
0
  6
CONTINUOUS
 62
     7
 10
831.9147021102981
 20
21.26546949695381
 42
0.005011303809722106
  0
VERTEX
  8
0
  6
CONTINUOUS
 62
     7
 10
830.459314716476
 20
21.30816231415848
 42
0.004832092236385317
  0
VERTEX
  8
0
  6
CONTINUOUS
 62
     7
 10
829.0033901333574
 20
21.32226555132247
 42
0.004831326620330924
  0
VERTEX
  8
0
  6
CONTINUOUS
 62
     7
 10
827.547569892869
 20
21.30829357721306
 42
0.005006440239896109
  0
VERTEX
  8
0
  6
CONTINUOUS
 62
     7
 10
826.0931730375092
 20
21.26577626646806
 42
0.005400831365541861
  0
VERTEX
  8
0
  6
CONTINUOUS
 62
     7
 10
824.6390158264468
 20
21.19303899017184
 42
0.00609107072217278
  0
VERTEX
  8
0
  6
CONTINUOUS
 62
     7
 10
823.1869416437354
 20
21.08703783109548
 42
0.007269742893885268
  0
VERTEX
  8
0
  6
CONTINUOUS
 62
     7
 10
821.7380505317628
 20
20.94249395635798
 42
0.009378608205162795
  0
VERTEX
  8
0
  6
CONTINUOUS
 62
     7
 10
820.2943350344505
 20
20.75021581634293
 42
0.01364198818416279
  0
VERTEX
  8
0
  6
CONTINUOUS
 62
     7
 10
818.8608205533925
 20
20.49289218352315
 42
0.02480786719448893
  0
VERTEX
  8
0
  6
CONTINUOUS
 62
     7
 10
817.4509234956716
 20
20.1307548239058
 42
0
  0
SEQEND
  8
0
  0
POLYLINE
  8
0
  6
CONTINUOUS
 62
     7
 66
     1
 10
0
 20
0
  0
VERTEX
  8
0
  6
CONTINUOUS
 62
     7
 10
817.4617309570313
 20
11.7392578125
 42
-0.01902135150945992
  0
VERTEX
  8
0
  6
CONTINUOUS
 62
     7
 10
816.7198322090466
 20
11.94346821843802
 42
-0.01048041611074987
  0
VERTEX
  8
0
  6
CONTINUOUS
 62
     7
 10
815.991168354547
 20
12.19119520026929
 42
-0.005839305255021575
  0
VERTEX
  8
0
  6
CONTINUOUS
 62
     7
 10
815.2695624666808
 20
12.45983968577917
 42
-0.02971922528826069
  0
VERTEX
  8
0
  6
CONTINUOUS
 62
     7
 10
814.5687305910865
 20
12.77700072030528
 42
-0.05877643786953593
  0
VERTEX
  8
0
  6
CONTINUOUS
 62
     7
 10
813.9356192055623
 20
13.21137136897406
 42
-0.05384142346775712
  0
VERTEX
  8
0
  6
CONTINUOUS
 62
     7
 10
813.4241515696896
 20
13.78454286656888
 42
-0.04812132854440434
  0
VERTEX
  8
0
  6
CONTINUOUS
 62
     7
 10
813.0312340052255
 20
14.44586768506558
 42
-0.05488158376502854
  0
VERTEX
  8
0
  6
CONTINUOUS
 62
     7
 10
812.785747303847
 20
15.1735373180152
 42
-0.05415925962599262
  0
VERTEX
  8
0
  6
CONTINUOUS
 62
     7
 10
812.7024536132813
 20
15.936767578125
 42
-0.05421308352567748
  0
VERTEX
  8
0
  6
CONTINUOUS
 62
     7
 10
812.7858780426055
 20
16.70034767528251
 42
-0.05489577001731312
  0
VERTEX
  8
0
  6
CONTINUOUS
 62
     7
 10
813.0315608970882
 20
17.42812537875007
 42
-0.04804081679045986
  0
VERTEX
  8
0
  6
CONTINUOUS
 62
     7
 10
813.4238926627901
 20
18.08839295177473
 42
-0.05381896387351384
  0
VERTEX
  8
0
  6
CONTINUOUS
 62
     7
 10
813.9354592051824
 20
18.66201439379297
 42
-0.05878391963627078
  0
VERTEX
  8
0
  6
CONTINUOUS
 62
     7
 10
814.5685672066112
 20
19.09645215678534
 42
-0.02971394611136884
  0
VERTEX
  8
0
  6
CONTINUOUS
 62
     7
 10
815.2690702724826
 20
19.41351173515882
 42
-0.005857585780033253
  0
VERTEX
  8
0
  6
CONTINUOUS
 62
     7
 10
815.9904551832658
 20
19.68211025943805
 42
-0.0104995452327434
  0
VERTEX
  8
0
  6
CONTINUOUS
 62
     7
 10
816.7194406871999
 20
19.9298856996735
 42
-0.01898571376135963
  0
VERTEX
  8
0
  6
CONTINUOUS
 62
     7
 10
817.4612426757812
 20
20.134033203125
 42
0
  0
SEQEND
  8
0
  0
TEXT
  8
0
  6
CONTINUOUS
 62
     7
 10
-190.7142906188965
 20
-15
 40
30
 41
1.026265240998546
  1
ERKV-NBE-1500
  0
ENDSEC
  0
EOF
