  0
SECTION
  2
HEADER
  0
ENDSEC
  0
SECTION
  2
TABLES
  0
TABLE
  2
LTYPE
 70
    22
  0
LTYPE
  2
CONTINUOUS
 70
    64
  3
Solid line
 72
    65
 73
     0
 40
0.000000
  0
LTYPE
  2
DASHED
 70
    64
  3
__ __ __ __ __ __ __ __ __ __ __ __ __ __ __
 72
    65
 73
     2
 40
3.500000
 49
2.000000
 49
-1.500000
  0
LTYPE
  2
CENTER
 70
    64
  3
____ _ ____ _ ____ _ ____ _ ____ _ ____ _ ____
 72
    65
 73
     4
 40
17.500000
 49
13.000000
 49
-1.500000
 49
1.500000
 49
-1.500000
  0
LTYPE
  2
PHANTOM
 70
    64
  3
_____ _ _ _____ _ _ _____ _ _ _____ _ _ ____  
 72
    65
 73
     6
 40
15.500000
 49
8.000000
 49
-1.500000
 49
1.500000
 49
-1.500000
 49
1.500000
 49
-1.500000
  0
LTYPE
  2
DOT
 70
    64
  3
. . . . . . . . . . . . . . . . . . . . . . . .
 72
    65
 73
     2
 40
0.25
 49
0.0
 49
-0.25
  0
ENDTAB
  0
TABLE
  2
LAYER
 70
     1
  0
LAYER
  2
0
 70
     0
 62
     7
  6
CONTINUOUS
  0
ENDTAB
  0
TABLE
  2
STYLE
 70
     1
  0
STYLE
  2
STANDARD
 70
     0
 40
0.000000
 41
1.000000
 50
0.000000
 71
     0
 42
0.200000
  3
txt
  0
ENDTAB
  0
TABLE
  2
VIEW
 70
     0
  0
ENDTAB
  0
ENDSEC
  0
SECTION
  2
BLOCKS
  0
ENDSEC
  0
SECTION
  2
ENTITIES
  0
LINE
  8
0
  6
CONTINUOUS
 62
     3
 10
300
 20
-455
 11
750.45068359375
 21
-455
  0
LINE
  8
0
  6
CONTINUOUS
 62
     7
 10
559
 20
-340
 11
559
 21
-570
  0
LINE
  8
0
  6
CONTINUOUS
 62
     7
 10
559
 20
-340
 11
565.5742797851562
 21
-340
  0
LINE
  8
0
  6
CONTINUOUS
 62
     7
 10
559
 20
-570
 11
586
 21
-570
  0
LINE
  8
0
  6
CONTINUOUS
 62
     7
 10
577
 20
-351.816650390625
 11
577
 21
-570
  0
LINE
  8
0
  6
CONTINUOUS
 62
     7
 10
624
 20
-382.5
 11
624
 21
-527.5
  0
LINE
  8
0
  6
CONTINUOUS
 62
     7
 10
624
 20
-527.5
 11
634
 21
-527.5
  0
LINE
  8
0
  6
CONTINUOUS
 62
     7
 10
624
 20
-382.5
 11
634
 21
-382.5
  0
LINE
  8
0
  6
CONTINUOUS
 62
     7
 10
592
 20
-377.5
 11
592
 21
-532.5
  0
LINE
  8
0
  6
CONTINUOUS
 62
     7
 10
582
 20
-537.5
 11
587
 21
-537.5
  0
LINE
  8
0
  6
CONTINUOUS
 62
     7
 10
586
 20
-340
 11
586
 21
-370.5
  0
LINE
  8
0
  6
CONTINUOUS
 62
     7
 10
582
 20
-372.5
 11
587
 21
-372.5
  0
LINE
  8
0
  6
CONTINUOUS
 62
     7
 10
586
 20
-570
 11
586
 21
-539.5
  0
LINE
  8
0
  6
CONTINUOUS
 62
     7
 10
592
 20
-394.2030334472656
 11
623.9999389648438
 21
-401.5271911621094
  0
LINE
  8
0
  6
CONTINUOUS
 62
     7
 10
592
 20
-420.947509765625
 11
624
 21
-420.947509765625
  0
LINE
  8
0
  6
CONTINUOUS
 62
     7
 10
592
 20
-515.7969970703125
 11
624
 21
-508.4728393554687
  0
LINE
  8
0
  6
CONTINUOUS
 62
     7
 10
592
 20
-489.052490234375
 11
624
 21
-489.052490234375
  0
LINE
  8
0
  6
CONTINUOUS
 62
     7
 10
582.4257202148438
 20
-340
 11
586
 21
-340
  0
LINE
  8
0
  6
CONTINUOUS
 62
     7
 10
576.9999389648438
 20
-351.8166809082031
 11
585.9999389648437
 21
-350.7746276855469
  0
LINE
  8
0
  6
CONTINUOUS
 62
     7
 10
511
 20
-337.5
 11
555
 21
-337.5
  0
LINE
  8
0
  6
CONTINUOUS
 62
     7
 10
511
 20
-572.5
 11
555
 21
-572.5
  0
LINE
  8
0
  6
CONTINUOUS
 62
     7
 10
507
 20
-340
 11
507
 21
-570
  0
LINE
  8
0
  6
CONTINUOUS
 62
     7
 10
507.0000305175781
 20
-341.5000305175781
 11
511.0000610351563
 21
-337.5000305175781
  0
LINE
  8
0
  6
CONTINUOUS
 62
     7
 10
555
 20
-337.5000305175781
 11
559.0000610351563
 21
-341.5000305175781
  0
LINE
  8
0
  6
CONTINUOUS
 62
     7
 10
559
 20
-568.5
 11
555
 21
-572.5
  0
LINE
  8
0
  6
CONTINUOUS
 62
     7
 10
511
 20
-572.5
 11
507
 21
-568.5
  0
LINE
  8
0
  6
CONTINUOUS
 62
     7
 10
511
 20
-380.0578002929688
 11
555
 21
-380.0578002929688
  0
LINE
  8
0
  6
CONTINUOUS
 62
     7
 10
511
 20
-393.7132568359375
 11
555
 21
-393.7132568359375
  0
LINE
  8
0
  6
CONTINUOUS
 62
     7
 10
511
 20
-402.4596557617188
 11
555
 21
-402.4596557617188
  0
LINE
  8
0
  6
CONTINUOUS
 62
     7
 10
511
 20
-417.8352966308594
 11
555
 21
-417.8352966308594
  0
LINE
  8
0
  6
CONTINUOUS
 62
     7
 10
511
 20
-427.447998046875
 11
555
 21
-427.447998046875
  0
LINE
  8
0
  6
CONTINUOUS
 62
     7
 10
511
 20
-444.00048828125
 11
555
 21
-444.00048828125
  0
LINE
  8
0
  6
CONTINUOUS
 62
     7
 10
511
 20
-466.0003051757813
 11
555
 21
-466.0003051757813
  0
LINE
  8
0
  6
CONTINUOUS
 62
     7
 10
511
 20
-482.5516662597656
 11
555
 21
-482.5516662597656
  0
LINE
  8
0
  6
CONTINUOUS
 62
     7
 10
511
 20
-492.1639404296875
 11
555
 21
-492.1639404296875
  0
LINE
  8
0
  6
CONTINUOUS
 62
     7
 10
511
 20
-507.5404357910156
 11
555
 21
-507.5404357910156
  0
LINE
  8
0
  6
CONTINUOUS
 62
     7
 10
511
 20
-516.2864379882812
 11
555
 21
-516.2864379882812
  0
LINE
  8
0
  6
CONTINUOUS
 62
     7
 10
511
 20
-529.94091796875
 11
555
 21
-529.94091796875
  0
LINE
  8
0
  6
CONTINUOUS
 62
     7
 10
511
 20
-545.4974365234375
 11
555
 21
-545.4974365234375
  0
LINE
  8
0
  6
CONTINUOUS
 62
     7
 10
511
 20
-555.2504272460937
 11
555
 21
-555.2504272460937
  0
LINE
  8
0
  6
CONTINUOUS
 62
     7
 10
511
 20
-560.0982055664063
 11
555
 21
-560.0982055664063
  0
LINE
  8
0
  6
CONTINUOUS
 62
     7
 10
511
 20
-566.4676513671875
 11
555
 21
-566.4676513671875
  0
LINE
  8
0
  6
CONTINUOUS
 62
     7
 10
415
 20
-305
 11
437
 21
-305
  0
LINE
  8
0
  6
CONTINUOUS
 62
     7
 10
415
 20
-605
 11
437
 21
-605
  0
LINE
  8
0
  6
CONTINUOUS
 62
     7
 10
415
 20
-305
 11
415
 21
-362.2501525878906
  0
LINE
  8
0
  6
CONTINUOUS
 62
     7
 10
437
 20
-305
 11
437
 21
-605
  0
LINE
  8
0
  6
CONTINUOUS
 62
     7
 10
489
 20
-340
 11
489
 21
-570
  0
LINE
  8
0
  6
CONTINUOUS
 62
     7
 10
489
 20
-570
 11
507
 21
-570
  0
LINE
  8
0
  6
CONTINUOUS
 62
     7
 10
442
 20
-340
 11
507
 21
-340
  0
LINE
  8
0
  6
CONTINUOUS
 62
     7
 10
440.0956726074219
 20
-521.2222290039062
 11
474.6410217285156
 21
-506.9927978515625
  0
LINE
  8
0
  6
CONTINUOUS
 62
     7
 10
440.095703125
 20
-388.7777709960938
 11
474.6410522460937
 21
-403.0072326660156
  0
LINE
  8
0
  6
CONTINUOUS
 62
     7
 10
436.9999694824219
 20
-348.1234741210938
 11
488.9999694824219
 21
-369.4042358398438
  0
LINE
  8
0
  6
CONTINUOUS
 62
     7
 10
437
 20
-362.2656555175781
 11
489
 21
-383.54638671875
  0
LINE
  8
0
  6
CONTINUOUS
 62
     7
 10
474.6410217285156
 20
-403.0072326660156
 11
484
 21
-403.0072326660156
  0
LINE
  8
0
  6
CONTINUOUS
 62
     7
 10
474.6410217285156
 20
-506.9927978515625
 11
484
 21
-506.9927978515625
  0
LINE
  8
0
  6
CONTINUOUS
 62
     7
 10
436.9999694824219
 20
-547.7343139648437
 11
488.9999694824219
 21
-526.4535522460937
  0
LINE
  8
0
  6
CONTINUOUS
 62
     7
 10
437.0000305175781
 20
-561.8765258789063
 11
489.0000305175781
 21
-540.5957641601563
  0
LINE
  8
0
  6
CONTINUOUS
 62
     7
 10
410
 20
-570
 11
415
 21
-570
  0
LINE
  8
0
  6
CONTINUOUS
 62
     7
 10
410
 20
-340
 11
415
 21
-340
  0
LINE
  8
0
  6
CONTINUOUS
 62
     7
 10
320
 20
-418.5
 11
320
 21
-487.5
  0
LINE
  8
0
  6
CONTINUOUS
 62
     7
 10
320
 20
-487.5
 11
415
 21
-487.5
  0
LINE
  8
0
  6
CONTINUOUS
 62
     7
 10
320
 20
-422.5
 11
415
 21
-422.5
  0
LINE
  8
0
  6
CONTINUOUS
 62
     7
 10
410
 20
-535.2203369140625
 11
410
 21
-570
  0
LINE
  8
0
  6
CONTINUOUS
 62
     7
 10
415
 20
-526.8104858398437
 11
415
 21
-605
  0
LINE
  8
0
  6
CONTINUOUS
 62
     7
 10
410
 20
-340
 11
410
 21
-357.4778747558594
  0
LINE
  8
0
  6
CONTINUOUS
 62
     7
 10
320
 20
-418.5
 11
400
 21
-418.5
  0
LINE
  8
0
  6
CONTINUOUS
 62
     7
 10
400
 20
-418.5
 11
400
 21
-422.5
  0
LINE
  8
0
  6
CONTINUOUS
 62
     7
 10
415
 20
-417.5
 11
418.7959899902344
 21
-417.5
  0
LINE
  8
0
  6
CONTINUOUS
 62
     7
 10
415
 20
-492.5
 11
419.16015625
 21
-492.5
  0
LINE
  8
0
  6
CONTINUOUS
 62
     7
 10
415
 20
-417.5
 11
415
 21
-492.5
  0
LINE
  8
0
  6
CONTINUOUS
 62
     3
 10
463
 20
-248.0375671386719
 11
463
 21
-355
  0
LINE
  8
0
  6
CONTINUOUS
 62
     7
 10
449.5
 20
-270.7000122070312
 11
476.5
 21
-270.7000122070312
  0
LINE
  8
0
  6
CONTINUOUS
 62
     7
 10
471.0710754394531
 20
-256.0500183105469
 11
454.9289245605469
 21
-256.0500183105469
  0
LINE
  8
0
  6
CONTINUOUS
 62
     7
 10
471.507568359375
 20
-265.0500183105469
 11
454.492431640625
 21
-265.0500183105469
  0
LINE
  8
0
  6
CONTINUOUS
 62
     7
 10
471.5075378417969
 20
-265.0500183105469
 11
471.3309936523437
 21
-270.7000122070312
  0
LINE
  8
0
  6
CONTINUOUS
 62
     7
 10
454.4924011230469
 20
-265.0500183105469
 11
454.6689758300781
 21
-270.7000122070312
  0
LINE
  8
0
  6
CONTINUOUS
 62
     7
 10
471.071044921875
 20
-256.0500183105469
 11
471.071044921875
 21
-265.0500183105469
  0
LINE
  8
0
  6
CONTINUOUS
 62
     7
 10
454.928955078125
 20
-256.0500183105469
 11
454.928955078125
 21
-265.0500183105469
  0
LINE
  8
0
  6
CONTINUOUS
 62
     7
 10
449.5
 20
-302.7000122070313
 11
476.5
 21
-302.7000122070313
  0
LINE
  8
0
  6
CONTINUOUS
 62
     7
 10
454.3499755859375
 20
-302.7000122070313
 11
454.3499755859375
 21
-340
  0
LINE
  8
0
  6
CONTINUOUS
 62
     7
 10
471.6500244140625
 20
-302.7000122070313
 11
471.6500244140625
 21
-340
  0
LINE
  8
0
  6
CONTINUOUS
 62
     7
 10
476.5
 20
-270.7000122070312
 11
476.5
 21
-302.7000122070313
  0
LINE
  8
0
  6
CONTINUOUS
 62
     7
 10
449.5
 20
-270.7000122070312
 11
449.5
 21
-302.7000122070313
  0
LINE
  8
0
  6
CONTINUOUS
 62
     3
 10
454.928955078125
 20
-265.0499877929687
 11
463
 21
-256.0499877929688
  0
LINE
  8
0
  6
CONTINUOUS
 62
     3
 10
454.928955078125
 20
-256.0500183105469
 11
463
 21
-265.0500183105469
  0
LINE
  8
0
  6
CONTINUOUS
 62
     7
 10
463
 20
-265.0500183105469
 11
463
 21
-256.0500183105469
  0
LINE
  8
0
  6
CONTINUOUS
 62
     3
 10
463.0000610351562
 20
-256.050048828125
 11
471.0710754394531
 21
-265.050048828125
  0
LINE
  8
0
  6
CONTINUOUS
 62
     3
 10
471.0710754394531
 20
-256.0500183105469
 11
463.0000305175781
 21
-265.0500183105469
  0
LINE
  8
0
  6
CONTINUOUS
 62
     7
 10
637.5
 20
-530
 11
670.5
 21
-530
  0
LINE
  8
0
  6
CONTINUOUS
 62
     7
 10
634
 20
-382.5
 11
634
 21
-527.5
  0
LINE
  8
0
  6
CONTINUOUS
 62
     7
 10
637.5
 20
-525.4512939453125
 11
670.5
 21
-525.4512939453125
  0
LINE
  8
0
  6
CONTINUOUS
 62
     7
 10
637.5
 20
-380
 11
670.5
 21
-380
  0
LINE
  8
0
  6
CONTINUOUS
 62
     7
 10
637.5
 20
-380.0000305175781
 11
634
 21
-384.1609191894531
  0
LINE
  8
0
  6
CONTINUOUS
 62
     7
 10
670.5000610351562
 20
-380
 11
674.0000610351563
 21
-384.160888671875
  0
LINE
  8
0
  6
CONTINUOUS
 62
     7
 10
674
 20
-382.5
 11
674
 21
-527.5
  0
LINE
  8
0
  6
CONTINUOUS
 62
     7
 10
637.5
 20
-530
 11
634
 21
-525.839111328125
  0
LINE
  8
0
  6
CONTINUOUS
 62
     7
 10
670.5
 20
-530
 11
674
 21
-525.839111328125
  0
LINE
  8
0
  6
CONTINUOUS
 62
     7
 10
637.5
 20
-425.5653076171875
 11
670.5
 21
-425.5653076171875
  0
LINE
  8
0
  6
CONTINUOUS
 62
     7
 10
637.5
 20
-434.2552795410156
 11
670.5
 21
-434.2552795410156
  0
LINE
  8
0
  6
CONTINUOUS
 62
     7
 10
637.5
 20
-442.0502319335937
 11
670.5
 21
-442.0502319335937
  0
LINE
  8
0
  6
CONTINUOUS
 62
     7
 10
637.5
 20
-451.0000610351563
 11
670.5
 21
-451.0000610351563
  0
LINE
  8
0
  6
CONTINUOUS
 62
     7
 10
637.5
 20
-459.0000915527344
 11
670.5
 21
-459.0000915527344
  0
LINE
  8
0
  6
CONTINUOUS
 62
     7
 10
637.5
 20
-467.9499206542969
 11
670.5
 21
-467.9499206542969
  0
LINE
  8
0
  6
CONTINUOUS
 62
     7
 10
637.5
 20
-475.744873046875
 11
670.5
 21
-475.744873046875
  0
LINE
  8
0
  6
CONTINUOUS
 62
     7
 10
637.5
 20
-484.4347839355469
 11
670.5
 21
-484.4347839355469
  0
LINE
  8
0
  6
CONTINUOUS
 62
     7
 10
637.5
 20
-500.0232543945313
 11
670.5
 21
-500.0232543945313
  0
LINE
  8
0
  6
CONTINUOUS
 62
     7
 10
637.5
 20
-507.0454406738281
 11
670.5
 21
-507.0454406738281
  0
LINE
  8
0
  6
CONTINUOUS
 62
     7
 10
637.5
 20
-512.50146484375
 11
670.5
 21
-512.50146484375
  0
LINE
  8
0
  6
CONTINUOUS
 62
     7
 10
637.5
 20
-517.8594360351563
 11
670.5
 21
-517.8594360351563
  0
LINE
  8
0
  6
CONTINUOUS
 62
     7
 10
637.5
 20
-521.8594360351562
 11
670.5
 21
-521.8594360351562
  0
LINE
  8
0
  6
CONTINUOUS
 62
     3
 10
544
 20
-445.135009765625
 11
544
 21
-464.864990234375
  0
LINE
  8
0
  6
CONTINUOUS
 62
     7
 10
544
 20
-450.0502624511719
 11
539.0502319335938
 21
-455
  0
LINE
  8
0
  6
CONTINUOUS
 62
     7
 10
539.0502319335938
 20
-454.9999694824219
 11
544
 21
-459.9497375488281
  0
LINE
  8
0
  6
CONTINUOUS
 62
     7
 10
544
 20
-459.9497375488281
 11
548.9497680664063
 21
-455
  0
LINE
  8
0
  6
CONTINUOUS
 62
     7
 10
548.94970703125
 20
-455
 11
544
 21
-450.0502624511719
  0
LINE
  8
0
  6
CONTINUOUS
 62
     3
 10
617.4326171875
 20
-306.8999938964844
 11
556.7659301757813
 21
-306.8999938964844
  0
LINE
  8
0
  6
CONTINUOUS
 62
     3
 10
574
 20
-291.5993957519531
 11
574
 21
-348.7841186523437
  0
LINE
  8
0
  6
CONTINUOUS
 62
     7
 10
582.5
 20
-331.2159423828125
 11
582.5
 21
-343.2413330078125
  0
LINE
  8
0
  6
CONTINUOUS
 62
     7
 10
565.5
 20
-331.2159729003906
 11
565.5
 21
-343.2413330078125
  0
LINE
  8
0
  6
CONTINUOUS
 62
     7
 10
612
 20
-315.1677856445312
 11
612
 21
-298.6322021484375
  0
LINE
  8
0
  6
CONTINUOUS
 62
     7
 10
603
 20
-315.4075622558594
 11
603
 21
-298.3924560546875
  0
LINE
  8
0
  6
CONTINUOUS
 62
     7
 10
603
 20
-315.4075927734375
 11
597
 21
-315.2200927734375
  0
LINE
  8
0
  6
CONTINUOUS
 62
     7
 10
603
 20
-298.3924255371094
 11
597
 21
-298.5799255371094
  0
LINE
  8
0
  6
CONTINUOUS
 62
     7
 10
585
 20
-294.8999938964844
 11
597
 21
-294.8999938964844
  0
LINE
  8
0
  6
CONTINUOUS
 62
     7
 10
591
 20
-318.8999938964844
 11
597
 21
-318.8999938964844
  0
LINE
  8
0
  6
CONTINUOUS
 62
     7
 10
597
 20
-294.8999938964844
 11
597
 21
-318.8999938964844
  0
LINE
  8
0
  6
CONTINUOUS
 62
     7
 10
562
 20
-317.8999938964844
 11
562
 21
-329.3105163574219
  0
LINE
  8
0
  6
CONTINUOUS
 62
     7
 10
586
 20
-323.8999938964844
 11
586
 21
-329.3105163574219
  0
LINE
  8
0
  6
CONTINUOUS
 62
     7
 10
603
 20
-298.6322021484375
 11
612
 21
-298.6322021484375
  0
LINE
  8
0
  6
CONTINUOUS
 62
     7
 10
603
 20
-315.1677856445312
 11
612
 21
-315.1677856445312
  0
LINE
  8
0
  6
CONTINUOUS
 62
     7
 10
603
 20
-306.8999938964844
 11
612
 21
-306.8999938964844
  0
LINE
  8
0
  6
CONTINUOUS
 62
     3
 10
612
 20
-306.8999938964844
 11
603
 21
-315.1678161621094
  0
LINE
  8
0
  6
CONTINUOUS
 62
     3
 10
612
 20
-315.1678161621094
 11
603
 21
-306.8999938964844
  0
LINE
  8
0
  6
CONTINUOUS
 62
     3
 10
612
 20
-298.6322021484375
 11
603
 21
-306.8999938964844
  0
LINE
  8
0
  6
CONTINUOUS
 62
     3
 10
612
 20
-306.8999938964844
 11
603
 21
-298.6322326660156
  0
LINE
  8
0
  6
CONTINUOUS
 62
     3
 10
305
 20
0
 11
749.0204467773437
 21
0
  0
LINE
  8
0
  6
CONTINUOUS
 62
     7
 10
559
 20
114.9999694824219
 11
559
 21
4
  0
LINE
  8
0
  6
CONTINUOUS
 62
     7
 10
559
 20
114.9999694824219
 11
577
 21
114.9999694824219
  0
LINE
  8
0
  6
CONTINUOUS
 62
     7
 10
559
 20
-115
 11
577
 21
-115
  0
LINE
  8
0
  6
CONTINUOUS
 62
     7
 10
577
 20
114.9999694824219
 11
577
 21
12.43438720703125
  0
LINE
  8
0
  6
CONTINUOUS
 62
     7
 10
634
 20
72.49996948242187
 11
634
 21
-72.5
  0
LINE
  8
0
  6
CONTINUOUS
 62
     7
 10
624
 20
72.49996948242187
 11
624
 21
-72.5
  0
LINE
  8
0
  6
CONTINUOUS
 62
     7
 10
624
 20
-72.5
 11
634
 21
-72.5
  0
LINE
  8
0
  6
CONTINUOUS
 62
     7
 10
624
 20
72.49996948242187
 11
634
 21
72.49996948242187
  0
LINE
  8
0
  6
CONTINUOUS
 62
     7
 10
592
 20
77.49996948242187
 11
592
 21
3.708099365234375
  0
LINE
  8
0
  6
CONTINUOUS
 62
     7
 10
582
 20
-82.5
 11
587
 21
-82.5
  0
LINE
  8
0
  6
CONTINUOUS
 62
     7
 10
582
 20
82.49996948242188
 11
587
 21
82.49996948242188
  0
LINE
  8
0
  6
CONTINUOUS
 62
     7
 10
586
 20
-48.60113525390625
 11
586
 21
-46.19300079345703
  0
LINE
  8
0
  6
CONTINUOUS
 62
     7
 10
577
 20
12.43439960479736
 11
586.0000610351563
 21
10.02285194396973
  0
LINE
  8
0
  6
CONTINUOUS
 62
     7
 10
576.9999389648438
 20
-51.01267623901367
 11
586
 21
-48.60112762451172
  0
LINE
  8
0
  6
CONTINUOUS
 62
     7
 10
577
 20
-51.01266479492187
 11
577
 21
-115
  0
LINE
  8
0
  6
CONTINUOUS
 62
     7
 10
592
 20
31.18218994140625
 11
624
 21
31.18218994140625
  0
LINE
  8
0
  6
CONTINUOUS
 62
     7
 10
592.0000610351562
 20
57.07563781738281
 11
624.0000610351563
 21
50.24576568603516
  0
LINE
  8
0
  6
CONTINUOUS
 62
     7
 10
612
 20
-31.18218994140625
 11
624
 21
-31.18218994140625
  0
LINE
  8
0
  6
CONTINUOUS
 62
     7
 10
592
 20
-57.07560348510742
 11
624.0000610351563
 21
-50.24571990966797
  0
LINE
  8
0
  6
CONTINUOUS
 62
     7
 10
557.5
 20
4
 11
590.5
 21
4
  0
LINE
  8
0
  6
CONTINUOUS
 62
     7
 10
557.5
 20
-4
 11
590.5
 21
-4
  0
LINE
  8
0
  6
CONTINUOUS
 62
     7
 10
586
 20
4
 11
586
 21
10.0228271484375
  0
LINE
  8
0
  6
CONTINUOUS
 62
     7
 10
592
 20
-3.708099365234375
 11
592
 21
-22.19300079345703
  0
LINE
  8
0
  6
CONTINUOUS
 62
     7
 10
559
 20
-4
 11
559
 21
-115
  0
LINE
  8
0
  6
CONTINUOUS
 62
     7
 10
674
 20
72.50002288818359
 11
674
 21
-72.49997711181641
  0
LINE
  8
0
  6
CONTINUOUS
 62
     7
 10
511
 20
117.4999694824219
 11
555
 21
117.4999694824219
  0
LINE
  8
0
  6
CONTINUOUS
 62
     7
 10
511
 20
-117.5
 11
555
 21
-117.5
  0
LINE
  8
0
  6
CONTINUOUS
 62
     7
 10
507
 20
115
 11
507
 21
-114.9999694824219
  0
LINE
  8
0
  6
CONTINUOUS
 62
     7
 10
511
 20
-111.4677429199219
 11
555
 21
-111.4677429199219
  0
LINE
  8
0
  6
CONTINUOUS
 62
     7
 10
507.0000305175781
 20
113.4999389648438
 11
511.0000305175781
 21
117.4999465942383
  0
LINE
  8
0
  6
CONTINUOUS
 62
     7
 10
554.9998168945313
 20
117.4999237060547
 11
558.9998168945312
 21
113.4999237060547
  0
LINE
  8
0
  6
CONTINUOUS
 62
     7
 10
559
 20
-113.5000457763672
 11
555
 21
-117.5000457763672
  0
LINE
  8
0
  6
CONTINUOUS
 62
     7
 10
511.0001220703125
 20
-117.4998931884766
 11
507.0001220703125
 21
-113.4998550415039
  0
LINE
  8
0
  6
CONTINUOUS
 62
     7
 10
511
 20
111.4676208496094
 11
555
 21
111.4676208496094
  0
LINE
  8
0
  6
CONTINUOUS
 62
     7
 10
511
 20
105.0982360839844
 11
555
 21
105.0982360839844
  0
LINE
  8
0
  6
CONTINUOUS
 62
     7
 10
511
 20
100.2502136230469
 11
555
 21
100.2502136230469
  0
LINE
  8
0
  6
CONTINUOUS
 62
     7
 10
511
 20
90.49581909179687
 11
555
 21
90.49581909179687
  0
LINE
  8
0
  6
CONTINUOUS
 62
     7
 10
511
 20
74.94113159179688
 11
555
 21
74.94113159179688
  0
LINE
  8
0
  6
CONTINUOUS
 62
     7
 10
511
 20
61.28469848632813
 11
555
 21
61.28469848632813
  0
LINE
  8
0
  6
CONTINUOUS
 62
     7
 10
511
 20
52.53948974609375
 11
555
 21
52.53948974609375
  0
LINE
  8
0
  6
CONTINUOUS
 62
     7
 10
511
 20
37.16400146484375
 11
555
 21
37.16400146484375
  0
LINE
  8
0
  6
CONTINUOUS
 62
     7
 10
511
 20
27.5504150390625
 11
555
 21
27.5504150390625
  0
LINE
  8
0
  6
CONTINUOUS
 62
     7
 10
511
 20
10.99948120117188
 11
555
 21
10.99948120117188
  0
LINE
  8
0
  6
CONTINUOUS
 62
     7
 10
511
 20
-90.49783325195313
 11
555
 21
-90.49783325195313
  0
LINE
  8
0
  6
CONTINUOUS
 62
     7
 10
511
 20
-100.2507019042969
 11
555
 21
-100.2507019042969
  0
LINE
  8
0
  6
CONTINUOUS
 62
     7
 10
511
 20
-105.0988464355469
 11
555
 21
-105.0988464355469
  0
LINE
  8
0
  6
CONTINUOUS
 62
     7
 10
415
 20
150
 11
437
 21
150
  0
LINE
  8
0
  6
CONTINUOUS
 62
     7
 10
415
 20
-149.9999694824219
 11
437
 21
-149.9999694824219
  0
LINE
  8
0
  6
CONTINUOUS
 62
     7
 10
415
 20
150
 11
415
 21
63.5789794921875
  0
LINE
  8
0
  6
CONTINUOUS
 62
     7
 10
437
 20
150
 11
437
 21
-149.9999694824219
  0
LINE
  8
0
  6
CONTINUOUS
 62
     7
 10
489
 20
115
 11
489
 21
17.5
  0
LINE
  8
0
  6
CONTINUOUS
 62
     7
 10
489
 20
-114.9999694824219
 11
507
 21
-114.9999694824219
  0
LINE
  8
0
  6
CONTINUOUS
 62
     7
 10
489
 20
115
 11
507
 21
115
  0
LINE
  8
0
  6
CONTINUOUS
 62
     7
 10
437
 20
17.5
 11
489
 21
17.5
  0
LINE
  8
0
  6
CONTINUOUS
 62
     7
 10
437
 20
-17.5
 11
489
 21
-17.5
  0
LINE
  8
0
  6
CONTINUOUS
 62
     7
 10
489
 20
-17.5
 11
489
 21
-114.9999694824219
  0
LINE
  8
0
  6
CONTINUOUS
 62
     7
 10
437.0000610351563
 20
106.8764877319336
 11
489.0000305175781
 21
85.59574127197266
  0
LINE
  8
0
  6
CONTINUOUS
 62
     7
 10
436.9999694824219
 20
92.734375
 11
488.9999694824219
 21
71.45361328125
  0
LINE
  8
0
  6
CONTINUOUS
 62
     7
 10
474.6410217285156
 20
51.9927978515625
 11
484
 21
51.9927978515625
  0
LINE
  8
0
  6
CONTINUOUS
 62
     7
 10
474.6410217285156
 20
-51.9927978515625
 11
484
 21
-51.9927978515625
  0
LINE
  8
0
  6
CONTINUOUS
 62
     7
 10
437.0000305175781
 20
-92.73435974121094
 11
489.0000305175781
 21
-71.45360565185547
  0
LINE
  8
0
  6
CONTINUOUS
 62
     7
 10
437.0000305175781
 20
-106.8765411376953
 11
489.0000305175781
 21
-85.59577941894531
  0
LINE
  8
0
  6
CONTINUOUS
 62
     7
 10
440.095703125
 20
66.22222137451172
 11
474.6410217285156
 21
51.99277114868164
  0
LINE
  8
0
  6
CONTINUOUS
 62
     7
 10
440.0956726074219
 20
-66.22224426269531
 11
474.6410217285156
 21
-51.99278259277344
  0
LINE
  8
0
  6
CONTINUOUS
 62
     7
 10
410
 20
115
 11
410
 21
74.63330078125
  0
LINE
  8
0
  6
CONTINUOUS
 62
     7
 10
410
 20
115
 11
415
 21
115
  0
LINE
  8
0
  6
CONTINUOUS
 62
     7
 10
410
 20
-115
 11
415
 21
-115
  0
LINE
  8
0
  6
CONTINUOUS
 62
     7
 10
320
 20
32.5
 11
320
 21
-32.5
  0
LINE
  8
0
  6
CONTINUOUS
 62
     7
 10
320
 20
-32.5
 11
415
 21
-32.5
  0
LINE
  8
0
  6
CONTINUOUS
 62
     7
 10
320
 20
32.5
 11
415
 21
32.5
  0
LINE
  8
0
  6
CONTINUOUS
 62
     7
 10
320
 20
9
 11
401
 21
9
  0
LINE
  8
0
  6
CONTINUOUS
 62
     7
 10
320
 20
-9
 11
401
 21
-9
  0
LINE
  8
0
  6
CONTINUOUS
 62
     7
 10
415
 20
-37.5
 11
419.4187927246094
 21
-37.5
  0
LINE
  8
0
  6
CONTINUOUS
 62
     7
 10
415
 20
37.5
 11
420.41064453125
 21
37.5
  0
LINE
  8
0
  6
CONTINUOUS
 62
     7
 10
410
 20
-71.69732666015625
 11
410
 21
-115
  0
LINE
  8
0
  6
CONTINUOUS
 62
     7
 10
415
 20
-67.507568359375
 11
415
 21
-149.9999694824219
  0
LINE
  8
0
  6
CONTINUOUS
 62
     7
 10
415
 20
37.5
 11
415
 21
-37.5
  0
LINE
  8
0
  6
CONTINUOUS
 62
     7
 10
400
 20
9
 11
400
 21
-9
  0
LINE
  8
0
  6
CONTINUOUS
 62
     7
 10
471.4852600097656
 20
-1.707568912934221E-06
 11
462.9999694824219
 21
8.485279083251953
  0
LINE
  8
0
  6
CONTINUOUS
 62
     7
 10
463.0000305175781
 20
8.485263824462891
 11
454.5147705078125
 21
4.845642251893878E-06
  0
LINE
  8
0
  6
CONTINUOUS
 62
     7
 10
462.9999694824219
 20
-8.485234260559082
 11
454.5147094726562
 21
4.845645889872685E-06
  0
LINE
  8
0
  6
CONTINUOUS
 62
     7
 10
471.4852905273437
 20
6.83026883052662E-06
 11
463.0000305175781
 21
-8.485251426696777
  0
LINE
  8
0
  6
CONTINUOUS
 62
     3
 10
463
 20
15.72772216796875
 11
463
 21
-15.83087158203125
  0
LINE
  8
0
  6
CONTINUOUS
 62
     7
 10
637.5
 20
-72.07395935058594
 11
670.5
 21
-72.07395935058594
  0
LINE
  8
0
  6
CONTINUOUS
 62
     7
 10
637.5
 20
75
 11
670.5
 21
75
  0
LINE
  8
0
  6
CONTINUOUS
 62
     7
 10
637.5
 20
74.99997711181641
 11
634
 21
70.83908081054688
  0
LINE
  8
0
  6
CONTINUOUS
 62
     7
 10
670.5
 20
74.99996948242188
 11
674
 21
70.83907318115234
  0
LINE
  8
0
  6
CONTINUOUS
 62
     7
 10
670.5
 20
-75.00001525878906
 11
674
 21
-70.83911895751953
  0
LINE
  8
0
  6
CONTINUOUS
 62
     7
 10
637.5
 20
-75
 11
670.5
 21
-75
  0
LINE
  8
0
  6
CONTINUOUS
 62
     7
 10
637.5
 20
-74.99997711181641
 11
634
 21
-70.83910369873047
  0
LINE
  8
0
  6
CONTINUOUS
 62
     7
 10
637.5
 20
72.07391357421875
 11
670.5
 21
72.07391357421875
  0
LINE
  8
0
  6
CONTINUOUS
 62
     7
 10
637.5
 20
68.98251342773437
 11
670.5
 21
68.98251342773437
  0
LINE
  8
0
  6
CONTINUOUS
 62
     7
 10
637.5
 20
59.98248291015625
 11
670.5
 21
59.98248291015625
  0
LINE
  8
0
  6
CONTINUOUS
 62
     7
 10
637.5
 20
54.0025634765625
 11
670.5
 21
54.0025634765625
  0
LINE
  8
0
  6
CONTINUOUS
 62
     7
 10
637.5
 20
40.91079711914063
 11
670.5
 21
40.91079711914063
  0
LINE
  8
0
  6
CONTINUOUS
 62
     7
 10
637.5
 20
48.15170288085938
 11
670.5
 21
48.15170288085938
  0
LINE
  8
0
  6
CONTINUOUS
 62
     7
 10
637.5
 20
33.98257446289063
 11
670.5
 21
33.98257446289063
  0
LINE
  8
0
  6
CONTINUOUS
 62
     7
 10
637.5
 20
25.72195434570313
 11
670.5
 21
25.72195434570313
  0
LINE
  8
0
  6
CONTINUOUS
 62
     7
 10
637.5
 20
18.07150268554688
 11
670.5
 21
18.07150268554688
  0
LINE
  8
0
  6
CONTINUOUS
 62
     7
 10
637.5
 20
9.00006103515625
 11
670.5
 21
9.00006103515625
  0
LINE
  8
0
  6
CONTINUOUS
 62
     7
 10
637.5
 20
-68.98260498046875
 11
670.5
 21
-68.98260498046875
  0
LINE
  8
0
  6
CONTINUOUS
 62
     7
 10
539.0090942382813
 20
-121.5300064086914
 11
539.135009765625
 21
-117.5000076293945
  0
LINE
  8
0
  6
CONTINUOUS
 62
     7
 10
548.9910278320312
 20
-121.5299987792969
 11
548.8650512695313
 21
-117.5
  0
LINE
  8
0
  6
CONTINUOUS
 62
     3
 10
544
 20
-112.517951965332
 11
544
 21
-132.2556762695312
  0
LINE
  8
0
  6
CONTINUOUS
 62
     7
 10
539.009033203125
 20
-121.5299987792969
 11
548.990966796875
 21
-121.5299987792969
  0
LINE
  8
0
  6
CONTINUOUS
 62
     7
 10
548.5355224609375
 20
-128.5299987792969
 11
548.5355224609375
 21
-121.5299987792969
  0
LINE
  8
0
  6
CONTINUOUS
 62
     3
 10
544
 20
-121.5299758911133
 11
548.5355224609375
 21
-128.5299682617187
  0
LINE
  8
0
  6
CONTINUOUS
 62
     3
 10
544
 20
-128.5300140380859
 11
548.5355834960938
 21
-121.5300140380859
  0
LINE
  8
0
  6
CONTINUOUS
 62
     3
 10
539.4644775390625
 20
-121.5299606323242
 11
544
 21
-128.5299682617187
  0
LINE
  8
0
  6
CONTINUOUS
 62
     3
 10
539.4644775390625
 20
-128.5300140380859
 11
544
 21
-121.5300140380859
  0
LINE
  8
0
  6
CONTINUOUS
 62
     7
 10
539.4644775390625
 20
-128.5299987792969
 11
539.4644775390625
 21
-121.5299987792969
  0
LINE
  8
0
  6
CONTINUOUS
 62
     7
 10
539.4644775390625
 20
-128.5299987792969
 11
548.5355224609375
 21
-128.5299987792969
  0
LINE
  8
0
  6
CONTINUOUS
 62
     7
 10
562
 20
-29.01912498474121
 11
562
 21
-31.71853828430176
  0
LINE
  8
0
  6
CONTINUOUS
 62
     3
 10
554.9986572265625
 20
-34.19300079345703
 11
617.62939453125
 21
-34.19300079345703
  0
LINE
  8
0
  6
CONTINUOUS
 62
     3
 10
574
 20
-15.03795146942139
 11
574
 21
-48.40578460693359
  0
LINE
  8
0
  6
CONTINUOUS
 62
     7
 10
585.9979858398437
 20
-22.19300079345703
 11
597
 21
-22.19300079345703
  0
LINE
  8
0
  6
CONTINUOUS
 62
     7
 10
597
 20
-22.19300079345703
 11
597
 21
-46.19300079345703
  0
LINE
  8
0
  6
CONTINUOUS
 62
     7
 10
585
 20
-46.19300079345703
 11
597
 21
-46.19300079345703
  0
LINE
  8
0
  6
CONTINUOUS
 62
     7
 10
603
 20
-25.68543815612793
 11
597
 21
-25.87293815612793
  0
LINE
  8
0
  6
CONTINUOUS
 62
     7
 10
603
 20
-42.70056533813477
 11
603
 21
-25.6854362487793
  0
LINE
  8
0
  6
CONTINUOUS
 62
     7
 10
602.9999389648438
 20
-42.70056915283203
 11
596.9999389648437
 21
-42.51306915283203
  0
LINE
  8
0
  6
CONTINUOUS
 62
     7
 10
612
 20
-42.46081161499023
 11
612
 21
-25.92519760131836
  0
LINE
  8
0
  6
CONTINUOUS
 62
     7
 10
603
 20
-42.46081161499023
 11
612
 21
-42.46081161499023
  0
LINE
  8
0
  6
CONTINUOUS
 62
     7
 10
603
 20
-25.92519760131836
 11
612
 21
-25.92519760131836
  0
LINE
  8
0
  6
CONTINUOUS
 62
     7
 10
586
 20
-22.19300079345703
 11
586
 21
-4
  0
LINE
  8
0
  6
CONTINUOUS
 62
     7
 10
592
 20
-46.19300079345703
 11
592
 21
-77.5
  0
LINE
  8
0
  6
CONTINUOUS
 62
     7
 10
544
 20
-121.5299987792969
 11
544.0000610351562
 21
-128.5299835205078
  0
LINE
  8
0
  6
CONTINUOUS
 62
     7
 10
603
 20
-34.19300079345703
 11
612
 21
-34.19300079345703
  0
LINE
  8
0
  6
CONTINUOUS
 62
     3
 10
612
 20
-34.19301605224609
 11
603
 21
-42.46083068847656
  0
LINE
  8
0
  6
CONTINUOUS
 62
     3
 10
612
 20
-42.46080780029297
 11
603
 21
-34.1929931640625
  0
LINE
  8
0
  6
CONTINUOUS
 62
     3
 10
603
 20
-34.19302368164063
 11
612
 21
-25.92521667480469
  0
LINE
  8
0
  6
CONTINUOUS
 62
     3
 10
603
 20
-25.9251880645752
 11
612
 21
-34.19299697875977
  0
LINE
  8
0
  6
CONTINUOUS
 62
     3
 10
-165
 20
-455
 11
165
 21
-455
  0
LINE
  8
0
  6
CONTINUOUS
 62
     3
 10
0
 20
-241.0500183105469
 11
0
 21
-620
  0
LINE
  8
0
  6
CONTINUOUS
 62
     7
 10
9
 20
-418.5
 11
9
 21
-429.5
  0
LINE
  8
0
  6
CONTINUOUS
 62
     7
 10
-9
 20
-418.5
 11
-9
 21
-429.5
  0
LINE
  8
0
  6
CONTINUOUS
 62
     3
 10
111.7655563354492
 20
-501.2949829101563
 11
132.5182189941406
 21
-509.8910217285156
  0
LINE
  8
0
  6
CONTINUOUS
 62
     3
 10
111.765739440918
 20
-408.7051086425781
 11
132.5184020996094
 21
-400.1090698242187
  0
LINE
  8
0
  6
CONTINUOUS
 62
     3
 10
46.29492950439453
 20
-343.234375
 11
54.89095306396484
 21
-322.4817504882813
  0
LINE
  8
0
  6
CONTINUOUS
 62
     3
 10
-46.2946891784668
 20
-343.234375
 11
-54.89072418212891
 21
-322.4817199707031
  0
LINE
  8
0
  6
CONTINUOUS
 62
     3
 10
-111.765625
 20
-408.7049865722656
 11
-132.5182952880859
 21
-400.1089477539063
  0
LINE
  8
0
  6
CONTINUOUS
 62
     3
 10
-111.7656860351562
 20
-501.2947082519531
 11
-132.5183563232422
 21
-509.8907470703125
  0
LINE
  8
0
  6
CONTINUOUS
 62
     3
 10
-46.29496765136719
 20
-566.7655029296875
 11
-54.89100646972656
 21
-587.5181884765625
  0
LINE
  8
0
  6
CONTINUOUS
 62
     3
 10
46.29468536376953
 20
-566.7656860351563
 11
54.89071655273438
 21
-587.5183715820312
  0
LINE
  8
0
  6
CONTINUOUS
 62
     7
 10
-9
 20
-429.5
 11
9
 21
-429.5
  0
LINE
  8
0
  6
CONTINUOUS
 62
     7
 10
-9
 20
-418.5
 11
9
 21
-418.5
  0
LINE
  8
0
  6
CONTINUOUS
 62
     3
 10
58.56740951538086
 20
-488.8138732910156
 11
71.13249206542969
 21
-496.0683288574219
  0
LINE
  8
0
  6
CONTINUOUS
 62
     3
 10
58.56742095947266
 20
-421.1861267089844
 11
71.13250732421875
 21
-413.9316711425781
  0
LINE
  8
0
  6
CONTINUOUS
 62
     3
 10
-58.56744384765625
 20
-421.18603515625
 11
-71.13258361816406
 21
-413.9315490722656
  0
LINE
  8
0
  6
CONTINUOUS
 62
     3
 10
-58.56748199462891
 20
-488.8139953613281
 11
-71.132568359375
 21
-496.0684509277344
  0
LINE
  8
0
  6
CONTINUOUS
 62
     7
 10
-13.5
 20
-270.7000122070312
 11
13.5
 21
-270.7000122070312
  0
LINE
  8
0
  6
CONTINUOUS
 62
     7
 10
8.07110595703125
 20
-256.0500183105469
 11
-8.07110595703125
 21
-256.0500183105469
  0
LINE
  8
0
  6
CONTINUOUS
 62
     7
 10
8.507568359375
 20
-265.0500183105469
 11
-8.507568359375
 21
-265.0500183105469
  0
LINE
  8
0
  6
CONTINUOUS
 62
     7
 10
8.507609367370605
 20
-265.0499877929687
 11
8.331047058105469
 21
-270.7000122070312
  0
LINE
  8
0
  6
CONTINUOUS
 62
     7
 10
-8.507547378540039
 20
-265.0500183105469
 11
-8.330985069274902
 21
-270.7000122070312
  0
LINE
  8
0
  6
CONTINUOUS
 62
     7
 10
8.07110595703125
 20
-256.0500183105469
 11
8.07110595703125
 21
-265.0500183105469
  0
LINE
  8
0
  6
CONTINUOUS
 62
     7
 10
-8.07110595703125
 20
-256.0500183105469
 11
-8.07110595703125
 21
-265.0500183105469
  0
LINE
  8
0
  6
CONTINUOUS
 62
     7
 10
-13.5
 20
-270.7000122070312
 11
-13.5
 21
-305.6087341308594
  0
LINE
  8
0
  6
CONTINUOUS
 62
     7
 10
13.5
 20
-270.7000122070312
 11
13.5
 21
-305.6087341308594
  0
LINE
  8
0
  6
CONTINUOUS
 62
     3
 10
-8.071083068847656
 20
-265.0499572753906
 11
2.749800660239998E-05
 21
-256.0499572753906
  0
LINE
  8
0
  6
CONTINUOUS
 62
     7
 10
0
 20
-256.0500183105469
 11
0
 21
-265.0500183105469
  0
LINE
  8
0
  6
CONTINUOUS
 62
     3
 10
-1.157422593678348E-05
 20
-265.0500183105469
 11
8.071099281311035
 21
-256.0500183105469
  0
LINE
  8
0
  6
CONTINUOUS
 62
     3
 10
8.071110725402832
 20
-265.050048828125
 11
1.992175020859577E-05
 21
-256.0500793457031
  0
LINE
  8
0
  6
CONTINUOUS
 62
     3
 10
-8.071110725402832
 20
-256.0500183105469
 11
2.058919380942825E-05
 21
-265.050048828125
  0
LINE
  8
0
  6
CONTINUOUS
 62
     3
 10
37.59789657592773
 20
-292.1456298828125
 11
33.74265670776367
 21
-308.844482421875
  0
LINE
  8
0
  6
CONTINUOUS
 62
     7
 10
22.50011825561523
 20
-304.1963500976563
 11
21.94206619262695
 21
-306.613525390625
  0
LINE
  8
0
  6
CONTINUOUS
 62
     7
 10
45.8849983215332
 20
-309.5951538085938
 11
45.32694625854492
 21
-312.0123596191406
  0
LINE
  8
0
  6
CONTINUOUS
 62
     7
 10
674
 20
71.49996948242187
 11
674
 21
-2.730996675381903E-05
  0
LINE
  8
0
  6
CONTINUOUS
 62
     7
 10
674
 20
-71.50003051757813
 11
674
 21
-2.730996675381903E-05
  0
LINE
  8
0
  6
CONTINUOUS
 62
     7
 10
673.9999389648438
 20
-71.49995422363281
 11
674.9999389648437
 21
-72.49993133544922
  0
LINE
  8
0
  6
CONTINUOUS
 62
     7
 10
675.0001220703125
 20
72.50000762939453
 11
674.0000610351563
 21
71.49993896484375
  0
LINE
  8
0
  6
CONTINUOUS
 62
     7
 10
673.9999389648438
 20
-383.4999694824219
 11
674.9999389648437
 21
-382.5
  0
LINE
  8
0
  6
CONTINUOUS
 62
     7
 10
674
 20
-526.5001220703125
 11
674
 21
-455.0000915527344
  0
LINE
  8
0
  6
CONTINUOUS
 62
     7
 10
674
 20
-383.5000915527344
 11
674
 21
-455.0000915527344
  0
LINE
  8
0
  6
CONTINUOUS
 62
     7
 10
675
 20
-527.5000610351562
 11
674.0000610351563
 21
-526.5000610351562
  0
LINE
  8
0
  6
CONTINUOUS
 62
     7
 10
674
 20
-382.5
 11
674
 21
-527.5
  0
LINE
  8
0
  6
CONTINUOUS
 62
     7
 10
674
 20
-527.5
 11
689
 21
-527.5
  0
LINE
  8
0
  6
CONTINUOUS
 62
     7
 10
674
 20
-382.5
 11
689
 21
-382.5
  0
LINE
  8
0
  6
CONTINUOUS
 62
     7
 10
689
 20
-382.5
 11
689
 21
-527.5
  0
LINE
  8
0
  6
CONTINUOUS
 62
     7
 10
734
 20
-355
 11
734
 21
-555
  0
LINE
  8
0
  6
CONTINUOUS
 62
     7
 10
719
 20
-355
 11
719
 21
-555
  0
LINE
  8
0
  6
CONTINUOUS
 62
     7
 10
694
 20
-417
 11
714
 21
-417
  0
LINE
  8
0
  6
CONTINUOUS
 62
     7
 10
694
 20
-493
 11
714
 21
-493
  0
LINE
  8
0
  6
CONTINUOUS
 62
     7
 10
689
 20
-511
 11
719
 21
-511
  0
LINE
  8
0
  6
CONTINUOUS
 62
     7
 10
689
 20
-399
 11
719
 21
-399
  0
LINE
  8
0
  6
CONTINUOUS
 62
     7
 10
719
 20
-555
 11
734
 21
-555
  0
LINE
  8
0
  6
CONTINUOUS
 62
     7
 10
719
 20
-355
 11
734
 21
-355
  0
LINE
  8
0
  6
CONTINUOUS
 62
     7
 10
689
 20
-460
 11
719
 21
-460
  0
LINE
  8
0
  6
CONTINUOUS
 62
     7
 10
689
 20
-450
 11
719
 21
-450
  0
LINE
  8
0
  6
CONTINUOUS
 62
     7
 10
689
 20
5
 11
719
 21
5
  0
LINE
  8
0
  6
CONTINUOUS
 62
     7
 10
689
 20
-5
 11
719
 21
-5
  0
LINE
  8
0
  6
CONTINUOUS
 62
     7
 10
719
 20
100
 11
734
 21
100
  0
LINE
  8
0
  6
CONTINUOUS
 62
     7
 10
719
 20
-100
 11
734
 21
-100
  0
LINE
  8
0
  6
CONTINUOUS
 62
     7
 10
689
 20
56
 11
719
 21
56
  0
LINE
  8
0
  6
CONTINUOUS
 62
     7
 10
689
 20
-56
 11
719
 21
-56
  0
LINE
  8
0
  6
CONTINUOUS
 62
     7
 10
694
 20
-38
 11
714
 21
-38
  0
LINE
  8
0
  6
CONTINUOUS
 62
     7
 10
694
 20
38
 11
714
 21
38
  0
LINE
  8
0
  6
CONTINUOUS
 62
     7
 10
719
 20
100
 11
719
 21
-100
  0
LINE
  8
0
  6
CONTINUOUS
 62
     7
 10
734
 20
100
 11
734
 21
-100
  0
LINE
  8
0
  6
CONTINUOUS
 62
     7
 10
674
 20
1.13686837721616E-13
 11
674
 21
72.5
  0
LINE
  8
0
  6
CONTINUOUS
 62
     7
 10
689
 20
1.13686837721616E-13
 11
689
 21
72.5
  0
LINE
  8
0
  6
CONTINUOUS
 62
     7
 10
674
 20
72.5
 11
689
 21
72.5
  0
LINE
  8
0
  6
CONTINUOUS
 62
     7
 10
674
 20
-72.5
 11
689
 21
-72.5
  0
LINE
  8
0
  6
CONTINUOUS
 62
     7
 10
689
 20
-72.5
 11
689
 21
1.13686837721616E-13
  0
LINE
  8
0
  6
CONTINUOUS
 62
     7
 10
674
 20
-72.5
 11
674
 21
1.13686837721616E-13
  0
ARC
  8
0
  6
CONTINUOUS
 62
     7
 10
587
 20
-532.5
 40
5.000000000000019
 50
270.0000179860897
 51
0
  0
ARC
  8
0
  6
CONTINUOUS
 62
     7
 10
582
 20
-542.5
 40
5.000000000000019
 50
89.99998201391031
 51
179.9999640278219
  0
ARC
  8
0
  6
CONTINUOUS
 62
     7
 10
582
 20
-367.5
 40
5.000000000000038
 50
179.9999776881996
 51
269.9999733624889
  0
ARC
  8
0
  6
CONTINUOUS
 62
     7
 10
587
 20
-377.5
 40
5
 50
359.9999453584866
 51
89.99992737239695
  0
ARC
  8
0
  6
CONTINUOUS
 62
     7
 10
588
 20
-370.5
 40
2.000000000000038
 50
179.9999776882003
 51
270.0000280040029
  0
ARC
  8
0
  6
CONTINUOUS
 62
     7
 10
588
 20
-539.5
 40
1.999999999999985
 50
89.99998201391097
 51
179.9999640278219
  0
ARC
  8
0
  6
CONTINUOUS
 62
     7
 10
442
 20
-335
 40
4.999999999999981
 50
179.9999776881996
 51
270.0000280040023
  0
ARC
  8
0
  6
CONTINUOUS
 62
     7
 10
442
 20
-384.1546020507813
 40
5
 50
179.999991348578
 51
247.6128808859912
  0
ARC
  8
0
  6
CONTINUOUS
 62
     7
 10
484
 20
-511.9927978515625
 40
5
 50
0
 51
90.00000250447847
  0
ARC
  8
0
  6
CONTINUOUS
 62
     7
 10
484
 20
-398.0072326660156
 40
5.000000000000004
 50
269.9999974955215
 51
0
  0
ARC
  8
0
  6
CONTINUOUS
 62
     7
 10
442
 20
-525.8453979492187
 40
4.999999999999956
 50
112.3871086413541
 51
180.0000050089569
  0
CIRCLE
  8
0
  6
CONTINUOUS
 62
     3
 10
544
 20
-455
 40
4.990937232971191
  0
ARC
  8
0
  6
CONTINUOUS
 62
     7
 10
574
 20
-316.5
 40
20.50000000000002
 50
298.7773671481589
 51
353.2767831183339
  0
ARC
  8
0
  6
CONTINUOUS
 62
     7
 10
591
 20
-323.8999938964844
 40
5.000000000000004
 50
90.00000250447782
 51
180.0000050089563
  0
ARC
  8
0
  6
CONTINUOUS
 62
     7
 10
585
 20
-317.8999938964844
 40
23.00000000000002
 50
90.00000250447805
 51
180.0000050089564
  0
ARC
  8
0
  6
CONTINUOUS
 62
     7
 10
574
 20
-316.5
 40
20.49999999999999
 50
80.95569823197921
 51
240.235211072867
  0
ARC
  8
0
  6
CONTINUOUS
 62
     7
 10
587
 20
77.49996948242187
 40
5
 50
0
 51
89.99998201391031
  0
ARC
  8
0
  6
CONTINUOUS
 62
     7
 10
587
 20
-77.5
 40
5.000000000000004
 50
270.0000179860897
 51
0
  0
ARC
  8
0
  6
CONTINUOUS
 62
     7
 10
582
 20
-87.5
 40
5.000000000000004
 50
89.99998201391031
 51
179.9999640278213
  0
ARC
  8
0
  6
CONTINUOUS
 62
     7
 10
582
 20
87.49996948242188
 40
5.000000000000038
 50
179.9999776881996
 51
270.0000280040023
  0
ARC
  8
0
  6
CONTINUOUS
 62
     7
 10
574
 20
0
 40
9.999999999999986
 50
23.57817672245736
 51
156.4218368242355
  0
ARC
  8
0
  6
CONTINUOUS
 62
     7
 10
557.5
 20
0
 40
4
 50
89.99998201391097
 51
270.0000006832446
  0
ARC
  8
0
  6
CONTINUOUS
 62
     7
 10
590.5
 20
0
 40
4
 50
270.0000179860891
 51
89.99998201391097
  0
ARC
  8
0
  6
CONTINUOUS
 62
     7
 10
574
 20
0
 40
10.00000000000001
 50
203.5781631757645
 51
336.4218232775426
  0
ARC
  8
0
  6
CONTINUOUS
 62
     7
 10
442
 20
70.84539794921875
 40
5
 50
179.999991348578
 51
247.6128808859913
  0
ARC
  8
0
  6
CONTINUOUS
 62
     7
 10
442
 20
-70.84539794921875
 40
4.999999999999996
 50
112.3871086413539
 51
180.0000050089563
  0
ARC
  8
0
  6
CONTINUOUS
 62
     7
 10
484
 20
56.9927978515625
 40
4.999999999999997
 50
269.9999974955215
 51
0
  0
ARC
  8
0
  6
CONTINUOUS
 62
     7
 10
484
 20
-56.9927978515625
 40
5
 50
0
 51
90.00000250447847
  0
ARC
  8
0
  6
CONTINUOUS
 62
     7
 10
401
 20
0
 40
9
 50
270.0000179860894
 51
89.99998201391061
  0
CIRCLE
  8
0
  6
CONTINUOUS
 62
     7
 10
463
 20
0
 40
13.5
  0
ARC
  8
0
  6
CONTINUOUS
 62
     7
 10
585.9979858398437
 20
-17.1929931640625
 40
4.999999999999965
 50
225.6327620434661
 51
269.9999974955222
  0
CIRCLE
  8
0
  6
CONTINUOUS
 62
     7
 10
0
 20
-455
 40
150
  0
ARC
  8
0
  6
CONTINUOUS
 62
     7
 10
0
 20
-455
 40
32.49999999999998
 50
106.0766695464224
 51
73.92333865025743
  0
ARC
  8
0
  6
CONTINUOUS
 62
     3
 10
0
 20
-455
 40
132.5
 50
333.1091217659313
 51
342.2186338544365
  0
CIRCLE
  8
0
  6
CONTINUOUS
 62
     7
 10
122.4140625
 20
-505.70556640625
 40
7.5
  0
CIRCLE
  8
0
  6
CONTINUOUS
 62
     7
 10
122.4140625
 20
-404.2944641113281
 40
7.5
  0
ARC
  8
0
  6
CONTINUOUS
 62
     3
 10
0
 20
-455
 40
132.5
 50
18.10912301817034
 51
27.21863510667556
  0
CIRCLE
  8
0
  6
CONTINUOUS
 62
     7
 10
50.70556640625
 20
-332.5859680175781
 40
7.5
  0
ARC
  8
0
  6
CONTINUOUS
 62
     3
 10
0
 20
-455
 40
132.5
 50
63.10911744022025
 51
72.21863635891464
  0
CIRCLE
  8
0
  6
CONTINUOUS
 62
     7
 10
-50.70556640625
 20
-332.5859680175781
 40
7.5
  0
ARC
  8
0
  6
CONTINUOUS
 62
     3
 10
0
 20
-455
 40
132.5
 50
108.1091152773648
 51
117.2186410262483
  0
CIRCLE
  8
0
  6
CONTINUOUS
 62
     7
 10
-122.4140625
 20
-404.2944641113281
 40
7.5
  0
ARC
  8
0
  6
CONTINUOUS
 62
     3
 10
0
 20
-455
 40
132.5
 50
153.1091131145093
 51
162.2186320332036
  0
CIRCLE
  8
0
  6
CONTINUOUS
 62
     7
 10
-122.4140625
 20
-505.70556640625
 40
7.5
  0
ARC
  8
0
  6
CONTINUOUS
 62
     3
 10
0
 20
-455
 40
132.5
 50
198.1091350846869
 51
207.218640343003
  0
CIRCLE
  8
0
  6
CONTINUOUS
 62
     7
 10
-50.70556640625
 20
-577.4140625
 40
7.5
  0
ARC
  8
0
  6
CONTINUOUS
 62
     3
 10
0
 20
-455
 40
132.5
 50
243.1091260916423
 51
252.2186381801475
  0
CIRCLE
  8
0
  6
CONTINUOUS
 62
     7
 10
50.70556640625
 20
-577.4140625
 40
7.5
  0
ARC
  8
0
  6
CONTINUOUS
 62
     3
 10
0
 20
-455
 40
132.5
 50
288.1091239287867
 51
297.218636017292
  0
CIRCLE
  8
0
  6
CONTINUOUS
 62
     7
 10
0
 20
-455
 40
55
  0
CIRCLE
  8
0
  6
CONTINUOUS
 62
     7
 10
0
 20
-455
 40
87.5
  0
ARC
  8
0
  6
CONTINUOUS
 62
     3
 10
0
 20
-455
 40
75
 50
323.8767994610546
 51
336.1231988692933
  0
ARC
  8
0
  6
CONTINUOUS
 62
     3
 10
0
 20
-455
 40
74.99999999999999
 50
23.87680113070673
 51
36.12320053894538
  0
ARC
  8
0
  6
CONTINUOUS
 62
     3
 10
0
 20
-455
 40
75
 50
83.87679938526426
 51
96.12319879350289
  0
ARC
  8
0
  6
CONTINUOUS
 62
     3
 10
0
 20
-455
 40
74.99999999999999
 50
143.8768010549164
 51
156.1231936329658
  0
ARC
  8
0
  6
CONTINUOUS
 62
     3
 10
0
 20
-455
 40
74.99999999999999
 50
203.8768063670341
 51
216.1231989450836
  0
ARC
  8
0
  6
CONTINUOUS
 62
     3
 10
0
 20
-455
 40
75.00000000000006
 50
263.8768012064971
 51
276.1232006147357
  0
ARC
  8
0
  6
CONTINUOUS
 62
     7
 10
0
 20
-455
 40
107.5
 50
19.35118096590611
 51
0.6488233475505203
  0
ARC
  8
0
  6
CONTINUOUS
 62
     7
 10
0
 20
-455
 40
115
 50
17.4935163607298
 51
2.506470877253908
  0
CIRCLE
  8
0
  6
CONTINUOUS
 62
     7
 10
103.40478515625
 20
-436.7669372558594
 40
17.5
  0
ARC
  8
0
  6
CONTINUOUS
 62
     7
 10
34.19256210327148
 20
-306.895751953125
 40
12
 50
347.0000002074245
 51
166.9999966786442
  0
ARC
  8
0
  6
CONTINUOUS
 62
     7
 10
694
 20
-412
 40
4.999999999999943
 50
179.999991348578
 51
270.0000006832456
  0
ARC
  8
0
  6
CONTINUOUS
 62
     7
 10
714
 20
-412
 40
5.000000000000004
 50
269.9999974955222
 51
0
  0
ARC
  8
0
  6
CONTINUOUS
 62
     7
 10
694
 20
-498
 40
5.000000000000004
 50
90.00000250447782
 51
180.0000050089563
  0
ARC
  8
0
  6
CONTINUOUS
 62
     7
 10
714
 20
-498
 40
5
 50
0
 51
90.00000250447782
  0
ARC
  8
0
  6
CONTINUOUS
 62
     7
 10
714
 20
-43
 40
5
 50
0
 51
90.00000250447782
  0
ARC
  8
0
  6
CONTINUOUS
 62
     7
 10
694
 20
-43
 40
4.999999999999997
 50
90.00000250447782
 51
180.0000050089563
  0
ARC
  8
0
  6
CONTINUOUS
 62
     7
 10
714
 20
43
 40
4.999999999999997
 50
269.9999974955222
 51
0
  0
ARC
  8
0
  6
CONTINUOUS
 62
     7
 10
694
 20
43
 40
4.999999999999943
 50
179.999991348578
 51
270.0000006832456
  0
POLYLINE
  8
0
  6
CONTINUOUS
 62
     7
 66
     1
 10
0
 20
0
  0
VERTEX
  8
0
  6
CONTINUOUS
 62
     7
 10
410.0004540503202
 20
-357.4781153295513
 42
-0.1753072606217173
  0
VERTEX
  8
0
  6
CONTINUOUS
 62
     7
 10
419.3538545787914
 20
-370.9189611816324
 42
-0.0748718699984325
  0
VERTEX
  8
0
  6
CONTINUOUS
 62
     7
 10
420.7736179118422
 20
-387.4921773751385
 42
-0.009977965443556334
  0
VERTEX
  8
0
  6
CONTINUOUS
 62
     7
 10
419.757802837102
 20
-404.1587859400011
 42
0.006321303477970059
  0
VERTEX
  8
0
  6
CONTINUOUS
 62
     7
 10
418.6107851066947
 20
-420.8186720832262
 42
0.02428265780978543
  0
VERTEX
  8
0
  6
CONTINUOUS
 62
     7
 10
418.4855571399702
 20
-437.5100139852959
 42
0.02735404235535442
  0
VERTEX
  8
0
  6
CONTINUOUS
 62
     7
 10
420.2937952911756
 20
-454.1018944016981
 42
-0.0245877538023398
  0
VERTEX
  8
0
  6
CONTINUOUS
 62
     7
 10
422.2208575574006
 20
-470.6824642158464
 42
-0.08166876399592089
  0
VERTEX
  8
0
  6
CONTINUOUS
 62
     7
 10
420.6054802207735
 20
-487.2299422770941
 42
0.06572790006066662
  0
VERTEX
  8
0
  6
CONTINUOUS
 62
     7
 10
417.3678430054997
 20
-503.5579276054088
 42
-0.03410787805494948
  0
VERTEX
  8
0
  6
CONTINUOUS
 62
     7
 10
416.989379879312
 20
-520.2302200205196
 42
-0.1191277456391043
  0
VERTEX
  8
0
  6
CONTINUOUS
 62
     7
 10
409.9994094297915
 20
-535.2209099422259
 42
0
  0
SEQEND
  8
0
  0
POLYLINE
  8
0
  6
CONTINUOUS
 62
     7
 66
     1
 10
0
 20
0
  0
VERTEX
  8
0
  6
CONTINUOUS
 62
     7
 10
562
 20
-329.3105163574219
 42
0.2480815818155697
  0
VERTEX
  8
0
  6
CONTINUOUS
 62
     7
 10
563.0447739408999
 20
-330.4121551471658
 42
0.04461254015514813
  0
VERTEX
  8
0
  6
CONTINUOUS
 62
     7
 10
564.5322138709535
 20
-330.9690747306155
 42
0.0212625034146029
  0
VERTEX
  8
0
  6
CONTINUOUS
 62
     7
 10
566.0788194932583
 20
-331.3382527909649
 42
0.01385512460618964
  0
VERTEX
  8
0
  6
CONTINUOUS
 62
     7
 10
567.6478532938485
 20
-331.6007073914086
 42
0.01053210998073514
  0
VERTEX
  8
0
  6
CONTINUOUS
 62
     7
 10
569.2278922917641
 20
-331.7872888246508
 42
0.008816671457736795
  0
VERTEX
  8
0
  6
CONTINUOUS
 62
     7
 10
570.8143839044984
 20
-331.9130632204511
 42
0.007912324608338505
  0
VERTEX
  8
0
  6
CONTINUOUS
 62
     7
 10
572.4043504317752
 20
-331.9859475257586
 42
0.007515146179492142
  0
VERTEX
  8
0
  6
CONTINUOUS
 62
     7
 10
573.9958281568988
 20
-332.0099180497626
 42
0.007513445473609769
  0
VERTEX
  8
0
  6
CONTINUOUS
 62
     7
 10
575.587162367603
 20
-331.986202973151
 42
0.007906861837197677
  0
VERTEX
  8
0
  6
CONTINUOUS
 62
     7
 10
577.1767221943974
 20
-331.9136132746843
 42
0.008810116307648608
  0
VERTEX
  8
0
  6
CONTINUOUS
 62
     7
 10
578.7632986209139
 20
-331.7881467511941
 42
0.01052390138002031
  0
VERTEX
  8
0
  6
CONTINUOUS
 62
     7
 10
580.3440241529109
 20
-331.6018464010093
 42
0.01384400423196852
  0
VERTEX
  8
0
  6
CONTINUOUS
 62
     7
 10
581.914398170112
 20
-331.3395924695274
 42
0.02124638856369062
  0
VERTEX
  8
0
  6
CONTINUOUS
 62
     7
 10
583.4630219078986
 20
-330.9704500171964
 42
0.04455011562130313
  0
VERTEX
  8
0
  6
CONTINUOUS
 62
     7
 10
584.9523861483996
 20
-330.413583130037
 42
0.2479909471625132
  0
VERTEX
  8
0
  6
CONTINUOUS
 62
     7
 10
586
 20
-329.3105163574219
 42
0
  0
SEQEND
  8
0
  0
POLYLINE
  8
0
  6
CONTINUOUS
 62
     7
 66
     1
 10
0
 20
0
  0
VERTEX
  8
0
  6
CONTINUOUS
 62
     7
 10
565.5
 20
-343.2413330078125
 42
0.2478632552117597
  0
VERTEX
  8
0
  6
CONTINUOUS
 62
     7
 10
566.2480857766961
 20
-344.009224209732
 42
0.04354537782653654
  0
VERTEX
  8
0
  6
CONTINUOUS
 62
     7
 10
567.3024632012267
 20
-344.3939701374021
 42
0.02075794984313549
  0
VERTEX
  8
0
  6
CONTINUOUS
 62
     7
 10
568.3972727475556
 20
-344.649064227886
 42
0.01353047399408716
  0
VERTEX
  8
0
  6
CONTINUOUS
 62
     7
 10
569.5072275572803
 20
-344.8304172728683
 42
0.01028825683527615
  0
VERTEX
  8
0
  6
CONTINUOUS
 62
     7
 10
570.6246121535165
 20
-344.959355296048
 42
0.008614206889774311
  0
VERTEX
  8
0
  6
CONTINUOUS
 62
     7
 10
571.7463654945262
 20
-345.0462864398266
 42
0.007731442429381151
  0
VERTEX
  8
0
  6
CONTINUOUS
 62
     7
 10
572.870470201367
 20
-345.0966793162794
 42
0.007343632302898242
  0
VERTEX
  8
0
  6
CONTINUOUS
 62
     7
 10
573.9956150429095
 20
-345.1132810009052
 42
0.007341380211316123
  0
VERTEX
  8
0
  6
CONTINUOUS
 62
     7
 10
575.1206415419115
 20
-345.0969407148604
 42
0.007724531199837811
  0
VERTEX
  8
0
  6
CONTINUOUS
 62
     7
 10
576.2444583918227
 20
-345.0468409121901
 42
0.008612328414216351
  0
VERTEX
  8
0
  6
CONTINUOUS
 62
     7
 10
577.3671816805288
 20
-344.9601361365538
 42
0.01027626486008465
  0
VERTEX
  8
0
  6
CONTINUOUS
 62
     7
 10
578.4850589754298
 20
-344.8314737313391
 42
0.01351160910540231
  0
VERTEX
  8
0
  6
CONTINUOUS
 62
     7
 10
579.5959772628006
 20
-344.6503658092446
 42
0.02072243687523832
  0
VERTEX
  8
0
  6
CONTINUOUS
 62
     7
 10
580.6922498505497
 20
-344.3954585541626
 42
0.04343657313900751
  0
VERTEX
  8
0
  6
CONTINUOUS
 62
     7
 10
581.7486150757055
 20
-344.0108374842575
 42
0.2478609004117021
  0
VERTEX
  8
0
  6
CONTINUOUS
 62
     7
 10
582.5
 20
-343.2413330078125
 42
0
  0
SEQEND
  8
0
  0
POLYLINE
  8
0
  6
CONTINUOUS
 62
     7
 66
     1
 10
0
 20
0
  0
VERTEX
  8
0
  6
CONTINUOUS
 62
     7
 10
410.000104794816
 20
74.63409754682024
 42
-0.04592299410830997
  0
VERTEX
  8
0
  6
CONTINUOUS
 62
     7
 10
416.5300618671724
 20
59.13235218086452
 42
-0.04744122615089172
  0
VERTEX
  8
0
  6
CONTINUOUS
 62
     7
 10
419.931953638551
 20
42.66128151384837
 42
-0.02920960640588358
  0
VERTEX
  8
0
  6
CONTINUOUS
 62
     7
 10
420.7813198232539
 20
25.84789205000698
 42
-0.01262769604238
  0
VERTEX
  8
0
  6
CONTINUOUS
 62
     7
 10
420.2338355003682
 20
9.01394995260444
 42
0.001318480003096598
  0
VERTEX
  8
0
  6
CONTINUOUS
 62
     7
 10
419.3069455064159
 20
-7.805312976159762
 42
0.01585887023864238
  0
VERTEX
  8
0
  6
CONTINUOUS
 62
     7
 10
418.9537152058117
 20
-24.6432378379936
 42
0.005745509047635718
  0
VERTEX
  8
0
  6
CONTINUOUS
 62
     7
 10
419.5866344633367
 20
-41.47531565138327
 42
-0.04443778082386027
  0
VERTEX
  8
0
  6
CONTINUOUS
 62
     7
 10
419.2611890960507
 20
-58.28861819833459
 42
-0.2293747543283148
  0
VERTEX
  8
0
  6
CONTINUOUS
 62
     7
 10
409.99859292398
 20
-71.69774480316303
 42
0
  0
SEQEND
  8
0
  0
POLYLINE
  8
0
  6
CONTINUOUS
 62
     7
 66
     1
 10
0
 20
0
  0
VERTEX
  8
0
  6
CONTINUOUS
 62
     7
 10
562
 20
-31.71853828430176
 42
0.05059491804553409
  0
VERTEX
  8
0
  6
CONTINUOUS
 62
     7
 10
562.1884986650218
 20
-33.56787502799612
 42
0.04716348060100473
  0
VERTEX
  8
0
  6
CONTINUOUS
 62
     7
 10
562.7339920471408
 20
-35.34602953738992
 42
0.04170062768883802
  0
VERTEX
  8
0
  6
CONTINUOUS
 62
     7
 10
563.585551384153
 20
-36.99966877999796
 42
0.03588152117347215
  0
VERTEX
  8
0
  6
CONTINUOUS
 62
     7
 10
564.6825572159939
 20
-38.50245495429014
 42
0.030663987048698
  0
VERTEX
  8
0
  6
CONTINUOUS
 62
     7
 10
565.9694646079987
 20
-39.84727452742635
 42
0.02635005710649456
  0
VERTEX
  8
0
  6
CONTINUOUS
 62
     7
 10
567.4008290281437
 20
-41.03741148341582
 42
0.02293336125982402
  0
VERTEX
  8
0
  6
CONTINUOUS
 62
     7
 10
568.9425717768778
 20
-42.0815649798125
 42
0.02026821883556692
  0
VERTEX
  8
0
  6
CONTINUOUS
 62
     7
 10
570.5691225385542
 20
-42.98941728767588
 42
0.01819160847441927
  0
VERTEX
  8
0
  6
CONTINUOUS
 62
     7
 10
572.260216887728
 20
-43.76969778534058
 42
0.01659477954225872
  0
VERTEX
  8
0
  6
CONTINUOUS
 62
     7
 10
574.0019691703764
 20
-44.43094395153872
 42
0.01536230671642239
  0
VERTEX
  8
0
  6
CONTINUOUS
 62
     7
 10
575.7823600005316
 20
-44.97975174075737
 42
0.0144261423828654
  0
VERTEX
  8
0
  6
CONTINUOUS
 62
     7
 10
577.5923226127653
 20
-45.421727023299
 42
0.0137315782995031
  0
VERTEX
  8
0
  6
CONTINUOUS
 62
     7
 10
579.4243874284954
 20
-45.76125527333419
 42
0.01323990660456359
  0
VERTEX
  8
0
  6
CONTINUOUS
 62
     7
 10
581.2721711596353
 20
-46.00161511430872
 42
0.01292485919280055
  0
VERTEX
  8
0
  6
CONTINUOUS
 62
     7
 10
583.1300043523247
 20
-46.14508071948389
 42
0.0127704665830092
  0
VERTEX
  8
0
  6
CONTINUOUS
 62
     7
 10
584.9926973588367
 20
-46.19300006387064
 42
0
  0
SEQEND
  8
0
  0
POLYLINE
  8
0
  6
CONTINUOUS
 62
     7
 66
     1
 10
0
 20
0
  0
VERTEX
  8
0
  6
CONTINUOUS
 62
     7
 10
582.5019989453004
 20
-20.76764258091868
 42
0.03674702795456654
  0
VERTEX
  8
0
  6
CONTINUOUS
 62
     7
 10
581.1649333270993
 20
-19.63964425015089
 42
0.03635561614813354
  0
VERTEX
  8
0
  6
CONTINUOUS
 62
     7
 10
579.6776214385789
 20
-18.71820370723578
 42
0.03602153408037002
  0
VERTEX
  8
0
  6
CONTINUOUS
 62
     7
 10
578.072779330156
 20
-18.02071587591293
 42
0.03576746137080183
  0
VERTEX
  8
0
  6
CONTINUOUS
 62
     7
 10
576.3846184140033
 20
-17.55987114237665
 42
0.03560862896496242
  0
VERTEX
  8
0
  6
CONTINUOUS
 62
     7
 10
574.6483123564418
 20
-17.34376143832108
 42
0.03555213439226783
  0
VERTEX
  8
0
  6
CONTINUOUS
 62
     7
 10
572.8995938478057
 20
-17.37594950785639
 42
0.03561922393189559
  0
VERTEX
  8
0
  6
CONTINUOUS
 62
     7
 10
571.1733335211637
 20
-17.65569982062437
 42
0.03581097405835651
  0
VERTEX
  8
0
  6
CONTINUOUS
 62
     7
 10
569.503963179861
 20
-18.17838167847323
 42
0.03608618917563947
  0
VERTEX
  8
0
  6
CONTINUOUS
 62
     7
 10
567.9268209295734
 20
-18.93467806934059
 42
0.0364431720888157
  0
VERTEX
  8
0
  6
CONTINUOUS
 62
     7
 10
566.4754749175041
 20
-19.91090085209941
 42
0.03685493945738663
  0
VERTEX
  8
0
  6
CONTINUOUS
 62
     7
 10
565.1820597856583
 20
-21.0886910298205
 42
0.03728605978602224
  0
VERTEX
  8
0
  6
CONTINUOUS
 62
     7
 10
564.076583715167
 20
-22.44477613840531
 42
0.03769688599415493
  0
VERTEX
  8
0
  6
CONTINUOUS
 62
     7
 10
563.1859139161265
 20
-23.95094499824242
 42
0.03804676710968331
  0
VERTEX
  8
0
  6
CONTINUOUS
 62
     7
 10
562.5326187776599
 20
-25.57432142161667
 42
0.03829839008841369
  0
VERTEX
  8
0
  6
CONTINUOUS
 62
     7
 10
562.1337891071573
 20
-27.27801571561329
 42
0.03841513735345681
  0
VERTEX
  8
0
  6
CONTINUOUS
 62
     7
 10
562.0000003223651
 20
-29.02183519809999
 42
0
  0
SEQEND
  8
0
  0
TEXT
  8
0
  6
CONTINUOUS
 62
     7
 10
-146.4285755157471
 20
-12.5
 40
25
 41
0.9853137791713822
  1
ERKV-NBD-750
  0
ENDSEC
  0
EOF
