  0
SECTION
  2
HEADER
  0
ENDSEC
  0
SECTION
  2
TABLES
  0
TABLE
  2
LTYPE
 70
    22
  0
LTYPE
  2
CONTINUOUS
 70
    64
  3
Solid line
 72
    65
 73
     0
 40
0.000000
  0
LTYPE
  2
DASHED
 70
    64
  3
__ __ __ __ __ __ __ __ __ __ __ __ __ __ __
 72
    65
 73
     2
 40
3.500000
 49
2.000000
 49
-1.500000
  0
LTYPE
  2
CENTER
 70
    64
  3
____ _ ____ _ ____ _ ____ _ ____ _ ____ _ ____
 72
    65
 73
     4
 40
17.500000
 49
13.000000
 49
-1.500000
 49
1.500000
 49
-1.500000
  0
LTYPE
  2
PHANTOM
 70
    64
  3
_____ _ _ _____ _ _ _____ _ _ _____ _ _ ____  
 72
    65
 73
     6
 40
15.500000
 49
8.000000
 49
-1.500000
 49
1.500000
 49
-1.500000
 49
1.500000
 49
-1.500000
  0
LTYPE
  2
DOT
 70
    64
  3
. . . . . . . . . . . . . . . . . . . . . . . .
 72
    65
 73
     2
 40
0.25
 49
0.0
 49
-0.25
  0
ENDTAB
  0
TABLE
  2
LAYER
 70
     1
  0
LAYER
  2
0
 70
     0
 62
     7
  6
CONTINUOUS
  0
ENDTAB
  0
TABLE
  2
STYLE
 70
     1
  0
STYLE
  2
STANDARD
 70
     0
 40
0.000000
 41
1.000000
 50
0.000000
 71
     0
 42
0.200000
  3
txt
  0
ENDTAB
  0
TABLE
  2
VIEW
 70
     0
  0
ENDTAB
  0
ENDSEC
  0
SECTION
  2
BLOCKS
  0
ENDSEC
  0
SECTION
  2
ENTITIES
  0
LINE
  8
0
  6
CONTINUOUS
 62
     3
 10
-73.80888366699219
 20
28.04796981811523
 11
360.1718444824219
 21
28.04796981811523
  0
LINE
  8
0
  6
CONTINUOUS
 62
     7
 10
180.1911163330078
 20
143.0479736328125
 11
180.1911163330078
 21
-86.9520263671875
  0
LINE
  8
0
  6
CONTINUOUS
 62
     7
 10
180.1911163330078
 20
143.0479736328125
 11
186.7653961181641
 21
143.0479736328125
  0
LINE
  8
0
  6
CONTINUOUS
 62
     7
 10
180.1911163330078
 20
-86.9520263671875
 11
207.1911163330078
 21
-86.9520263671875
  0
LINE
  8
0
  6
CONTINUOUS
 62
     7
 10
198.1911163330078
 20
131.2313232421875
 11
198.1911163330078
 21
-86.9520263671875
  0
LINE
  8
0
  6
CONTINUOUS
 62
     7
 10
245.1911163330078
 20
100.5479736328125
 11
245.1911163330078
 21
-44.45203018188477
  0
LINE
  8
0
  6
CONTINUOUS
 62
     7
 10
245.1911163330078
 20
-44.45203018188477
 11
255.1911163330078
 21
-44.45203018188477
  0
LINE
  8
0
  6
CONTINUOUS
 62
     7
 10
245.1911163330078
 20
100.5479736328125
 11
255.1911163330078
 21
100.5479736328125
  0
LINE
  8
0
  6
CONTINUOUS
 62
     7
 10
213.1911163330078
 20
105.5479736328125
 11
213.1911163330078
 21
-49.45203018188477
  0
LINE
  8
0
  6
CONTINUOUS
 62
     7
 10
203.1911163330078
 20
-54.45203018188477
 11
208.1911163330078
 21
-54.45203018188477
  0
LINE
  8
0
  6
CONTINUOUS
 62
     7
 10
207.1911163330078
 20
143.0479736328125
 11
207.1911163330078
 21
112.5479736328125
  0
LINE
  8
0
  6
CONTINUOUS
 62
     7
 10
203.1911163330078
 20
110.5479736328125
 11
208.1911163330078
 21
110.5479736328125
  0
LINE
  8
0
  6
CONTINUOUS
 62
     7
 10
207.1911163330078
 20
-86.9520263671875
 11
207.1911163330078
 21
-56.45203018188477
  0
LINE
  8
0
  6
CONTINUOUS
 62
     7
 10
213.1911010742188
 20
88.84493255615234
 11
245.1910858154297
 21
81.52079010009766
  0
LINE
  8
0
  6
CONTINUOUS
 62
     7
 10
213.1911163330078
 20
62.10046005249023
 11
245.1911163330078
 21
62.10046005249023
  0
LINE
  8
0
  6
CONTINUOUS
 62
     7
 10
213.1911163330078
 20
-32.74898529052734
 11
245.1910858154297
 21
-25.42484283447266
  0
LINE
  8
0
  6
CONTINUOUS
 62
     7
 10
213.1911163330078
 20
-6.004519939422607
 11
245.1911163330078
 21
-6.004519939422607
  0
LINE
  8
0
  6
CONTINUOUS
 62
     7
 10
203.6168365478516
 20
143.0479736328125
 11
207.1911163330078
 21
143.0479736328125
  0
LINE
  8
0
  6
CONTINUOUS
 62
     7
 10
198.1910705566406
 20
131.2313079833984
 11
207.1910705566406
 21
132.2733764648437
  0
LINE
  8
0
  6
CONTINUOUS
 62
     7
 10
132.1911163330078
 20
145.5479736328125
 11
176.1911163330078
 21
145.5479736328125
  0
LINE
  8
0
  6
CONTINUOUS
 62
     7
 10
132.1911163330078
 20
-89.4520263671875
 11
176.1911163330078
 21
-89.4520263671875
  0
LINE
  8
0
  6
CONTINUOUS
 62
     7
 10
128.1911163330078
 20
143.0479736328125
 11
128.1911163330078
 21
-86.9520263671875
  0
LINE
  8
0
  6
CONTINUOUS
 62
     7
 10
128.1911468505859
 20
141.5479431152344
 11
132.191162109375
 21
145.5479431152344
  0
LINE
  8
0
  6
CONTINUOUS
 62
     7
 10
176.1911163330078
 20
145.5479736328125
 11
180.1911163330078
 21
141.5479583740234
  0
LINE
  8
0
  6
CONTINUOUS
 62
     7
 10
180.1911163330078
 20
-85.45203399658203
 11
176.1911315917969
 21
-89.45203399658203
  0
LINE
  8
0
  6
CONTINUOUS
 62
     7
 10
132.1911315917969
 20
-89.45205688476563
 11
128.1911315917969
 21
-85.45204925537109
  0
LINE
  8
0
  6
CONTINUOUS
 62
     7
 10
132.1911163330078
 20
102.9901733398438
 11
176.1911163330078
 21
102.9901733398438
  0
LINE
  8
0
  6
CONTINUOUS
 62
     7
 10
132.1911163330078
 20
89.334716796875
 11
176.1911163330078
 21
89.334716796875
  0
LINE
  8
0
  6
CONTINUOUS
 62
     7
 10
132.1911163330078
 20
80.58831787109375
 11
176.1911163330078
 21
80.58831787109375
  0
LINE
  8
0
  6
CONTINUOUS
 62
     7
 10
132.1911163330078
 20
65.21267700195313
 11
176.1911163330078
 21
65.21267700195313
  0
LINE
  8
0
  6
CONTINUOUS
 62
     7
 10
132.1911163330078
 20
55.59997177124023
 11
176.1911163330078
 21
55.59997177124023
  0
LINE
  8
0
  6
CONTINUOUS
 62
     7
 10
132.1911163330078
 20
39.04748153686523
 11
176.1911163330078
 21
39.04748153686523
  0
LINE
  8
0
  6
CONTINUOUS
 62
     7
 10
132.1911163330078
 20
17.04766464233398
 11
176.1911163330078
 21
17.04766464233398
  0
LINE
  8
0
  6
CONTINUOUS
 62
     7
 10
132.1911163330078
 20
0.4963041841983795
 11
176.1911163330078
 21
0.4963041841983795
  0
LINE
  8
0
  6
CONTINUOUS
 62
     7
 10
132.1911163330078
 20
-9.115969657897949
 11
176.1911163330078
 21
-9.115969657897949
  0
LINE
  8
0
  6
CONTINUOUS
 62
     7
 10
132.1911163330078
 20
-24.49249649047852
 11
176.1911163330078
 21
-24.49249649047852
  0
LINE
  8
0
  6
CONTINUOUS
 62
     7
 10
132.1911163330078
 20
-33.23846817016602
 11
176.1911163330078
 21
-33.23846817016602
  0
LINE
  8
0
  6
CONTINUOUS
 62
     7
 10
132.1911163330078
 20
-46.89294815063477
 11
176.1911163330078
 21
-46.89294815063477
  0
LINE
  8
0
  6
CONTINUOUS
 62
     7
 10
132.1911163330078
 20
-62.44946670532227
 11
176.1911163330078
 21
-62.44946670532227
  0
LINE
  8
0
  6
CONTINUOUS
 62
     7
 10
132.1911163330078
 20
-72.20245361328125
 11
176.1911163330078
 21
-72.20245361328125
  0
LINE
  8
0
  6
CONTINUOUS
 62
     7
 10
132.1911163330078
 20
-77.05023193359375
 11
176.1911163330078
 21
-77.05023193359375
  0
LINE
  8
0
  6
CONTINUOUS
 62
     7
 10
132.1911163330078
 20
-83.419677734375
 11
176.1911163330078
 21
-83.419677734375
  0
LINE
  8
0
  6
CONTINUOUS
 62
     7
 10
36.19111633300781
 20
178.0479736328125
 11
58.19111633300781
 21
178.0479736328125
  0
LINE
  8
0
  6
CONTINUOUS
 62
     7
 10
36.19111633300781
 20
-121.9520263671875
 11
58.19111633300781
 21
-121.9520263671875
  0
LINE
  8
0
  6
CONTINUOUS
 62
     7
 10
36.19111633300781
 20
178.0479736328125
 11
36.19111633300781
 21
120.7978210449219
  0
LINE
  8
0
  6
CONTINUOUS
 62
     7
 10
58.19111633300781
 20
178.0479736328125
 11
58.19111633300781
 21
-121.9520263671875
  0
LINE
  8
0
  6
CONTINUOUS
 62
     7
 10
110.1911163330078
 20
143.0479736328125
 11
110.1911163330078
 21
-86.9520263671875
  0
LINE
  8
0
  6
CONTINUOUS
 62
     7
 10
110.1911163330078
 20
-86.9520263671875
 11
128.1911163330078
 21
-86.9520263671875
  0
LINE
  8
0
  6
CONTINUOUS
 62
     7
 10
63.19111633300781
 20
143.0479736328125
 11
128.1911163330078
 21
143.0479736328125
  0
LINE
  8
0
  6
CONTINUOUS
 62
     7
 10
61.28679656982422
 20
-38.17427444458008
 11
95.83211517333984
 21
-23.94481658935547
  0
LINE
  8
0
  6
CONTINUOUS
 62
     7
 10
61.28684234619141
 20
94.27019500732422
 11
95.83214569091797
 21
80.04074096679688
  0
LINE
  8
0
  6
CONTINUOUS
 62
     7
 10
58.19112396240234
 20
134.9244689941406
 11
110.1911239624023
 21
113.6437149047852
  0
LINE
  8
0
  6
CONTINUOUS
 62
     7
 10
58.19109725952148
 20
120.7823333740234
 11
110.1910934448242
 21
99.50157165527344
  0
LINE
  8
0
  6
CONTINUOUS
 62
     7
 10
95.83213806152344
 20
80.04074096679688
 11
105.1911163330078
 21
80.04074096679688
  0
LINE
  8
0
  6
CONTINUOUS
 62
     7
 10
95.83213806152344
 20
-23.94482803344727
 11
105.1911163330078
 21
-23.94482803344727
  0
LINE
  8
0
  6
CONTINUOUS
 62
     7
 10
58.19111251831055
 20
-64.6864013671875
 11
110.1910934448242
 21
-43.40564727783203
  0
LINE
  8
0
  6
CONTINUOUS
 62
     7
 10
58.19113540649414
 20
-78.82852172851562
 11
110.1911468505859
 21
-57.54776000976563
  0
LINE
  8
0
  6
CONTINUOUS
 62
     7
 10
31.19111633300781
 20
-86.9520263671875
 11
36.19111633300781
 21
-86.9520263671875
  0
LINE
  8
0
  6
CONTINUOUS
 62
     7
 10
31.19111633300781
 20
143.0479736328125
 11
36.19111633300781
 21
143.0479736328125
  0
LINE
  8
0
  6
CONTINUOUS
 62
     7
 10
-58.80888366699219
 20
64.5479736328125
 11
-58.80888366699219
 21
-4.452029705047607
  0
LINE
  8
0
  6
CONTINUOUS
 62
     7
 10
-58.80888366699219
 20
-4.452029705047607
 11
36.19111633300781
 21
-4.452029705047607
  0
LINE
  8
0
  6
CONTINUOUS
 62
     7
 10
-58.80888366699219
 20
60.54796981811523
 11
36.19111633300781
 21
60.54796981811523
  0
LINE
  8
0
  6
CONTINUOUS
 62
     7
 10
31.19111633300781
 20
-52.17236709594727
 11
31.19111633300781
 21
-86.9520263671875
  0
LINE
  8
0
  6
CONTINUOUS
 62
     7
 10
36.19111633300781
 20
-43.76251602172852
 11
36.19111633300781
 21
-121.9520263671875
  0
LINE
  8
0
  6
CONTINUOUS
 62
     7
 10
31.19111633300781
 20
143.0479736328125
 11
31.19111633300781
 21
125.5700988769531
  0
LINE
  8
0
  6
CONTINUOUS
 62
     7
 10
-58.80888366699219
 20
64.5479736328125
 11
21.19111633300781
 21
64.5479736328125
  0
LINE
  8
0
  6
CONTINUOUS
 62
     7
 10
21.19111633300781
 20
64.5479736328125
 11
21.19111633300781
 21
60.54796981811523
  0
LINE
  8
0
  6
CONTINUOUS
 62
     7
 10
36.19111633300781
 20
65.5479736328125
 11
39.98710632324219
 21
65.5479736328125
  0
LINE
  8
0
  6
CONTINUOUS
 62
     7
 10
36.19111633300781
 20
-9.452029228210449
 11
40.35127258300781
 21
-9.452029228210449
  0
LINE
  8
0
  6
CONTINUOUS
 62
     7
 10
36.19111633300781
 20
64.94796752929688
 11
36.19111633300781
 21
-9.452029228210449
  0
LINE
  8
0
  6
CONTINUOUS
 62
     3
 10
84.19111633300781
 20
235.0104064941406
 11
84.19111633300781
 21
128.0479736328125
  0
LINE
  8
0
  6
CONTINUOUS
 62
     7
 10
70.69111633300781
 20
212.3479614257812
 11
97.69111633300781
 21
212.3479614257812
  0
LINE
  8
0
  6
CONTINUOUS
 62
     7
 10
92.26219177246094
 20
226.9979553222656
 11
76.12004089355469
 21
226.9979553222656
  0
LINE
  8
0
  6
CONTINUOUS
 62
     7
 10
92.69868469238281
 20
217.9979553222656
 11
75.68354797363281
 21
217.9979553222656
  0
LINE
  8
0
  6
CONTINUOUS
 62
     7
 10
92.69868469238281
 20
217.9979400634766
 11
92.52212524414063
 21
212.3479614257812
  0
LINE
  8
0
  6
CONTINUOUS
 62
     7
 10
75.68350982666016
 20
217.9979400634766
 11
75.86007690429687
 21
212.3479614257812
  0
LINE
  8
0
  6
CONTINUOUS
 62
     7
 10
92.26216125488281
 20
226.9979553222656
 11
92.26216125488281
 21
217.9979553222656
  0
LINE
  8
0
  6
CONTINUOUS
 62
     7
 10
76.12007141113281
 20
226.9979553222656
 11
76.12007141113281
 21
217.9979553222656
  0
LINE
  8
0
  6
CONTINUOUS
 62
     7
 10
70.69111633300781
 20
180.3479614257813
 11
97.69111633300781
 21
180.3479614257813
  0
LINE
  8
0
  6
CONTINUOUS
 62
     7
 10
75.54109191894531
 20
180.3479614257813
 11
75.54109191894531
 21
143.0479736328125
  0
LINE
  8
0
  6
CONTINUOUS
 62
     7
 10
92.84114074707031
 20
180.3479614257813
 11
92.84114074707031
 21
143.0479736328125
  0
LINE
  8
0
  6
CONTINUOUS
 62
     7
 10
97.69111633300781
 20
212.3479614257812
 11
97.69111633300781
 21
180.3479614257813
  0
LINE
  8
0
  6
CONTINUOUS
 62
     7
 10
70.69111633300781
 20
212.3479614257812
 11
70.69111633300781
 21
180.3479614257813
  0
LINE
  8
0
  6
CONTINUOUS
 62
     3
 10
76.12008666992187
 20
217.9979705810547
 11
84.19113159179688
 21
226.9979858398438
  0
LINE
  8
0
  6
CONTINUOUS
 62
     3
 10
76.12008666992187
 20
226.9979553222656
 11
84.19110107421875
 21
217.9979858398437
  0
LINE
  8
0
  6
CONTINUOUS
 62
     7
 10
84.19111633300781
 20
217.9979553222656
 11
84.19111633300781
 21
226.9979553222656
  0
LINE
  8
0
  6
CONTINUOUS
 62
     3
 10
84.19118499755859
 20
226.9979248046875
 11
92.26219940185547
 21
217.9979553222656
  0
LINE
  8
0
  6
CONTINUOUS
 62
     3
 10
92.26216125488281
 20
226.9980163574219
 11
84.19110107421875
 21
217.9980010986328
  0
LINE
  8
0
  6
CONTINUOUS
 62
     7
 10
258.6911315917969
 20
-46.95203018188477
 11
291.6911315917969
 21
-46.95203018188477
  0
LINE
  8
0
  6
CONTINUOUS
 62
     7
 10
255.1911163330078
 20
100.5479736328125
 11
255.1911163330078
 21
-44.45203018188477
  0
LINE
  8
0
  6
CONTINUOUS
 62
     7
 10
258.6911315917969
 20
-42.40332412719727
 11
291.6911315917969
 21
-42.40332412719727
  0
LINE
  8
0
  6
CONTINUOUS
 62
     7
 10
258.6911315917969
 20
103.0479736328125
 11
291.6911315917969
 21
103.0479736328125
  0
LINE
  8
0
  6
CONTINUOUS
 62
     7
 10
258.6911315917969
 20
103.0479507446289
 11
255.1911315917969
 21
98.88707733154297
  0
LINE
  8
0
  6
CONTINUOUS
 62
     7
 10
291.6911315917969
 20
103.0479431152344
 11
295.1911315917969
 21
98.88704681396484
  0
LINE
  8
0
  6
CONTINUOUS
 62
     7
 10
295.1911315917969
 20
100.5479736328125
 11
295.1911315917969
 21
-44.45203018188477
  0
LINE
  8
0
  6
CONTINUOUS
 62
     7
 10
258.6911315917969
 20
-46.9520149230957
 11
255.1911163330078
 21
-42.79111862182617
  0
LINE
  8
0
  6
CONTINUOUS
 62
     7
 10
291.6911315917969
 20
-46.95201873779297
 11
295.1911315917969
 21
-42.7911376953125
  0
LINE
  8
0
  6
CONTINUOUS
 62
     7
 10
258.6911315917969
 20
57.48266220092773
 11
291.6911315917969
 21
57.48266220092773
  0
LINE
  8
0
  6
CONTINUOUS
 62
     7
 10
258.6911315917969
 20
48.79269027709961
 11
291.6911315917969
 21
48.79269027709961
  0
LINE
  8
0
  6
CONTINUOUS
 62
     7
 10
258.6911315917969
 20
40.99773788452148
 11
291.6911315917969
 21
40.99773788452148
  0
LINE
  8
0
  6
CONTINUOUS
 62
     7
 10
258.6911315917969
 20
32.04790878295898
 11
291.6911315917969
 21
32.04790878295898
  0
LINE
  8
0
  6
CONTINUOUS
 62
     7
 10
258.6911315917969
 20
24.04787826538086
 11
291.6911315917969
 21
24.04787826538086
  0
LINE
  8
0
  6
CONTINUOUS
 62
     7
 10
258.6911315917969
 20
15.09805011749268
 11
291.6911315917969
 21
15.09805011749268
  0
LINE
  8
0
  6
CONTINUOUS
 62
     7
 10
258.6911315917969
 20
7.303097248077393
 11
291.6911315917969
 21
7.303097248077393
  0
LINE
  8
0
  6
CONTINUOUS
 62
     7
 10
258.6911315917969
 20
-1.386813521385193
 11
291.6911315917969
 21
-1.386813521385193
  0
LINE
  8
0
  6
CONTINUOUS
 62
     7
 10
258.6911315917969
 20
-16.97528457641602
 11
291.6911315917969
 21
-16.97528457641602
  0
LINE
  8
0
  6
CONTINUOUS
 62
     7
 10
258.6911315917969
 20
-23.99744033813477
 11
291.6911315917969
 21
-23.99744033813477
  0
LINE
  8
0
  6
CONTINUOUS
 62
     7
 10
258.6911315917969
 20
-29.45349502563477
 11
291.6911315917969
 21
-29.45349502563477
  0
LINE
  8
0
  6
CONTINUOUS
 62
     7
 10
258.6911315917969
 20
-34.81146621704102
 11
291.6911315917969
 21
-34.81146621704102
  0
LINE
  8
0
  6
CONTINUOUS
 62
     7
 10
258.6911315917969
 20
-38.81146621704102
 11
291.6911315917969
 21
-38.81146621704102
  0
LINE
  8
0
  6
CONTINUOUS
 62
     3
 10
165.1911163330078
 20
37.91296005249023
 11
165.1911163330078
 21
18.18297958374023
  0
LINE
  8
0
  6
CONTINUOUS
 62
     7
 10
165.1911315917969
 20
32.99768829345703
 11
160.2413787841797
 21
28.04794120788574
  0
LINE
  8
0
  6
CONTINUOUS
 62
     7
 10
160.2413787841797
 20
28.0479679107666
 11
165.1911163330078
 21
23.09822082519531
  0
LINE
  8
0
  6
CONTINUOUS
 62
     7
 10
165.1910858154297
 20
23.09823608398437
 11
170.1408233642578
 21
28.04798316955566
  0
LINE
  8
0
  6
CONTINUOUS
 62
     7
 10
170.1408538818359
 20
28.04795074462891
 11
165.1911010742188
 21
32.99769592285156
  0
LINE
  8
0
  6
CONTINUOUS
 62
     3
 10
238.6237335205078
 20
176.1479797363281
 11
177.9570465087891
 21
176.1479797363281
  0
LINE
  8
0
  6
CONTINUOUS
 62
     3
 10
195.1911163330078
 20
191.4485778808594
 11
195.1911163330078
 21
134.2638549804687
  0
LINE
  8
0
  6
CONTINUOUS
 62
     7
 10
203.6911163330078
 20
151.83203125
 11
203.6911163330078
 21
139.806640625
  0
LINE
  8
0
  6
CONTINUOUS
 62
     7
 10
186.6911163330078
 20
151.8320007324219
 11
186.6911163330078
 21
139.806640625
  0
LINE
  8
0
  6
CONTINUOUS
 62
     7
 10
233.1911163330078
 20
167.8801879882813
 11
233.1911163330078
 21
184.415771484375
  0
LINE
  8
0
  6
CONTINUOUS
 62
     7
 10
224.1911163330078
 20
167.6404113769531
 11
224.1911163330078
 21
184.655517578125
  0
LINE
  8
0
  6
CONTINUOUS
 62
     7
 10
224.1911163330078
 20
167.6403961181641
 11
218.1911163330078
 21
167.8278961181641
  0
LINE
  8
0
  6
CONTINUOUS
 62
     7
 10
224.1911315917969
 20
184.655517578125
 11
218.1911315917969
 21
184.468017578125
  0
LINE
  8
0
  6
CONTINUOUS
 62
     7
 10
206.1911163330078
 20
188.1479797363281
 11
218.1911163330078
 21
188.1479797363281
  0
LINE
  8
0
  6
CONTINUOUS
 62
     7
 10
212.1911163330078
 20
164.1479797363281
 11
218.1911163330078
 21
164.1479797363281
  0
LINE
  8
0
  6
CONTINUOUS
 62
     7
 10
218.1911163330078
 20
188.1479797363281
 11
218.1911163330078
 21
164.1479797363281
  0
LINE
  8
0
  6
CONTINUOUS
 62
     7
 10
183.1911163330078
 20
165.1479797363281
 11
183.1911163330078
 21
153.7374572753906
  0
LINE
  8
0
  6
CONTINUOUS
 62
     7
 10
207.1911163330078
 20
159.1479797363281
 11
207.1911163330078
 21
153.7374572753906
  0
LINE
  8
0
  6
CONTINUOUS
 62
     7
 10
224.1911163330078
 20
184.415771484375
 11
233.1911163330078
 21
184.415771484375
  0
LINE
  8
0
  6
CONTINUOUS
 62
     7
 10
224.1911163330078
 20
167.8801879882813
 11
233.1911163330078
 21
167.8801879882813
  0
LINE
  8
0
  6
CONTINUOUS
 62
     3
 10
224.1911010742187
 20
184.415771484375
 11
233.1911315917969
 21
176.14794921875
  0
LINE
  8
0
  6
CONTINUOUS
 62
     7
 10
233.1911163330078
 20
176.1479797363281
 11
224.1911163330078
 21
176.1479797363281
  0
LINE
  8
0
  6
CONTINUOUS
 62
     3
 10
224.1911315917969
 20
176.1479644775391
 11
233.1911010742188
 21
167.8801727294922
  0
LINE
  8
0
  6
CONTINUOUS
 62
     3
 10
224.1911010742187
 20
167.8801879882813
 11
233.1911163330078
 21
176.1479949951172
  0
LINE
  8
0
  6
CONTINUOUS
 62
     3
 10
233.1911010742188
 20
184.415771484375
 11
224.1911163330078
 21
176.1479797363281
  0
LINE
  8
0
  6
CONTINUOUS
 62
     3
 10
-73.80888366699219
 20
493.0479736328125
 11
358.6221923828125
 21
493.0479736328125
  0
LINE
  8
0
  6
CONTINUOUS
 62
     7
 10
180.1911163330078
 20
608.0479125976562
 11
180.1911163330078
 21
497.0479736328125
  0
LINE
  8
0
  6
CONTINUOUS
 62
     7
 10
180.1911163330078
 20
608.0479125976562
 11
198.1911163330078
 21
608.0479125976562
  0
LINE
  8
0
  6
CONTINUOUS
 62
     7
 10
180.1911163330078
 20
378.0479736328125
 11
198.1911163330078
 21
378.0479736328125
  0
LINE
  8
0
  6
CONTINUOUS
 62
     7
 10
198.1911163330078
 20
608.0479125976562
 11
198.1911163330078
 21
505.4823608398437
  0
LINE
  8
0
  6
CONTINUOUS
 62
     7
 10
255.1911163330078
 20
565.5479125976563
 11
255.1911163330078
 21
420.5479736328125
  0
LINE
  8
0
  6
CONTINUOUS
 62
     7
 10
245.1911163330078
 20
565.5479125976563
 11
245.1911163330078
 21
420.5479736328125
  0
LINE
  8
0
  6
CONTINUOUS
 62
     7
 10
245.1911163330078
 20
420.5479736328125
 11
255.1911163330078
 21
420.5479736328125
  0
LINE
  8
0
  6
CONTINUOUS
 62
     7
 10
245.1911163330078
 20
565.5479125976563
 11
255.1911163330078
 21
565.5479125976563
  0
LINE
  8
0
  6
CONTINUOUS
 62
     7
 10
213.1911163330078
 20
570.5479125976563
 11
213.1911163330078
 21
496.7560729980469
  0
LINE
  8
0
  6
CONTINUOUS
 62
     7
 10
203.1911163330078
 20
410.5479736328125
 11
208.1911163330078
 21
410.5479736328125
  0
LINE
  8
0
  6
CONTINUOUS
 62
     7
 10
203.1911163330078
 20
575.5479125976563
 11
208.1911163330078
 21
575.5479125976563
  0
LINE
  8
0
  6
CONTINUOUS
 62
     7
 10
207.1911163330078
 20
444.4468383789063
 11
207.1911163330078
 21
446.85498046875
  0
LINE
  8
0
  6
CONTINUOUS
 62
     7
 10
198.191162109375
 20
505.4823913574219
 11
207.1911773681641
 21
503.0708312988281
  0
LINE
  8
0
  6
CONTINUOUS
 62
     7
 10
198.1910858154297
 20
442.0353088378906
 11
207.1911010742188
 21
444.4468688964844
  0
LINE
  8
0
  6
CONTINUOUS
 62
     7
 10
198.1911163330078
 20
442.0353088378906
 11
198.1911163330078
 21
378.0479736328125
  0
LINE
  8
0
  6
CONTINUOUS
 62
     7
 10
213.1911163330078
 20
524.2301635742188
 11
245.1911163330078
 21
524.2301635742188
  0
LINE
  8
0
  6
CONTINUOUS
 62
     7
 10
213.1911926269531
 20
550.1235961914063
 11
245.1911468505859
 21
543.293701171875
  0
LINE
  8
0
  6
CONTINUOUS
 62
     7
 10
233.1911163330078
 20
461.8657836914063
 11
245.1911163330078
 21
461.8657836914063
  0
LINE
  8
0
  6
CONTINUOUS
 62
     7
 10
213.1911315917969
 20
435.9723510742188
 11
245.1911468505859
 21
442.80224609375
  0
LINE
  8
0
  6
CONTINUOUS
 62
     7
 10
178.6911163330078
 20
497.0479736328125
 11
211.6911163330078
 21
497.0479736328125
  0
LINE
  8
0
  6
CONTINUOUS
 62
     7
 10
178.6911163330078
 20
489.0479736328125
 11
211.6911163330078
 21
489.0479736328125
  0
LINE
  8
0
  6
CONTINUOUS
 62
     7
 10
207.1911163330078
 20
497.0479736328125
 11
207.1911163330078
 21
503.07080078125
  0
LINE
  8
0
  6
CONTINUOUS
 62
     7
 10
213.1911163330078
 20
489.3398742675781
 11
213.1911163330078
 21
470.85498046875
  0
LINE
  8
0
  6
CONTINUOUS
 62
     7
 10
180.1911163330078
 20
489.0479736328125
 11
180.1911163330078
 21
378.0479736328125
  0
LINE
  8
0
  6
CONTINUOUS
 62
     7
 10
295.1911315917969
 20
565.5479736328125
 11
295.1911315917969
 21
420.5480041503906
  0
LINE
  8
0
  6
CONTINUOUS
 62
     7
 10
132.1911163330078
 20
610.5479125976562
 11
176.1911163330078
 21
610.5479125976562
  0
LINE
  8
0
  6
CONTINUOUS
 62
     7
 10
132.1911163330078
 20
375.5479736328125
 11
176.1911163330078
 21
375.5479736328125
  0
LINE
  8
0
  6
CONTINUOUS
 62
     7
 10
128.1911163330078
 20
608.0479736328125
 11
128.1911163330078
 21
378.0480041503906
  0
LINE
  8
0
  6
CONTINUOUS
 62
     7
 10
132.1911163330078
 20
381.5802307128906
 11
176.1911163330078
 21
381.5802307128906
  0
LINE
  8
0
  6
CONTINUOUS
 62
     7
 10
128.1911468505859
 20
606.5479125976563
 11
132.1911468505859
 21
610.5479125976562
  0
LINE
  8
0
  6
CONTINUOUS
 62
     7
 10
176.19091796875
 20
610.5479125976562
 11
180.19091796875
 21
606.5479125976563
  0
LINE
  8
0
  6
CONTINUOUS
 62
     7
 10
180.1911315917969
 20
379.5479125976562
 11
176.1911163330078
 21
375.5479125976562
  0
LINE
  8
0
  6
CONTINUOUS
 62
     7
 10
132.1912536621094
 20
375.5480651855469
 11
128.1912384033203
 21
379.548095703125
  0
LINE
  8
0
  6
CONTINUOUS
 62
     7
 10
132.1911163330078
 20
604.5155639648437
 11
176.1911163330078
 21
604.5155639648437
  0
LINE
  8
0
  6
CONTINUOUS
 62
     7
 10
132.1911163330078
 20
598.1461791992188
 11
176.1911163330078
 21
598.1461791992188
  0
LINE
  8
0
  6
CONTINUOUS
 62
     7
 10
132.1911163330078
 20
593.2981567382813
 11
176.1911163330078
 21
593.2981567382813
  0
LINE
  8
0
  6
CONTINUOUS
 62
     7
 10
132.1911163330078
 20
583.5437622070312
 11
176.1911163330078
 21
583.5437622070312
  0
LINE
  8
0
  6
CONTINUOUS
 62
     7
 10
132.1911163330078
 20
567.9890747070312
 11
176.1911163330078
 21
567.9890747070312
  0
LINE
  8
0
  6
CONTINUOUS
 62
     7
 10
132.1911163330078
 20
554.3326416015625
 11
176.1911163330078
 21
554.3326416015625
  0
LINE
  8
0
  6
CONTINUOUS
 62
     7
 10
132.1911163330078
 20
545.5874633789063
 11
176.1911163330078
 21
545.5874633789063
  0
LINE
  8
0
  6
CONTINUOUS
 62
     7
 10
132.1911163330078
 20
530.2119750976563
 11
176.1911163330078
 21
530.2119750976563
  0
LINE
  8
0
  6
CONTINUOUS
 62
     7
 10
132.1911163330078
 20
520.598388671875
 11
176.1911163330078
 21
520.598388671875
  0
LINE
  8
0
  6
CONTINUOUS
 62
     7
 10
132.1911163330078
 20
504.0474548339844
 11
176.1911163330078
 21
504.0474548339844
  0
LINE
  8
0
  6
CONTINUOUS
 62
     7
 10
132.1911163330078
 20
402.5501403808594
 11
176.1911163330078
 21
402.5501403808594
  0
LINE
  8
0
  6
CONTINUOUS
 62
     7
 10
132.1911163330078
 20
392.7972717285156
 11
176.1911163330078
 21
392.7972717285156
  0
LINE
  8
0
  6
CONTINUOUS
 62
     7
 10
132.1911163330078
 20
387.9491271972656
 11
176.1911163330078
 21
387.9491271972656
  0
LINE
  8
0
  6
CONTINUOUS
 62
     7
 10
36.19111633300781
 20
643.0479736328125
 11
58.19111633300781
 21
643.0479736328125
  0
LINE
  8
0
  6
CONTINUOUS
 62
     7
 10
36.19111633300781
 20
343.0480041503906
 11
58.19111633300781
 21
343.0480041503906
  0
LINE
  8
0
  6
CONTINUOUS
 62
     7
 10
36.19111633300781
 20
643.0479736328125
 11
36.19111633300781
 21
556.626953125
  0
LINE
  8
0
  6
CONTINUOUS
 62
     7
 10
58.19111633300781
 20
643.0479736328125
 11
58.19111633300781
 21
343.0480041503906
  0
LINE
  8
0
  6
CONTINUOUS
 62
     7
 10
110.1911163330078
 20
608.0479736328125
 11
110.1911163330078
 21
510.5479736328125
  0
LINE
  8
0
  6
CONTINUOUS
 62
     7
 10
110.1911163330078
 20
378.0480041503906
 11
128.1911163330078
 21
378.0480041503906
  0
LINE
  8
0
  6
CONTINUOUS
 62
     7
 10
110.1911163330078
 20
608.0479736328125
 11
128.1911163330078
 21
608.0479736328125
  0
LINE
  8
0
  6
CONTINUOUS
 62
     7
 10
58.19111633300781
 20
510.5479736328125
 11
110.1911163330078
 21
510.5479736328125
  0
LINE
  8
0
  6
CONTINUOUS
 62
     7
 10
58.19111633300781
 20
475.5479736328125
 11
110.1911163330078
 21
475.5479736328125
  0
LINE
  8
0
  6
CONTINUOUS
 62
     7
 10
110.1911163330078
 20
475.5479736328125
 11
110.1911163330078
 21
378.0480041503906
  0
LINE
  8
0
  6
CONTINUOUS
 62
     7
 10
58.19120025634766
 20
599.9244384765625
 11
110.1911697387695
 21
578.6437377929687
  0
LINE
  8
0
  6
CONTINUOUS
 62
     7
 10
58.19109725952148
 20
585.7823486328125
 11
110.1910934448242
 21
564.5015869140625
  0
LINE
  8
0
  6
CONTINUOUS
 62
     7
 10
95.83213806152344
 20
545.040771484375
 11
105.1911163330078
 21
545.040771484375
  0
LINE
  8
0
  6
CONTINUOUS
 62
     7
 10
95.83213806152344
 20
441.05517578125
 11
105.1911163330078
 21
441.05517578125
  0
LINE
  8
0
  6
CONTINUOUS
 62
     7
 10
58.19114303588867
 20
400.3135986328125
 11
110.1911544799805
 21
421.5943603515625
  0
LINE
  8
0
  6
CONTINUOUS
 62
     7
 10
58.19114685058594
 20
386.1714477539062
 11
110.191162109375
 21
407.4522094726562
  0
LINE
  8
0
  6
CONTINUOUS
 62
     7
 10
61.28681564331055
 20
559.2702026367187
 11
95.83212280273437
 21
545.0407104492187
  0
LINE
  8
0
  6
CONTINUOUS
 62
     7
 10
61.28680801391602
 20
426.8257141113281
 11
95.83213806152344
 21
441.05517578125
  0
LINE
  8
0
  6
CONTINUOUS
 62
     7
 10
31.19111633300781
 20
608.0479736328125
 11
31.19111633300781
 21
567.6812744140625
  0
LINE
  8
0
  6
CONTINUOUS
 62
     7
 10
31.19111633300781
 20
608.0479736328125
 11
36.19111633300781
 21
608.0479736328125
  0
LINE
  8
0
  6
CONTINUOUS
 62
     7
 10
31.19111633300781
 20
378.0479736328125
 11
36.19111633300781
 21
378.0479736328125
  0
LINE
  8
0
  6
CONTINUOUS
 62
     7
 10
-58.80888366699219
 20
525.5479736328125
 11
-58.80888366699219
 21
460.5479736328125
  0
LINE
  8
0
  6
CONTINUOUS
 62
     7
 10
-58.80888366699219
 20
460.5479736328125
 11
36.19111633300781
 21
460.5479736328125
  0
LINE
  8
0
  6
CONTINUOUS
 62
     7
 10
-58.80888366699219
 20
525.5479736328125
 11
36.19111633300781
 21
525.5479736328125
  0
LINE
  8
0
  6
CONTINUOUS
 62
     7
 10
-58.80888366699219
 20
502.0479736328125
 11
22.19111633300781
 21
502.0479736328125
  0
LINE
  8
0
  6
CONTINUOUS
 62
     7
 10
-58.80888366699219
 20
484.0479736328125
 11
22.19111633300781
 21
484.0479736328125
  0
LINE
  8
0
  6
CONTINUOUS
 62
     7
 10
36.19111633300781
 20
455.5479736328125
 11
40.60990905761719
 21
455.5479736328125
  0
LINE
  8
0
  6
CONTINUOUS
 62
     7
 10
36.19111633300781
 20
530.5479736328125
 11
41.60176086425781
 21
530.5479736328125
  0
LINE
  8
0
  6
CONTINUOUS
 62
     7
 10
31.19111633300781
 20
421.3506469726563
 11
31.19111633300781
 21
378.0479736328125
  0
LINE
  8
0
  6
CONTINUOUS
 62
     7
 10
36.19111633300781
 20
425.5404052734375
 11
36.19111633300781
 21
343.0480041503906
  0
LINE
  8
0
  6
CONTINUOUS
 62
     7
 10
36.19111633300781
 20
530.5479736328125
 11
36.19111633300781
 21
455.5479736328125
  0
LINE
  8
0
  6
CONTINUOUS
 62
     7
 10
21.19111633300781
 20
502.0479736328125
 11
21.19111633300781
 21
484.0479736328125
  0
LINE
  8
0
  6
CONTINUOUS
 62
     7
 10
92.6763916015625
 20
493.0479736328125
 11
84.19110870361328
 21
501.5332336425781
  0
LINE
  8
0
  6
CONTINUOUS
 62
     7
 10
84.19113159179688
 20
501.5332336425781
 11
75.70587158203125
 21
493.0479736328125
  0
LINE
  8
0
  6
CONTINUOUS
 62
     7
 10
84.19108581542969
 20
484.5627136230469
 11
75.70584869384766
 21
493.0479431152344
  0
LINE
  8
0
  6
CONTINUOUS
 62
     7
 10
92.67638397216797
 20
493.0479736328125
 11
84.19112396240234
 21
484.5627136230469
  0
LINE
  8
0
  6
CONTINUOUS
 62
     3
 10
84.19111633300781
 20
508.7756958007813
 11
84.19111633300781
 21
477.2171020507813
  0
LINE
  8
0
  6
CONTINUOUS
 62
     7
 10
258.6911315917969
 20
420.9739990234375
 11
291.6911315917969
 21
420.9739990234375
  0
LINE
  8
0
  6
CONTINUOUS
 62
     7
 10
258.6911315917969
 20
568.0479736328125
 11
291.6911315917969
 21
568.0479736328125
  0
LINE
  8
0
  6
CONTINUOUS
 62
     7
 10
258.6911010742187
 20
568.0479125976562
 11
255.1910858154297
 21
563.8870239257813
  0
LINE
  8
0
  6
CONTINUOUS
 62
     7
 10
291.6911315917969
 20
568.0479736328125
 11
295.191162109375
 21
563.8870239257813
  0
LINE
  8
0
  6
CONTINUOUS
 62
     7
 10
291.6910705566406
 20
418.0479431152344
 11
295.1911010742187
 21
422.2088623046875
  0
LINE
  8
0
  6
CONTINUOUS
 62
     7
 10
258.6911315917969
 20
418.0479736328125
 11
291.6911315917969
 21
418.0479736328125
  0
LINE
  8
0
  6
CONTINUOUS
 62
     7
 10
258.6911010742187
 20
418.0479736328125
 11
255.1911010742188
 21
422.2088623046875
  0
LINE
  8
0
  6
CONTINUOUS
 62
     7
 10
258.6911315917969
 20
565.1218872070313
 11
291.6911315917969
 21
565.1218872070313
  0
LINE
  8
0
  6
CONTINUOUS
 62
     7
 10
258.6911315917969
 20
562.0304565429688
 11
291.6911315917969
 21
562.0304565429688
  0
LINE
  8
0
  6
CONTINUOUS
 62
     7
 10
258.6911315917969
 20
553.0304565429687
 11
291.6911315917969
 21
553.0304565429687
  0
LINE
  8
0
  6
CONTINUOUS
 62
     7
 10
258.6911315917969
 20
547.050537109375
 11
291.6911315917969
 21
547.050537109375
  0
LINE
  8
0
  6
CONTINUOUS
 62
     7
 10
258.6911315917969
 20
533.958740234375
 11
291.6911315917969
 21
533.958740234375
  0
LINE
  8
0
  6
CONTINUOUS
 62
     7
 10
258.6911315917969
 20
541.1996459960937
 11
291.6911315917969
 21
541.1996459960937
  0
LINE
  8
0
  6
CONTINUOUS
 62
     7
 10
258.6911315917969
 20
527.030517578125
 11
291.6911315917969
 21
527.030517578125
  0
LINE
  8
0
  6
CONTINUOUS
 62
     7
 10
258.6911315917969
 20
518.7698974609375
 11
291.6911315917969
 21
518.7698974609375
  0
LINE
  8
0
  6
CONTINUOUS
 62
     7
 10
258.6911315917969
 20
511.1194763183594
 11
291.6911315917969
 21
511.1194763183594
  0
LINE
  8
0
  6
CONTINUOUS
 62
     7
 10
258.6911315917969
 20
502.0480346679687
 11
291.6911315917969
 21
502.0480346679687
  0
LINE
  8
0
  6
CONTINUOUS
 62
     7
 10
258.6911315917969
 20
424.0653686523437
 11
291.6911315917969
 21
424.0653686523437
  0
LINE
  8
0
  6
CONTINUOUS
 62
     7
 10
160.2001953125
 20
371.5179748535156
 11
160.3261413574219
 21
375.5479736328125
  0
LINE
  8
0
  6
CONTINUOUS
 62
     7
 10
170.1821136474609
 20
371.5179443359375
 11
170.0561828613281
 21
375.5479736328125
  0
LINE
  8
0
  6
CONTINUOUS
 62
     3
 10
165.1911163330078
 20
380.530029296875
 11
165.1911163330078
 21
360.7922973632813
  0
LINE
  8
0
  6
CONTINUOUS
 62
     7
 10
160.2001495361328
 20
371.5179748535156
 11
170.1820831298828
 21
371.5179748535156
  0
LINE
  8
0
  6
CONTINUOUS
 62
     7
 10
169.7266387939453
 20
364.5179748535156
 11
169.7266387939453
 21
371.5179748535156
  0
LINE
  8
0
  6
CONTINUOUS
 62
     3
 10
165.1911010742188
 20
371.5180053710938
 11
169.7266235351562
 21
364.5180358886719
  0
LINE
  8
0
  6
CONTINUOUS
 62
     3
 10
165.1911468505859
 20
364.5179443359375
 11
169.7266998291016
 21
371.5179748535156
  0
LINE
  8
0
  6
CONTINUOUS
 62
     3
 10
160.6556091308594
 20
371.5180358886719
 11
165.1911468505859
 21
364.5180053710937
  0
LINE
  8
0
  6
CONTINUOUS
 62
     3
 10
160.6556091308594
 20
364.5179748535156
 11
165.1911315917969
 21
371.5179443359375
  0
LINE
  8
0
  6
CONTINUOUS
 62
     7
 10
160.6555938720703
 20
364.5179748535156
 11
160.6555938720703
 21
371.5179748535156
  0
LINE
  8
0
  6
CONTINUOUS
 62
     7
 10
160.6555938720703
 20
364.5179748535156
 11
169.7266387939453
 21
364.5179748535156
  0
LINE
  8
0
  6
CONTINUOUS
 62
     7
 10
183.1911163330078
 20
464.0288391113281
 11
183.1911163330078
 21
461.3294372558594
  0
LINE
  8
0
  6
CONTINUOUS
 62
     3
 10
176.1897735595703
 20
458.85498046875
 11
238.8205108642578
 21
458.85498046875
  0
LINE
  8
0
  6
CONTINUOUS
 62
     3
 10
195.1911163330078
 20
478.010009765625
 11
195.1911163330078
 21
444.6421813964844
  0
LINE
  8
0
  6
CONTINUOUS
 62
     7
 10
207.1891021728516
 20
470.85498046875
 11
218.1911163330078
 21
470.85498046875
  0
LINE
  8
0
  6
CONTINUOUS
 62
     7
 10
218.1911163330078
 20
470.85498046875
 11
218.1911163330078
 21
446.85498046875
  0
LINE
  8
0
  6
CONTINUOUS
 62
     7
 10
206.1911163330078
 20
446.85498046875
 11
218.1911163330078
 21
446.85498046875
  0
LINE
  8
0
  6
CONTINUOUS
 62
     7
 10
224.1911010742187
 20
467.3625183105469
 11
218.1911010742187
 21
467.1750183105469
  0
LINE
  8
0
  6
CONTINUOUS
 62
     7
 10
224.1911163330078
 20
450.347412109375
 11
224.1911163330078
 21
467.362548828125
  0
LINE
  8
0
  6
CONTINUOUS
 62
     7
 10
224.1911315917969
 20
450.347412109375
 11
218.1911315917969
 21
450.534912109375
  0
LINE
  8
0
  6
CONTINUOUS
 62
     7
 10
233.1911163330078
 20
450.587158203125
 11
233.1911163330078
 21
467.1227722167969
  0
LINE
  8
0
  6
CONTINUOUS
 62
     7
 10
224.1911163330078
 20
450.587158203125
 11
233.1911163330078
 21
450.587158203125
  0
LINE
  8
0
  6
CONTINUOUS
 62
     7
 10
224.1911163330078
 20
467.1227722167969
 11
233.1911163330078
 21
467.1227722167969
  0
LINE
  8
0
  6
CONTINUOUS
 62
     7
 10
207.1911163330078
 20
470.85498046875
 11
207.1911163330078
 21
489.0479736328125
  0
LINE
  8
0
  6
CONTINUOUS
 62
     7
 10
213.1911163330078
 20
446.85498046875
 11
213.1911163330078
 21
415.5479736328125
  0
LINE
  8
0
  6
CONTINUOUS
 62
     7
 10
165.1902618408203
 20
371.5179748535156
 11
165.1902618408203
 21
364.5179748535156
  0
LINE
  8
0
  6
CONTINUOUS
 62
     7
 10
224.1911163330078
 20
458.85498046875
 11
233.1911163330078
 21
458.85498046875
  0
LINE
  8
0
  6
CONTINUOUS
 62
     3
 10
233.1911163330078
 20
458.8549499511719
 11
224.1911163330078
 21
450.587158203125
  0
LINE
  8
0
  6
CONTINUOUS
 62
     3
 10
233.1911315917969
 20
450.5871887207031
 11
224.1911315917969
 21
458.8550109863281
  0
LINE
  8
0
  6
CONTINUOUS
 62
     3
 10
224.1911315917969
 20
458.8549499511719
 11
233.1911315917969
 21
467.1227722167969
  0
LINE
  8
0
  6
CONTINUOUS
 62
     3
 10
224.1911163330078
 20
467.1227722167969
 11
233.1911163330078
 21
458.85498046875
  0
LINE
  8
0
  6
CONTINUOUS
 62
     3
 10
-573.8088989257813
 20
28.04796981811523
 11
-243.8088836669922
 21
28.04796981811523
  0
LINE
  8
0
  6
CONTINUOUS
 62
     3
 10
-408.8088684082031
 20
241.9979553222656
 11
-408.8088684082031
 21
-136.9520263671875
  0
LINE
  8
0
  6
CONTINUOUS
 62
     7
 10
-399.8088684082031
 20
64.5479736328125
 11
-399.8088684082031
 21
53.54796981811523
  0
LINE
  8
0
  6
CONTINUOUS
 62
     7
 10
-417.8088684082031
 20
64.5479736328125
 11
-417.8088684082031
 21
53.54796981811523
  0
LINE
  8
0
  6
CONTINUOUS
 62
     3
 10
-297.0433044433594
 20
-18.24701881408691
 11
-276.2906799316406
 21
-26.84305572509766
  0
LINE
  8
0
  6
CONTINUOUS
 62
     3
 10
-297.0431518554688
 20
74.34287261962891
 11
-276.2904663085937
 21
82.93891143798828
  0
LINE
  8
0
  6
CONTINUOUS
 62
     3
 10
-362.5139770507812
 20
139.8135986328125
 11
-353.9179382324219
 21
160.5662384033203
  0
LINE
  8
0
  6
CONTINUOUS
 62
     3
 10
-455.1035766601563
 20
139.8135986328125
 11
-463.6995849609375
 21
160.5662536621094
  0
LINE
  8
0
  6
CONTINUOUS
 62
     3
 10
-520.5745239257812
 20
74.34297943115234
 11
-541.3271484375
 21
82.93901824951172
  0
LINE
  8
0
  6
CONTINUOUS
 62
     3
 10
-520.5745849609375
 20
-18.24674415588379
 11
-541.3272094726563
 21
-26.84277725219727
  0
LINE
  8
0
  6
CONTINUOUS
 62
     3
 10
-455.1038513183594
 20
-83.717529296875
 11
-463.6998901367188
 21
-104.47021484375
  0
LINE
  8
0
  6
CONTINUOUS
 62
     3
 10
-362.5142211914062
 20
-83.71770477294922
 11
-353.9181823730469
 21
-104.4703750610352
  0
LINE
  8
0
  6
CONTINUOUS
 62
     7
 10
-417.8088684082031
 20
53.54796981811523
 11
-399.8088684082031
 21
53.54796981811523
  0
LINE
  8
0
  6
CONTINUOUS
 62
     7
 10
-417.8088684082031
 20
64.5479736328125
 11
-399.8088684082031
 21
64.5479736328125
  0
LINE
  8
0
  6
CONTINUOUS
 62
     3
 10
-350.2414855957031
 20
-5.76591157913208
 11
-337.6763916015625
 21
-13.02036762237549
  0
LINE
  8
0
  6
CONTINUOUS
 62
     3
 10
-350.2414855957031
 20
61.86185073852539
 11
-337.6763916015625
 21
69.11630249023437
  0
LINE
  8
0
  6
CONTINUOUS
 62
     3
 10
-467.3763122558594
 20
61.8619270324707
 11
-479.9414672851562
 21
69.11641693115234
  0
LINE
  8
0
  6
CONTINUOUS
 62
     3
 10
-467.3763732910156
 20
-5.766019344329834
 11
-479.9414672851562
 21
-13.02047538757324
  0
LINE
  8
0
  6
CONTINUOUS
 62
     7
 10
-422.3088684082031
 20
212.3479614257812
 11
-395.3088684082031
 21
212.3479614257812
  0
LINE
  8
0
  6
CONTINUOUS
 62
     7
 10
-400.7377624511719
 20
226.9979553222656
 11
-416.8799743652344
 21
226.9979553222656
  0
LINE
  8
0
  6
CONTINUOUS
 62
     7
 10
-400.3013000488281
 20
217.9979553222656
 11
-417.3164367675781
 21
217.9979553222656
  0
LINE
  8
0
  6
CONTINUOUS
 62
     7
 10
-400.30126953125
 20
217.9979858398437
 11
-400.4778137207031
 21
212.3479766845703
  0
LINE
  8
0
  6
CONTINUOUS
 62
     7
 10
-417.3164367675781
 20
217.9979553222656
 11
-417.1398620605469
 21
212.3479614257812
  0
LINE
  8
0
  6
CONTINUOUS
 62
     7
 10
-400.7377624511719
 20
226.9979553222656
 11
-400.7377624511719
 21
217.9979553222656
  0
LINE
  8
0
  6
CONTINUOUS
 62
     7
 10
-416.8799743652344
 20
226.9979553222656
 11
-416.8799743652344
 21
217.9979553222656
  0
LINE
  8
0
  6
CONTINUOUS
 62
     7
 10
-422.3088684082031
 20
212.3479614257812
 11
-422.3088684082031
 21
177.4392395019531
  0
LINE
  8
0
  6
CONTINUOUS
 62
     7
 10
-395.3088684082031
 20
212.3479614257812
 11
-395.3088684082031
 21
177.4392395019531
  0
LINE
  8
0
  6
CONTINUOUS
 62
     3
 10
-416.8800048828125
 20
217.9980163574219
 11
-408.8088684082031
 21
226.9980163574219
  0
LINE
  8
0
  6
CONTINUOUS
 62
     7
 10
-408.8088684082031
 20
226.9979553222656
 11
-408.8088684082031
 21
217.9979553222656
  0
LINE
  8
0
  6
CONTINUOUS
 62
     3
 10
-408.8088989257813
 20
217.9979400634766
 11
-400.73779296875
 21
226.9979400634766
  0
LINE
  8
0
  6
CONTINUOUS
 62
     3
 10
-400.7377624511719
 20
217.9979095458984
 11
-408.808837890625
 21
226.9978942871094
  0
LINE
  8
0
  6
CONTINUOUS
 62
     3
 10
-416.8799743652344
 20
226.9979248046875
 11
-408.808837890625
 21
217.9978942871094
  0
LINE
  8
0
  6
CONTINUOUS
 62
     3
 10
-371.2109985351563
 20
190.90234375
 11
-375.0662231445313
 21
174.2034606933594
  0
LINE
  8
0
  6
CONTINUOUS
 62
     7
 10
-386.3087768554687
 20
178.8516235351563
 11
-386.8668212890625
 21
176.4344329833984
  0
LINE
  8
0
  6
CONTINUOUS
 62
     7
 10
-362.9238891601562
 20
173.4527893066406
 11
-363.48193359375
 21
171.0355987548828
  0
LINE
  8
0
  6
CONTINUOUS
 62
     7
 10
295.1911315917969
 20
100.5479736328125
 11
310.1911315917969
 21
100.5479736328125
  0
LINE
  8
0
  6
CONTINUOUS
 62
     7
 10
295.1911315917969
 20
-44.45203018188477
 11
295.1911315917969
 21
100.5479736328125
  0
LINE
  8
0
  6
CONTINUOUS
 62
     7
 10
310.1911315917969
 20
-44.45203018188477
 11
310.1911315917969
 21
100.5479736328125
  0
LINE
  8
0
  6
CONTINUOUS
 62
     7
 10
295.1911315917969
 20
-44.45203018188477
 11
310.1911315917969
 21
-44.45203018188477
  0
LINE
  8
0
  6
CONTINUOUS
 62
     7
 10
345.1911315917969
 20
108.0479736328125
 11
345.1911315917969
 21
-51.95203018188477
  0
LINE
  8
0
  6
CONTINUOUS
 62
     7
 10
333.1911315917969
 20
108.0479736328125
 11
345.1911315917969
 21
108.0479736328125
  0
LINE
  8
0
  6
CONTINUOUS
 62
     7
 10
333.1911315917969
 20
108.0479736328125
 11
333.1911315917969
 21
-51.95203018188477
  0
LINE
  8
0
  6
CONTINUOUS
 62
     7
 10
315.1911315917969
 20
66.0479736328125
 11
328.1911315917969
 21
66.0479736328125
  0
LINE
  8
0
  6
CONTINUOUS
 62
     7
 10
310.1911315917969
 20
84.0479736328125
 11
333.1911315917969
 21
84.0479736328125
  0
LINE
  8
0
  6
CONTINUOUS
 62
     7
 10
333.1911315917969
 20
-51.95203018188477
 11
345.1911315917969
 21
-51.95203018188477
  0
LINE
  8
0
  6
CONTINUOUS
 62
     7
 10
315.1911315917969
 20
-9.952030181884766
 11
328.1911315917969
 21
-9.952030181884766
  0
LINE
  8
0
  6
CONTINUOUS
 62
     7
 10
310.1911315917969
 20
-27.95203018188477
 11
333.1911315917969
 21
-27.95203018188477
  0
LINE
  8
0
  6
CONTINUOUS
 62
     7
 10
310.1911315917969
 20
23.04796981811523
 11
333.1911315917969
 21
23.04796981811523
  0
LINE
  8
0
  6
CONTINUOUS
 62
     7
 10
310.1911315917969
 20
33.04796981811523
 11
333.1911315917969
 21
33.04796981811523
  0
LINE
  8
0
  6
CONTINUOUS
 62
     7
 10
310.1911315917969
 20
498.0479736328125
 11
333.1911315917969
 21
498.0479736328125
  0
LINE
  8
0
  6
CONTINUOUS
 62
     7
 10
310.1911315917969
 20
488.0479736328125
 11
333.1911315917969
 21
488.0479736328125
  0
LINE
  8
0
  6
CONTINUOUS
 62
     7
 10
310.1911315917969
 20
437.0479736328125
 11
333.1911315917969
 21
437.0479736328125
  0
LINE
  8
0
  6
CONTINUOUS
 62
     7
 10
315.1911315917969
 20
455.0479736328125
 11
328.1911315917969
 21
455.0479736328125
  0
LINE
  8
0
  6
CONTINUOUS
 62
     7
 10
295.1911315917969
 20
493.0479736328125
 11
295.1911315917969
 21
565.5479736328125
  0
LINE
  8
0
  6
CONTINUOUS
 62
     7
 10
345.1911315917969
 20
573.0479736328125
 11
345.1911315917969
 21
413.0479736328125
  0
LINE
  8
0
  6
CONTINUOUS
 62
     7
 10
333.1911315917969
 20
573.0479736328125
 11
345.1911315917969
 21
573.0479736328125
  0
LINE
  8
0
  6
CONTINUOUS
 62
     7
 10
333.1911315917969
 20
573.0479736328125
 11
333.1911315917969
 21
413.0479736328125
  0
LINE
  8
0
  6
CONTINUOUS
 62
     7
 10
315.1911315917969
 20
531.0479736328125
 11
328.1911315917969
 21
531.0479736328125
  0
LINE
  8
0
  6
CONTINUOUS
 62
     7
 10
310.1911315917969
 20
549.0479736328125
 11
333.1911315917969
 21
549.0479736328125
  0
LINE
  8
0
  6
CONTINUOUS
 62
     7
 10
333.1911315917969
 20
413.0479736328125
 11
345.1911315917969
 21
413.0479736328125
  0
LINE
  8
0
  6
CONTINUOUS
 62
     7
 10
310.1911315917969
 20
493.0479736328125
 11
310.1911315917969
 21
565.5479736328125
  0
LINE
  8
0
  6
CONTINUOUS
 62
     7
 10
295.1911315917969
 20
565.5479736328125
 11
310.1911315917969
 21
565.5479736328125
  0
LINE
  8
0
  6
CONTINUOUS
 62
     7
 10
295.1911315917969
 20
420.5479736328125
 11
310.1911315917969
 21
420.5479736328125
  0
LINE
  8
0
  6
CONTINUOUS
 62
     7
 10
310.1911315917969
 20
420.5479736328125
 11
310.1911315917969
 21
493.0479736328125
  0
LINE
  8
0
  6
CONTINUOUS
 62
     7
 10
295.1911315917969
 20
420.5479736328125
 11
295.1911315917969
 21
493.0479736328125
  0
ARC
  8
0
  6
CONTINUOUS
 62
     7
 10
208.1911163330078
 20
-49.45203018188477
 40
4.999999999999997
 50
270.0000179860893
 51
0
  0
ARC
  8
0
  6
CONTINUOUS
 62
     7
 10
203.1911163330078
 20
-59.45203018188477
 40
4.999999999999997
 50
89.99998201391064
 51
179.9999640278213
  0
ARC
  8
0
  6
CONTINUOUS
 62
     7
 10
203.1911163330078
 20
115.5479736328125
 40
5.00000000000001
 50
179.9999776881996
 51
269.9999733624886
  0
ARC
  8
0
  6
CONTINUOUS
 62
     7
 10
208.1911163330078
 20
105.5479736328125
 40
5
 50
359.9999453584866
 51
89.99992737239728
  0
ARC
  8
0
  6
CONTINUOUS
 62
     7
 10
209.1911163330078
 20
112.5479736328125
 40
2.00000000000001
 50
179.9999776881995
 51
270.0000280040021
  0
ARC
  8
0
  6
CONTINUOUS
 62
     7
 10
209.1911163330078
 20
-56.45203018188477
 40
1.999999999999999
 50
89.99998201391097
 51
179.9999640278213
  0
ARC
  8
0
  6
CONTINUOUS
 62
     7
 10
63.19111633300781
 20
148.0479736328125
 40
5.000000000000003
 50
179.9999776881996
 51
270.000028004002
  0
ARC
  8
0
  6
CONTINUOUS
 62
     7
 10
63.19111633300781
 20
98.89337158203125
 40
5
 50
179.999991348578
 51
247.6128808859913
  0
ARC
  8
0
  6
CONTINUOUS
 62
     7
 10
105.1911163330078
 20
-28.94482803344727
 40
5
 50
0
 51
90.00000250447815
  0
ARC
  8
0
  6
CONTINUOUS
 62
     7
 10
105.1911163330078
 20
85.04074096679688
 40
5.000000000000004
 50
269.9999974955218
 51
0
  0
ARC
  8
0
  6
CONTINUOUS
 62
     7
 10
63.19111633300781
 20
-42.79742813110352
 40
5.000000000000003
 50
112.3871086413539
 51
180.0000050089563
  0
CIRCLE
  8
0
  6
CONTINUOUS
 62
     3
 10
165.1911163330078
 20
28.04796981811523
 40
4.990937232971191
  0
ARC
  8
0
  6
CONTINUOUS
 62
     7
 10
195.1911163330078
 20
166.5479736328125
 40
20.49999999999999
 50
299.5409139954746
 51
353.2767831183338
  0
ARC
  8
0
  6
CONTINUOUS
 62
     7
 10
212.1911163330078
 20
159.1479797363281
 40
5.000000000000004
 50
90.00000250447815
 51
180.0000050089563
  0
ARC
  8
0
  6
CONTINUOUS
 62
     7
 10
206.1911163330078
 20
165.1479797363281
 40
22.99999999999999
 50
90.00000250447819
 51
180.0000050089563
  0
ARC
  8
0
  6
CONTINUOUS
 62
     7
 10
195.1911163330078
 20
166.5479736328125
 40
20.49999999999999
 50
80.95569823197906
 51
240.3633181009398
  0
ARC
  8
0
  6
CONTINUOUS
 62
     7
 10
208.1911163330078
 20
570.5479125976563
 40
5
 50
0
 51
89.99998201391064
  0
ARC
  8
0
  6
CONTINUOUS
 62
     7
 10
208.1911163330078
 20
415.5479736328125
 40
5.000000000000019
 50
270.0000179860893
 51
0
  0
ARC
  8
0
  6
CONTINUOUS
 62
     7
 10
203.1911163330078
 20
405.5479736328125
 40
5.000000000000019
 50
89.99998201391064
 51
179.9999640278213
  0
ARC
  8
0
  6
CONTINUOUS
 62
     7
 10
203.1911163330078
 20
580.5479125976562
 40
5.00000000000001
 50
179.9999776882003
 51
270.0000280040019
  0
ARC
  8
0
  6
CONTINUOUS
 62
     7
 10
195.1911163330078
 20
493.0479736328125
 40
10.00000000000001
 50
23.57817672245726
 51
156.4218368242355
  0
ARC
  8
0
  6
CONTINUOUS
 62
     7
 10
178.6911163330078
 20
493.0479736328125
 40
4.000000000000027
 50
89.99998201391055
 51
270.0000006832454
  0
ARC
  8
0
  6
CONTINUOUS
 62
     7
 10
211.6911163330078
 20
493.0479736328125
 40
4.000000000000027
 50
270.0000179860895
 51
89.99998201391055
  0
ARC
  8
0
  6
CONTINUOUS
 62
     7
 10
195.1911163330078
 20
493.0479736328125
 40
10.00000000000001
 50
203.5781631757645
 51
336.4218232775427
  0
ARC
  8
0
  6
CONTINUOUS
 62
     7
 10
63.19111633300781
 20
563.8933715820312
 40
5
 50
179.9999913485786
 51
247.6128808859912
  0
ARC
  8
0
  6
CONTINUOUS
 62
     7
 10
63.19111633300781
 20
422.2025756835938
 40
5.000000000000009
 50
112.3871086413539
 51
180.0000050089563
  0
ARC
  8
0
  6
CONTINUOUS
 62
     7
 10
105.1911163330078
 20
550.040771484375
 40
5.000000000000004
 50
269.9999974955218
 51
0
  0
ARC
  8
0
  6
CONTINUOUS
 62
     7
 10
105.1911163330078
 20
436.05517578125
 40
5
 50
0
 51
90.00000250447815
  0
ARC
  8
0
  6
CONTINUOUS
 62
     7
 10
22.19111633300781
 20
493.0479736328125
 40
8.999999999999989
 50
270.0000179860893
 51
89.99998201391064
  0
CIRCLE
  8
0
  6
CONTINUOUS
 62
     7
 10
84.19111633300781
 20
493.0479736328125
 40
13.5
  0
ARC
  8
0
  6
CONTINUOUS
 62
     7
 10
207.1891021728516
 20
475.85498046875
 40
5.00000000000002
 50
225.6327620434658
 51
269.9999974955218
  0
CIRCLE
  8
0
  6
CONTINUOUS
 62
     7
 10
-408.8088684082031
 20
28.04796981811523
 40
150
  0
ARC
  8
0
  6
CONTINUOUS
 62
     7
 10
-408.8088684082031
 20
28.04796981811523
 40
32.49999999999999
 50
106.0766695464224
 51
73.92333865025743
  0
ARC
  8
0
  6
CONTINUOUS
 62
     3
 10
-408.8088684082031
 20
28.04796981811523
 40
132.5
 50
333.1091217659313
 51
342.2186338544365
  0
CIRCLE
  8
0
  6
CONTINUOUS
 62
     7
 10
-286.3948059082031
 20
-22.65759658813477
 40
7.5
  0
CIRCLE
  8
0
  6
CONTINUOUS
 62
     7
 10
-286.3948059082031
 20
78.75350952148438
 40
7.5
  0
ARC
  8
0
  6
CONTINUOUS
 62
     3
 10
-408.8088684082031
 20
28.04796981811523
 40
132.5
 50
18.10912301817034
 51
27.21863510667556
  0
CIRCLE
  8
0
  6
CONTINUOUS
 62
     7
 10
-358.1033020019531
 20
150.4620056152344
 40
7.5
  0
ARC
  8
0
  6
CONTINUOUS
 62
     3
 10
-408.8088684082031
 20
28.04796981811523
 40
132.5
 50
63.10911744022027
 51
72.21863635891464
  0
CIRCLE
  8
0
  6
CONTINUOUS
 62
     7
 10
-459.5144348144531
 20
150.4620056152344
 40
7.5
  0
ARC
  8
0
  6
CONTINUOUS
 62
     3
 10
-408.8088684082031
 20
28.04796981811523
 40
132.5
 50
108.1091152773647
 51
117.2186410262483
  0
CIRCLE
  8
0
  6
CONTINUOUS
 62
     7
 10
-531.2229614257813
 20
78.75350952148438
 40
7.5
  0
ARC
  8
0
  6
CONTINUOUS
 62
     3
 10
-408.8088684082031
 20
28.04796981811523
 40
132.5
 50
153.1091131145093
 51
162.2186320332036
  0
CIRCLE
  8
0
  6
CONTINUOUS
 62
     7
 10
-531.2229614257813
 20
-22.65759658813477
 40
7.5
  0
ARC
  8
0
  6
CONTINUOUS
 62
     3
 10
-408.8088684082031
 20
28.04796981811523
 40
132.5000000000001
 50
198.1091350846869
 51
207.218640343003
  0
CIRCLE
  8
0
  6
CONTINUOUS
 62
     7
 10
-459.5144348144531
 20
-94.3660888671875
 40
7.5
  0
ARC
  8
0
  6
CONTINUOUS
 62
     3
 10
-408.8088684082031
 20
28.04796981811523
 40
132.5
 50
243.1091260916423
 51
252.2186381801475
  0
CIRCLE
  8
0
  6
CONTINUOUS
 62
     7
 10
-358.1033020019531
 20
-94.3660888671875
 40
7.5
  0
ARC
  8
0
  6
CONTINUOUS
 62
     3
 10
-408.8088684082031
 20
28.04796981811523
 40
132.5
 50
288.1091239287867
 51
297.218636017292
  0
CIRCLE
  8
0
  6
CONTINUOUS
 62
     7
 10
-408.8088684082031
 20
28.04796981811523
 40
55
  0
CIRCLE
  8
0
  6
CONTINUOUS
 62
     7
 10
-408.8088684082031
 20
28.04796981811523
 40
87.5
  0
ARC
  8
0
  6
CONTINUOUS
 62
     3
 10
-408.8088684082031
 20
28.04796981811523
 40
75
 50
323.8767994610546
 51
336.1231988692933
  0
ARC
  8
0
  6
CONTINUOUS
 62
     3
 10
-408.8088684082031
 20
28.04796981811523
 40
74.99999999999999
 50
23.87680113070675
 51
36.12320053894538
  0
ARC
  8
0
  6
CONTINUOUS
 62
     3
 10
-408.8088684082031
 20
28.04796981811523
 40
75
 50
83.87679938526426
 51
96.12319879350289
  0
ARC
  8
0
  6
CONTINUOUS
 62
     3
 10
-408.8088684082031
 20
28.04796981811523
 40
75
 50
143.8768010549164
 51
156.1231936329658
  0
ARC
  8
0
  6
CONTINUOUS
 62
     3
 10
-408.8088684082031
 20
28.04796981811523
 40
75
 50
203.8768063670342
 51
216.1231989450836
  0
ARC
  8
0
  6
CONTINUOUS
 62
     3
 10
-408.8088684082031
 20
28.04796981811523
 40
75
 50
263.8768012064971
 51
276.1232006147357
  0
ARC
  8
0
  6
CONTINUOUS
 62
     7
 10
-408.8088684082031
 20
28.04796981811523
 40
107.5
 50
19.35118096590612
 51
0.6488233475505203
  0
ARC
  8
0
  6
CONTINUOUS
 62
     7
 10
-408.8088684082031
 20
28.04796981811523
 40
115
 50
17.4935163607298
 51
2.506470877253908
  0
CIRCLE
  8
0
  6
CONTINUOUS
 62
     7
 10
-305.4040832519531
 20
46.28103256225586
 40
17.5
  0
ARC
  8
0
  6
CONTINUOUS
 62
     7
 10
-374.6163330078125
 20
176.1522216796875
 40
11.99999999999998
 50
347.0000002074244
 51
166.9999966786443
  0
ARC
  8
0
  6
CONTINUOUS
 62
     7
 10
315.1911315917969
 20
71.0479736328125
 40
5
 50
179.999991348578
 51
270.0000006832456
  0
ARC
  8
0
  6
CONTINUOUS
 62
     7
 10
315.1911315917969
 20
-14.95203018188477
 40
4.999999999999999
 50
90.00000250447847
 51
180.0000050089563
  0
ARC
  8
0
  6
CONTINUOUS
 62
     7
 10
328.1911315917969
 20
-14.95203018188477
 40
5
 50
0
 51
90.00000250447847
  0
ARC
  8
0
  6
CONTINUOUS
 62
     7
 10
328.1911315917969
 20
71.0479736328125
 40
5.000000000000004
 50
269.9999974955215
 51
0
  0
ARC
  8
0
  6
CONTINUOUS
 62
     7
 10
328.1911315917969
 20
536.0479736328125
 40
5.000000000000004
 50
269.9999974955215
 51
0
  0
ARC
  8
0
  6
CONTINUOUS
 62
     7
 10
328.1911315917969
 20
450.0479736328125
 40
5
 50
0
 51
90.00000250447847
  0
ARC
  8
0
  6
CONTINUOUS
 62
     7
 10
315.1911315917969
 20
536.0479736328125
 40
5
 50
179.9999913485786
 51
270.0000006832456
  0
ARC
  8
0
  6
CONTINUOUS
 62
     7
 10
315.1911315917969
 20
450.0479736328125
 40
5.000000000000004
 50
90.00000250447847
 51
180.0000050089563
  0
POLYLINE
  8
0
  6
CONTINUOUS
 62
     7
 66
     1
 10
0
 20
0
  0
VERTEX
  8
0
  6
CONTINUOUS
 62
     7
 10
31.19157038332801
 20
125.5698583032612
 42
-0.175307264210682
  0
VERTEX
  8
0
  6
CONTINUOUS
 62
     7
 10
40.54497100502407
 20
112.1290121192895
 42
-0.07487186832491186
  0
VERTEX
  8
0
  6
CONTINUOUS
 62
     7
 10
41.96473422278203
 20
95.55579556847646
 42
-0.009977962761803443
  0
VERTEX
  8
0
  6
CONTINUOUS
 62
     7
 10
40.94891913418485
 20
78.88918665860776
 42
0.006321302670784129
  0
VERTEX
  8
0
  6
CONTINUOUS
 62
     7
 10
39.80190148288676
 20
62.22930016354076
 42
0.02428265257369277
  0
VERTEX
  8
0
  6
CONTINUOUS
 62
     7
 10
39.67667338272612
 20
45.53795791119457
 42
0.02735404843445952
  0
VERTEX
  8
0
  6
CONTINUOUS
 62
     7
 10
41.48491138560136
 20
28.94607713501712
 42
-0.02458775110069202
  0
VERTEX
  8
0
  6
CONTINUOUS
 62
     7
 10
43.41197384631676
 20
12.36550699554221
 42
-0.08166876383195347
  0
VERTEX
  8
0
  6
CONTINUOUS
 62
     7
 10
41.79659668201614
 20
-4.18197142772403
 42
0.06572788666764746
  0
VERTEX
  8
0
  6
CONTINUOUS
 62
     7
 10
38.55895935730847
 20
-20.50995710175533
 42
-0.03410787192558225
  0
VERTEX
  8
0
  6
CONTINUOUS
 62
     7
 10
38.1804962691159
 20
-37.18224986614881
 42
-0.1191277490987778
  0
VERTEX
  8
0
  6
CONTINUOUS
 62
     7
 10
31.19052576051725
 20
-52.17294012714748
 42
0
  0
SEQEND
  8
0
  0
POLYLINE
  8
0
  6
CONTINUOUS
 62
     7
 66
     1
 10
0
 20
0
  0
VERTEX
  8
0
  6
CONTINUOUS
 62
     7
 10
183.1911163330078
 20
153.7374572753906
 42
0.2480815818155583
  0
VERTEX
  8
0
  6
CONTINUOUS
 62
     7
 10
184.2358902739077
 20
152.6358184856466
 42
0.04461254015514969
  0
VERTEX
  8
0
  6
CONTINUOUS
 62
     7
 10
185.7233302039612
 20
152.0788989021969
 42
0.0212625034145207
  0
VERTEX
  8
0
  6
CONTINUOUS
 62
     7
 10
187.2699358262661
 20
151.7097208418476
 42
0.01385512460618453
  0
VERTEX
  8
0
  6
CONTINUOUS
 62
     7
 10
188.8389696268562
 20
151.4472662414038
 42
0.01053210998064254
  0
VERTEX
  8
0
  6
CONTINUOUS
 62
     7
 10
190.4190086247719
 20
151.2606848081616
 42
0.008816671457655519
  0
VERTEX
  8
0
  6
CONTINUOUS
 62
     7
 10
192.0055002375063
 20
151.1349104123614
 42
0.007912324608284766
  0
VERTEX
  8
0
  6
CONTINUOUS
 62
     7
 10
193.595466764783
 20
151.0620261070539
 42
0.007515146179510795
  0
VERTEX
  8
0
  6
CONTINUOUS
 62
     7
 10
195.1869444899067
 20
151.0380555830499
 42
0.007513445473572463
  0
VERTEX
  8
0
  6
CONTINUOUS
 62
     7
 10
196.7782787006109
 20
151.0617706596615
 42
0.007906861837159706
  0
VERTEX
  8
0
  6
CONTINUOUS
 62
     7
 10
198.3678385274052
 20
151.1343603581282
 42
0.008810116307703678
  0
VERTEX
  8
0
  6
CONTINUOUS
 62
     7
 10
199.9544149539217
 20
151.2598268816184
 42
0.01052390137999944
  0
VERTEX
  8
0
  6
CONTINUOUS
 62
     7
 10
201.5351404859188
 20
151.4461272318031
 42
0.01384400423200094
  0
VERTEX
  8
0
  6
CONTINUOUS
 62
     7
 10
203.1055145031198
 20
151.7083811632851
 42
0.02124638856372972
  0
VERTEX
  8
0
  6
CONTINUOUS
 62
     7
 10
204.6541382409064
 20
152.0775236156162
 42
0.04455011562131492
  0
VERTEX
  8
0
  6
CONTINUOUS
 62
     7
 10
206.1435024814074
 20
152.6343905027755
 42
0.247990947162406
  0
VERTEX
  8
0
  6
CONTINUOUS
 62
     7
 10
207.1911163330078
 20
153.7374572753906
 42
0
  0
SEQEND
  8
0
  0
POLYLINE
  8
0
  6
CONTINUOUS
 62
     7
 66
     1
 10
0
 20
0
  0
VERTEX
  8
0
  6
CONTINUOUS
 62
     7
 10
186.6911163330078
 20
139.806640625
 42
0.2478632552116383
  0
VERTEX
  8
0
  6
CONTINUOUS
 62
     7
 10
187.4392021097039
 20
139.0387494230804
 42
0.04354537782653965
  0
VERTEX
  8
0
  6
CONTINUOUS
 62
     7
 10
188.4935795342346
 20
138.6540034954104
 42
0.02075794984318858
  0
VERTEX
  8
0
  6
CONTINUOUS
 62
     7
 10
189.5883890805633
 20
138.3989094049266
 42
0.01353047399405962
  0
VERTEX
  8
0
  6
CONTINUOUS
 62
     7
 10
190.6983438902881
 20
138.2175563599442
 42
0.01028825683529591
  0
VERTEX
  8
0
  6
CONTINUOUS
 62
     7
 10
191.8157284865243
 20
138.0886183367645
 42
0.008614206889659949
  0
VERTEX
  8
0
  6
CONTINUOUS
 62
     7
 10
192.9374818275341
 20
138.0016871929859
 42
0.007731442429288997
  0
VERTEX
  8
0
  6
CONTINUOUS
 62
     7
 10
194.0615865343748
 20
137.951294316533
 42
0.007343632302798761
  0
VERTEX
  8
0
  6
CONTINUOUS
 62
     7
 10
195.1867313759174
 20
137.9346926319073
 42
0.007341380211366086
  0
VERTEX
  8
0
  6
CONTINUOUS
 62
     7
 10
196.3117578749194
 20
137.9510329179521
 42
0.007724531199739661
  0
VERTEX
  8
0
  6
CONTINUOUS
 62
     7
 10
197.4355747248305
 20
138.0011327206224
 42
0.008612328414086001
  0
VERTEX
  8
0
  6
CONTINUOUS
 62
     7
 10
198.5582980135367
 20
138.0878374962587
 42
0.01027626486007088
  0
VERTEX
  8
0
  6
CONTINUOUS
 62
     7
 10
199.6761753084376
 20
138.2164999014733
 42
0.01351160910533325
  0
VERTEX
  8
0
  6
CONTINUOUS
 62
     7
 10
200.7870935958084
 20
138.3976078235678
 42
0.02072243687517501
  0
VERTEX
  8
0
  6
CONTINUOUS
 62
     7
 10
201.8833661835575
 20
138.6525150786498
 42
0.04343657313899549
  0
VERTEX
  8
0
  6
CONTINUOUS
 62
     7
 10
202.9397314087133
 20
139.0371361485549
 42
0.2478609004116993
  0
VERTEX
  8
0
  6
CONTINUOUS
 62
     7
 10
203.6911163330078
 20
139.806640625
 42
0
  0
SEQEND
  8
0
  0
POLYLINE
  8
0
  6
CONTINUOUS
 62
     7
 66
     1
 10
0
 20
0
  0
VERTEX
  8
0
  6
CONTINUOUS
 62
     7
 10
31.19122112782384
 20
567.6820711796328
 42
-0.0459229941083109
  0
VERTEX
  8
0
  6
CONTINUOUS
 62
     7
 10
37.72117820018024
 20
552.180325813677
 42
-0.04744122615089055
  0
VERTEX
  8
0
  6
CONTINUOUS
 62
     7
 10
41.12306997155876
 20
535.7092551466608
 42
-0.02920960640588517
  0
VERTEX
  8
0
  6
CONTINUOUS
 62
     7
 10
41.97243615626166
 20
518.8958656828195
 42
-0.01262769604238023
  0
VERTEX
  8
0
  6
CONTINUOUS
 62
     7
 10
41.42495183337604
 20
502.0619235854169
 42
0.001318480003099707
  0
VERTEX
  8
0
  6
CONTINUOUS
 62
     7
 10
40.49806183942371
 20
485.2426606566527
 42
0.01585887023863761
  0
VERTEX
  8
0
  6
CONTINUOUS
 62
     7
 10
40.1448315388195
 20
468.4047357948189
 42
0.005745509047633054
  0
VERTEX
  8
0
  6
CONTINUOUS
 62
     7
 10
40.77775079634448
 20
451.5726579814292
 42
-0.04443778082385916
  0
VERTEX
  8
0
  6
CONTINUOUS
 62
     7
 10
40.45230542905846
 20
434.7593554344779
 42
-0.2293747543283191
  0
VERTEX
  8
0
  6
CONTINUOUS
 62
     7
 10
31.18970925698779
 20
421.3502288296494
 42
0
  0
SEQEND
  8
0
  0
POLYLINE
  8
0
  6
CONTINUOUS
 62
     7
 66
     1
 10
0
 20
0
  0
VERTEX
  8
0
  6
CONTINUOUS
 62
     7
 10
183.1911163330078
 20
461.3294372558594
 42
0.05059492151590622
  0
VERTEX
  8
0
  6
CONTINUOUS
 62
     7
 10
183.379614980919
 20
459.4801007031103
 42
0.04716349595488956
  0
VERTEX
  8
0
  6
CONTINUOUS
 62
     7
 10
183.9251083791219
 20
457.7019464019414
 42
0.04170064594322416
  0
VERTEX
  8
0
  6
CONTINUOUS
 62
     7
 10
184.7766678086489
 20
456.0483074273104
 42
0.03588153653111006
  0
VERTEX
  8
0
  6
CONTINUOUS
 62
     7
 10
185.8736737926959
 20
454.5455216068901
 42
0.03066399755078817
  0
VERTEX
  8
0
  6
CONTINUOUS
 62
     7
 10
187.1605813590974
 20
453.2007024707812
 42
0.02635006286276517
  0
VERTEX
  8
0
  6
CONTINUOUS
 62
     7
 10
188.5919459412622
 20
452.010566015194
 42
0.0229333631123443
  0
VERTEX
  8
0
  6
CONTINUOUS
 62
     7
 10
190.1336888184656
 20
450.9664130554741
 42
0.02026821764733842
  0
VERTEX
  8
0
  6
CONTINUOUS
 62
     7
 10
191.7602396645634
 20
450.0585612945213
 42
0.01819160488889271
  0
VERTEX
  8
0
  6
CONTINUOUS
 62
     7
 10
193.451334045894
 20
449.2782813332902
 42
0.01659477411712781
  0
VERTEX
  8
0
  6
CONTINUOUS
 62
     7
 10
195.193086314738
 20
448.6170356718235
 42
0.01536229975741421
  0
VERTEX
  8
0
  6
CONTINUOUS
 62
     7
 10
196.9734770853573
 20
448.0682283412046
 42
0.01442613410641486
  0
VERTEX
  8
0
  6
CONTINUOUS
 62
     7
 10
198.7834395972667
 20
447.6262534577494
 42
0.0137315688333548
  0
VERTEX
  8
0
  6
CONTINUOUS
 62
     7
 10
200.6155042783041
 20
447.2867255355185
 42
0.01323989600819627
  0
VERTEX
  8
0
  6
CONTINUOUS
 62
     7
 10
202.4632878476901
 20
447.0463659404829
 42
0.01292484747344853
  0
VERTEX
  8
0
  6
CONTINUOUS
 62
     7
 10
204.3211208596929
 20
446.902900489555
 42
0.01277045370665528
  0
VERTEX
  8
0
  6
CONTINUOUS
 62
     7
 10
206.1838136757318
 20
446.8549811983389
 42
0
  0
SEQEND
  8
0
  0
POLYLINE
  8
0
  6
CONTINUOUS
 62
     7
 66
     1
 10
0
 20
0
  0
VERTEX
  8
0
  6
CONTINUOUS
 62
     7
 10
203.6931152783042
 20
472.2803234153029
 42
0.03674702027608732
  0
VERTEX
  8
0
  6
CONTINUOUS
 62
     7
 10
202.3560497659892
 20
473.4083222017134
 42
0.03635561689521648
  0
VERTEX
  8
0
  6
CONTINUOUS
 62
     7
 10
200.8687379289923
 20
474.3297632319772
 42
0.03602154406177339
  0
VERTEX
  8
0
  6
CONTINUOUS
 62
     7
 10
199.2638957870896
 20
475.0272515184858
 42
0.03576748038965489
  0
VERTEX
  8
0
  6
CONTINUOUS
 62
     7
 10
197.5757347472261
 20
475.4880965993404
 42
0.03560865590247033
  0
VERTEX
  8
0
  6
CONTINUOUS
 62
     7
 10
195.8394284994108
 20
475.7042064693117
 42
0.03555216559659438
  0
VERTEX
  8
0
  6
CONTINUOUS
 62
     7
 10
194.0907097854009
 20
475.6720183300769
 42
0.03561924888456623
  0
VERTEX
  8
0
  6
CONTINUOUS
 62
     7
 10
192.3644492997162
 20
475.3922677244896
 42
0.03581099083919977
  0
VERTEX
  8
0
  6
CONTINUOUS
 62
     7
 10
190.6950788813853
 20
474.8695854128047
 42
0.03608619681279014
  0
VERTEX
  8
0
  6
CONTINUOUS
 62
     7
 10
189.1179366555791
 20
474.1132884841061
 42
0.03644317061355396
  0
VERTEX
  8
0
  6
CONTINUOUS
 62
     7
 10
187.6665907573382
 20
473.137065155043
 42
0.03685492996309495
  0
VERTEX
  8
0
  6
CONTINUOUS
 62
     7
 10
186.3731757910525
 20
471.9592744817823
 42
0.03728604441801527
  0
VERTEX
  8
0
  6
CONTINUOUS
 62
     7
 10
185.2676998884358
 20
470.6031889620555
 42
0.03769686788793622
  0
VERTEX
  8
0
  6
CONTINUOUS
 62
     7
 10
184.3770302140405
 20
469.0970197798036
 42
0.03804675018538733
  0
VERTEX
  8
0
  6
CONTINUOUS
 62
     7
 10
183.7237351318315
 20
467.473643102083
 42
0.03829837868580978
  0
VERTEX
  8
0
  6
CONTINUOUS
 62
     7
 10
183.3249054574397
 20
465.7699485887308
 42
0.03841513572962359
  0
VERTEX
  8
0
  6
CONTINUOUS
 62
     7
 10
183.1911166553734
 20
464.0261288954966
 42
0
  0
SEQEND
  8
0
  0
TEXT
  8
0
  6
CONTINUOUS
 62
     7
 10
-514.23743724823
 20
484.0479736328125
 40
18
 41
0.9993229771112379
  1
ERKV-NBD-400
  0
ENDSEC
  0
EOF
