  0
SECTION
  2
HEADER
  0
ENDSEC
  0
SECTION
  2
TABLES
  0
TABLE
  2
LTYPE
 70
    22
  0
LTYPE
  2
CONTINUOUS
 70
    64
  3
Solid line
 72
    65
 73
     0
 40
0.000000
  0
LTYPE
  2
DASHED
 70
    64
  3
__ __ __ __ __ __ __ __ __ __ __ __ __ __ __
 72
    65
 73
     2
 40
3.500000
 49
2.000000
 49
-1.500000
  0
LTYPE
  2
CENTER
 70
    64
  3
____ _ ____ _ ____ _ ____ _ ____ _ ____ _ ____
 72
    65
 73
     4
 40
17.500000
 49
13.000000
 49
-1.500000
 49
1.500000
 49
-1.500000
  0
LTYPE
  2
PHANTOM
 70
    64
  3
_____ _ _ _____ _ _ _____ _ _ _____ _ _ ____  
 72
    65
 73
     6
 40
15.500000
 49
8.000000
 49
-1.500000
 49
1.500000
 49
-1.500000
 49
1.500000
 49
-1.500000
  0
LTYPE
  2
DOT
 70
    64
  3
. . . . . . . . . . . . . . . . . . . . . . . .
 72
    65
 73
     2
 40
0.25
 49
0.0
 49
-0.25
  0
ENDTAB
  0
TABLE
  2
LAYER
 70
     1
  0
LAYER
  2
0
 70
     0
 62
     7
  6
CONTINUOUS
  0
ENDTAB
  0
TABLE
  2
STYLE
 70
     1
  0
STYLE
  2
STANDARD
 70
     0
 40
0.000000
 41
1.000000
 50
0.000000
 71
     0
 42
0.200000
  3
txt
  0
ENDTAB
  0
TABLE
  2
VIEW
 70
     0
  0
ENDTAB
  0
ENDSEC
  0
SECTION
  2
BLOCKS
  0
ENDSEC
  0
SECTION
  2
ENTITIES
  0
LINE
  8
0
  6
CONTINUOUS
 62
     3
 10
335
 20
-475
 11
787.7841186523437
 21
-475
  0
LINE
  8
0
  6
CONTINUOUS
 62
     7
 10
589
 20
-360
 11
589
 21
-590
  0
LINE
  8
0
  6
CONTINUOUS
 62
     7
 10
589
 20
-360
 11
595.5742797851563
 21
-360
  0
LINE
  8
0
  6
CONTINUOUS
 62
     7
 10
589
 20
-590
 11
616
 21
-590
  0
LINE
  8
0
  6
CONTINUOUS
 62
     7
 10
607
 20
-371.816650390625
 11
607
 21
-590
  0
LINE
  8
0
  6
CONTINUOUS
 62
     7
 10
654
 20
-402.5
 11
654
 21
-547.5
  0
LINE
  8
0
  6
CONTINUOUS
 62
     7
 10
654
 20
-547.5
 11
664
 21
-547.5
  0
LINE
  8
0
  6
CONTINUOUS
 62
     7
 10
654
 20
-402.5
 11
664
 21
-402.5
  0
LINE
  8
0
  6
CONTINUOUS
 62
     7
 10
622
 20
-397.5
 11
622
 21
-552.5
  0
LINE
  8
0
  6
CONTINUOUS
 62
     7
 10
612
 20
-557.5
 11
617
 21
-557.5
  0
LINE
  8
0
  6
CONTINUOUS
 62
     7
 10
616
 20
-360
 11
616
 21
-390.5
  0
LINE
  8
0
  6
CONTINUOUS
 62
     7
 10
612
 20
-392.5
 11
617
 21
-392.5
  0
LINE
  8
0
  6
CONTINUOUS
 62
     7
 10
616
 20
-590
 11
616
 21
-559.5
  0
LINE
  8
0
  6
CONTINUOUS
 62
     7
 10
621.9999389648438
 20
-414.2030334472656
 11
653.9999389648437
 21
-421.5271911621094
  0
LINE
  8
0
  6
CONTINUOUS
 62
     7
 10
622
 20
-440.947509765625
 11
654
 21
-440.947509765625
  0
LINE
  8
0
  6
CONTINUOUS
 62
     7
 10
622
 20
-535.7969360351562
 11
654
 21
-528.4727783203125
  0
LINE
  8
0
  6
CONTINUOUS
 62
     7
 10
622
 20
-509.052490234375
 11
654
 21
-509.052490234375
  0
LINE
  8
0
  6
CONTINUOUS
 62
     7
 10
612.4257202148437
 20
-360
 11
616
 21
-360
  0
LINE
  8
0
  6
CONTINUOUS
 62
     7
 10
606.9999389648437
 20
-371.8166809082031
 11
615.9999389648437
 21
-370.7746276855469
  0
LINE
  8
0
  6
CONTINUOUS
 62
     7
 10
541
 20
-357.5
 11
585
 21
-357.5
  0
LINE
  8
0
  6
CONTINUOUS
 62
     7
 10
541
 20
-592.5
 11
585
 21
-592.5
  0
LINE
  8
0
  6
CONTINUOUS
 62
     7
 10
537
 20
-360
 11
537
 21
-590
  0
LINE
  8
0
  6
CONTINUOUS
 62
     7
 10
537
 20
-361.5
 11
541
 21
-357.5
  0
LINE
  8
0
  6
CONTINUOUS
 62
     7
 10
585
 20
-357.5
 11
589
 21
-361.5
  0
LINE
  8
0
  6
CONTINUOUS
 62
     7
 10
589
 20
-588.5
 11
585
 21
-592.5
  0
LINE
  8
0
  6
CONTINUOUS
 62
     7
 10
541
 20
-592.5
 11
537
 21
-588.5
  0
LINE
  8
0
  6
CONTINUOUS
 62
     7
 10
541
 20
-400.0578002929687
 11
585
 21
-400.0578002929687
  0
LINE
  8
0
  6
CONTINUOUS
 62
     7
 10
541
 20
-413.7132568359375
 11
585
 21
-413.7132568359375
  0
LINE
  8
0
  6
CONTINUOUS
 62
     7
 10
541
 20
-422.4596557617187
 11
585
 21
-422.4596557617187
  0
LINE
  8
0
  6
CONTINUOUS
 62
     7
 10
541
 20
-437.8352966308594
 11
585
 21
-437.8352966308594
  0
LINE
  8
0
  6
CONTINUOUS
 62
     7
 10
541
 20
-447.447998046875
 11
585
 21
-447.447998046875
  0
LINE
  8
0
  6
CONTINUOUS
 62
     7
 10
541
 20
-464.00048828125
 11
585
 21
-464.00048828125
  0
LINE
  8
0
  6
CONTINUOUS
 62
     7
 10
541
 20
-486.0003051757812
 11
585
 21
-486.0003051757812
  0
LINE
  8
0
  6
CONTINUOUS
 62
     7
 10
541
 20
-502.5516662597656
 11
585
 21
-502.5516662597656
  0
LINE
  8
0
  6
CONTINUOUS
 62
     7
 10
541
 20
-512.1639404296875
 11
585
 21
-512.1639404296875
  0
LINE
  8
0
  6
CONTINUOUS
 62
     7
 10
541
 20
-527.5404663085937
 11
585
 21
-527.5404663085937
  0
LINE
  8
0
  6
CONTINUOUS
 62
     7
 10
541
 20
-536.2864379882813
 11
585
 21
-536.2864379882813
  0
LINE
  8
0
  6
CONTINUOUS
 62
     7
 10
541
 20
-549.94091796875
 11
585
 21
-549.94091796875
  0
LINE
  8
0
  6
CONTINUOUS
 62
     7
 10
541
 20
-565.4974365234375
 11
585
 21
-565.4974365234375
  0
LINE
  8
0
  6
CONTINUOUS
 62
     7
 10
541
 20
-575.2504272460937
 11
585
 21
-575.2504272460937
  0
LINE
  8
0
  6
CONTINUOUS
 62
     7
 10
541
 20
-580.0982055664062
 11
585
 21
-580.0982055664062
  0
LINE
  8
0
  6
CONTINUOUS
 62
     7
 10
541
 20
-586.4676513671875
 11
585
 21
-586.4676513671875
  0
LINE
  8
0
  6
CONTINUOUS
 62
     7
 10
445
 20
-325
 11
467
 21
-325
  0
LINE
  8
0
  6
CONTINUOUS
 62
     7
 10
445
 20
-625
 11
467
 21
-625
  0
LINE
  8
0
  6
CONTINUOUS
 62
     7
 10
445
 20
-325
 11
445
 21
-382.2501525878906
  0
LINE
  8
0
  6
CONTINUOUS
 62
     7
 10
467
 20
-325
 11
467
 21
-625
  0
LINE
  8
0
  6
CONTINUOUS
 62
     7
 10
519
 20
-360
 11
519
 21
-590
  0
LINE
  8
0
  6
CONTINUOUS
 62
     7
 10
519
 20
-590
 11
537
 21
-590
  0
LINE
  8
0
  6
CONTINUOUS
 62
     7
 10
472
 20
-360
 11
537
 21
-360
  0
LINE
  8
0
  6
CONTINUOUS
 62
     7
 10
470.095703125
 20
-541.2222900390625
 11
504.6409912109375
 21
-526.9927978515625
  0
LINE
  8
0
  6
CONTINUOUS
 62
     7
 10
470.095703125
 20
-408.7777709960937
 11
504.6410522460938
 21
-423.0072326660156
  0
LINE
  8
0
  6
CONTINUOUS
 62
     7
 10
467
 20
-368.1234741210938
 11
519
 21
-389.4042358398437
  0
LINE
  8
0
  6
CONTINUOUS
 62
     7
 10
467.0000305175781
 20
-382.2656555175781
 11
519
 21
-403.5464172363281
  0
LINE
  8
0
  6
CONTINUOUS
 62
     7
 10
504.6410217285156
 20
-423.0072326660156
 11
514
 21
-423.0072326660156
  0
LINE
  8
0
  6
CONTINUOUS
 62
     7
 10
504.6410217285156
 20
-526.9927978515625
 11
514
 21
-526.9927978515625
  0
LINE
  8
0
  6
CONTINUOUS
 62
     7
 10
467
 20
-567.734375
 11
519
 21
-546.45361328125
  0
LINE
  8
0
  6
CONTINUOUS
 62
     7
 10
467.0000305175781
 20
-581.8765258789062
 11
519.0000610351562
 21
-560.5957641601563
  0
LINE
  8
0
  6
CONTINUOUS
 62
     7
 10
440
 20
-590
 11
445
 21
-590
  0
LINE
  8
0
  6
CONTINUOUS
 62
     7
 10
440
 20
-360
 11
445
 21
-360
  0
LINE
  8
0
  6
CONTINUOUS
 62
     7
 10
350
 20
-438.5
 11
350
 21
-507.5
  0
LINE
  8
0
  6
CONTINUOUS
 62
     7
 10
350
 20
-507.5
 11
445
 21
-507.5
  0
LINE
  8
0
  6
CONTINUOUS
 62
     7
 10
350
 20
-442.5
 11
445
 21
-442.5
  0
LINE
  8
0
  6
CONTINUOUS
 62
     7
 10
440
 20
-555.2203369140625
 11
440
 21
-590
  0
LINE
  8
0
  6
CONTINUOUS
 62
     7
 10
445
 20
-546.8104858398437
 11
445
 21
-625
  0
LINE
  8
0
  6
CONTINUOUS
 62
     7
 10
440
 20
-360
 11
440
 21
-377.4778747558594
  0
LINE
  8
0
  6
CONTINUOUS
 62
     7
 10
350
 20
-438.5
 11
430
 21
-438.5
  0
LINE
  8
0
  6
CONTINUOUS
 62
     7
 10
430
 20
-438.5
 11
430
 21
-442.5
  0
LINE
  8
0
  6
CONTINUOUS
 62
     7
 10
445
 20
-437.5
 11
448.7959899902344
 21
-437.5
  0
LINE
  8
0
  6
CONTINUOUS
 62
     7
 10
445
 20
-512.5
 11
449.16015625
 21
-512.5
  0
LINE
  8
0
  6
CONTINUOUS
 62
     7
 10
445
 20
-437.5
 11
445
 21
-512.5
  0
LINE
  8
0
  6
CONTINUOUS
 62
     3
 10
493
 20
-268.0375671386719
 11
493
 21
-375
  0
LINE
  8
0
  6
CONTINUOUS
 62
     7
 10
479.5
 20
-290.7000122070312
 11
506.5
 21
-290.7000122070312
  0
LINE
  8
0
  6
CONTINUOUS
 62
     7
 10
501.0710754394531
 20
-276.0500183105469
 11
484.9289245605469
 21
-276.0500183105469
  0
LINE
  8
0
  6
CONTINUOUS
 62
     7
 10
501.507568359375
 20
-285.0500183105469
 11
484.492431640625
 21
-285.0500183105469
  0
LINE
  8
0
  6
CONTINUOUS
 62
     7
 10
501.507568359375
 20
-285.0500183105469
 11
501.3310241699219
 21
-290.7000122070312
  0
LINE
  8
0
  6
CONTINUOUS
 62
     7
 10
484.4924011230469
 20
-285.0500183105469
 11
484.6689453125
 21
-290.7000122070312
  0
LINE
  8
0
  6
CONTINUOUS
 62
     7
 10
501.071044921875
 20
-276.0500183105469
 11
501.071044921875
 21
-285.0500183105469
  0
LINE
  8
0
  6
CONTINUOUS
 62
     7
 10
484.928955078125
 20
-276.0500183105469
 11
484.928955078125
 21
-285.0500183105469
  0
LINE
  8
0
  6
CONTINUOUS
 62
     7
 10
479.5
 20
-322.7000122070313
 11
506.5
 21
-322.7000122070313
  0
LINE
  8
0
  6
CONTINUOUS
 62
     7
 10
484.3499755859375
 20
-322.7000122070313
 11
484.3499755859375
 21
-360
  0
LINE
  8
0
  6
CONTINUOUS
 62
     7
 10
501.6500244140625
 20
-322.7000122070313
 11
501.6500244140625
 21
-360
  0
LINE
  8
0
  6
CONTINUOUS
 62
     7
 10
506.5
 20
-290.7000122070312
 11
506.5
 21
-322.7000122070313
  0
LINE
  8
0
  6
CONTINUOUS
 62
     7
 10
479.5
 20
-290.7000122070312
 11
479.5
 21
-322.7000122070313
  0
LINE
  8
0
  6
CONTINUOUS
 62
     3
 10
484.928955078125
 20
-285.0499877929688
 11
493
 21
-276.0499877929688
  0
LINE
  8
0
  6
CONTINUOUS
 62
     3
 10
484.928955078125
 20
-276.0500183105469
 11
493
 21
-285.0500183105469
  0
LINE
  8
0
  6
CONTINUOUS
 62
     7
 10
493
 20
-285.0500183105469
 11
493
 21
-276.0500183105469
  0
LINE
  8
0
  6
CONTINUOUS
 62
     3
 10
493.0000610351563
 20
-276.050048828125
 11
501.0710754394531
 21
-285.0500183105469
  0
LINE
  8
0
  6
CONTINUOUS
 62
     3
 10
501.0710754394531
 20
-276.0499877929688
 11
493.0000305175781
 21
-285.0500183105469
  0
LINE
  8
0
  6
CONTINUOUS
 62
     7
 10
667.5
 20
-550
 11
700.5
 21
-550
  0
LINE
  8
0
  6
CONTINUOUS
 62
     7
 10
664
 20
-402.5
 11
664
 21
-547.5
  0
LINE
  8
0
  6
CONTINUOUS
 62
     7
 10
667.5
 20
-545.4512939453125
 11
700.5
 21
-545.4512939453125
  0
LINE
  8
0
  6
CONTINUOUS
 62
     7
 10
667.5
 20
-400
 11
700.5
 21
-400
  0
LINE
  8
0
  6
CONTINUOUS
 62
     7
 10
667.5
 20
-400
 11
664
 21
-404.160888671875
  0
LINE
  8
0
  6
CONTINUOUS
 62
     7
 10
700.5000610351563
 20
-400
 11
704.0000610351562
 21
-404.160888671875
  0
LINE
  8
0
  6
CONTINUOUS
 62
     7
 10
704
 20
-402.5
 11
704
 21
-547.5
  0
LINE
  8
0
  6
CONTINUOUS
 62
     7
 10
667.5
 20
-550
 11
664
 21
-545.839111328125
  0
LINE
  8
0
  6
CONTINUOUS
 62
     7
 10
700.5
 20
-550
 11
704
 21
-545.839111328125
  0
LINE
  8
0
  6
CONTINUOUS
 62
     7
 10
667.5
 20
-445.5653076171875
 11
700.5
 21
-445.5653076171875
  0
LINE
  8
0
  6
CONTINUOUS
 62
     7
 10
667.5
 20
-454.2552795410156
 11
700.5
 21
-454.2552795410156
  0
LINE
  8
0
  6
CONTINUOUS
 62
     7
 10
667.5
 20
-462.0502319335938
 11
700.5
 21
-462.0502319335938
  0
LINE
  8
0
  6
CONTINUOUS
 62
     7
 10
667.5
 20
-471.0000610351562
 11
700.5
 21
-471.0000610351562
  0
LINE
  8
0
  6
CONTINUOUS
 62
     7
 10
667.5
 20
-479.0000915527344
 11
700.5
 21
-479.0000915527344
  0
LINE
  8
0
  6
CONTINUOUS
 62
     7
 10
667.5
 20
-487.9499206542969
 11
700.5
 21
-487.9499206542969
  0
LINE
  8
0
  6
CONTINUOUS
 62
     7
 10
667.5
 20
-495.744873046875
 11
700.5
 21
-495.744873046875
  0
LINE
  8
0
  6
CONTINUOUS
 62
     7
 10
667.5
 20
-504.4347839355469
 11
700.5
 21
-504.4347839355469
  0
LINE
  8
0
  6
CONTINUOUS
 62
     7
 10
667.5
 20
-520.0232543945312
 11
700.5
 21
-520.0232543945312
  0
LINE
  8
0
  6
CONTINUOUS
 62
     7
 10
667.5
 20
-527.04541015625
 11
700.5
 21
-527.04541015625
  0
LINE
  8
0
  6
CONTINUOUS
 62
     7
 10
667.5
 20
-532.50146484375
 11
700.5
 21
-532.50146484375
  0
LINE
  8
0
  6
CONTINUOUS
 62
     7
 10
667.5
 20
-537.8594360351563
 11
700.5
 21
-537.8594360351563
  0
LINE
  8
0
  6
CONTINUOUS
 62
     7
 10
667.5
 20
-541.8594360351563
 11
700.5
 21
-541.8594360351563
  0
LINE
  8
0
  6
CONTINUOUS
 62
     3
 10
574
 20
-465.135009765625
 11
574
 21
-484.864990234375
  0
LINE
  8
0
  6
CONTINUOUS
 62
     7
 10
574
 20
-470.0502624511719
 11
569.0502319335937
 21
-475
  0
LINE
  8
0
  6
CONTINUOUS
 62
     7
 10
569.0502319335937
 20
-475
 11
574
 21
-479.9497375488281
  0
LINE
  8
0
  6
CONTINUOUS
 62
     7
 10
574
 20
-479.9497680664062
 11
578.9497680664062
 21
-475
  0
LINE
  8
0
  6
CONTINUOUS
 62
     7
 10
578.94970703125
 20
-475
 11
574
 21
-470.0502624511719
  0
LINE
  8
0
  6
CONTINUOUS
 62
     3
 10
647.4326171875
 20
-326.8999938964844
 11
586.7659301757813
 21
-326.8999938964844
  0
LINE
  8
0
  6
CONTINUOUS
 62
     3
 10
604
 20
-311.5993957519531
 11
604
 21
-368.7841186523437
  0
LINE
  8
0
  6
CONTINUOUS
 62
     7
 10
612.5
 20
-351.2159423828125
 11
612.5
 21
-363.2413330078125
  0
LINE
  8
0
  6
CONTINUOUS
 62
     7
 10
595.5
 20
-351.2159729003906
 11
595.5
 21
-363.2413330078125
  0
LINE
  8
0
  6
CONTINUOUS
 62
     7
 10
642
 20
-335.1677856445313
 11
642
 21
-318.6322021484375
  0
LINE
  8
0
  6
CONTINUOUS
 62
     7
 10
633
 20
-335.4075622558594
 11
633
 21
-318.3924560546875
  0
LINE
  8
0
  6
CONTINUOUS
 62
     7
 10
632.9999389648437
 20
-335.4075622558594
 11
626.9999389648438
 21
-335.2200622558594
  0
LINE
  8
0
  6
CONTINUOUS
 62
     7
 10
633
 20
-318.3924560546875
 11
627
 21
-318.5799560546875
  0
LINE
  8
0
  6
CONTINUOUS
 62
     7
 10
615
 20
-314.8999938964844
 11
627
 21
-314.8999938964844
  0
LINE
  8
0
  6
CONTINUOUS
 62
     7
 10
621
 20
-338.8999938964844
 11
627
 21
-338.8999938964844
  0
LINE
  8
0
  6
CONTINUOUS
 62
     7
 10
627
 20
-314.8999938964844
 11
627
 21
-338.8999938964844
  0
LINE
  8
0
  6
CONTINUOUS
 62
     7
 10
592
 20
-337.8999938964844
 11
592
 21
-349.3105163574219
  0
LINE
  8
0
  6
CONTINUOUS
 62
     7
 10
616
 20
-343.8999938964844
 11
616
 21
-349.3105163574219
  0
LINE
  8
0
  6
CONTINUOUS
 62
     7
 10
633
 20
-318.6322021484375
 11
642
 21
-318.6322021484375
  0
LINE
  8
0
  6
CONTINUOUS
 62
     7
 10
633
 20
-335.1677856445313
 11
642
 21
-335.1677856445313
  0
LINE
  8
0
  6
CONTINUOUS
 62
     7
 10
642
 20
-326.8999938964844
 11
633
 21
-326.8999938964844
  0
LINE
  8
0
  6
CONTINUOUS
 62
     3
 10
633
 20
-326.8999938964844
 11
642
 21
-335.1677856445313
  0
LINE
  8
0
  6
CONTINUOUS
 62
     3
 10
633
 20
-335.1678161621094
 11
642
 21
-326.9000244140625
  0
LINE
  8
0
  6
CONTINUOUS
 62
     3
 10
642
 20
-326.8999938964844
 11
633
 21
-318.6322326660156
  0
LINE
  8
0
  6
CONTINUOUS
 62
     3
 10
642
 20
-318.6322021484375
 11
633
 21
-326.9000244140625
  0
LINE
  8
0
  6
CONTINUOUS
 62
     3
 10
-165
 20
-475
 11
165
 21
-475
  0
LINE
  8
0
  6
CONTINUOUS
 62
     3
 10
0
 20
-259.6046752929687
 11
0
 21
-640
  0
LINE
  8
0
  6
CONTINUOUS
 62
     7
 10
9
 20
-438.5
 11
9
 21
-449.5
  0
LINE
  8
0
  6
CONTINUOUS
 62
     7
 10
-9
 20
-438.5
 11
-9
 21
-449.5
  0
LINE
  8
0
  6
CONTINUOUS
 62
     3
 10
111.7655639648437
 20
-521.2949829101562
 11
132.5182189941406
 21
-529.8910522460938
  0
LINE
  8
0
  6
CONTINUOUS
 62
     3
 10
111.765739440918
 20
-428.7051086425781
 11
132.5184020996094
 21
-420.1090698242188
  0
LINE
  8
0
  6
CONTINUOUS
 62
     3
 10
46.2949104309082
 20
-363.234375
 11
54.89093780517578
 21
-342.4817504882813
  0
LINE
  8
0
  6
CONTINUOUS
 62
     3
 10
-46.2946891784668
 20
-363.2344055175781
 11
-54.89072418212891
 21
-342.4817199707031
  0
LINE
  8
0
  6
CONTINUOUS
 62
     3
 10
-111.765625
 20
-428.7049865722656
 11
-132.5182952880859
 21
-420.1089477539062
  0
LINE
  8
0
  6
CONTINUOUS
 62
     3
 10
-111.7656707763672
 20
-521.2947387695312
 11
-132.5183410644531
 21
-529.8907470703125
  0
LINE
  8
0
  6
CONTINUOUS
 62
     3
 10
-46.29494857788086
 20
-586.7655029296875
 11
-54.89101028442383
 21
-607.5181884765625
  0
LINE
  8
0
  6
CONTINUOUS
 62
     3
 10
46.29468536376953
 20
-586.7656860351562
 11
54.89071655273438
 21
-607.5183715820313
  0
LINE
  8
0
  6
CONTINUOUS
 62
     7
 10
-9
 20
-449.5
 11
9
 21
-449.5
  0
LINE
  8
0
  6
CONTINUOUS
 62
     7
 10
-9
 20
-438.5
 11
9
 21
-438.5
  0
LINE
  8
0
  6
CONTINUOUS
 62
     3
 10
58.56739807128906
 20
-508.8139038085938
 11
71.13248443603516
 21
-516.068359375
  0
LINE
  8
0
  6
CONTINUOUS
 62
     3
 10
58.56741333007813
 20
-441.1861267089844
 11
71.13249969482422
 21
-433.9316711425781
  0
LINE
  8
0
  6
CONTINUOUS
 62
     3
 10
-58.56745147705078
 20
-441.1860656738281
 11
-71.13259124755859
 21
-433.9315795898438
  0
LINE
  8
0
  6
CONTINUOUS
 62
     3
 10
-58.56748962402344
 20
-508.8139953613281
 11
-71.13257598876953
 21
-516.0684204101562
  0
LINE
  8
0
  6
CONTINUOUS
 62
     7
 10
-13.5
 20
-290.7000122070312
 11
13.5
 21
-290.7000122070312
  0
LINE
  8
0
  6
CONTINUOUS
 62
     7
 10
8.07110595703125
 20
-276.0500183105469
 11
-8.07110595703125
 21
-276.0500183105469
  0
LINE
  8
0
  6
CONTINUOUS
 62
     7
 10
8.507568359375
 20
-285.0500183105469
 11
-8.507568359375
 21
-285.0500183105469
  0
LINE
  8
0
  6
CONTINUOUS
 62
     7
 10
8.507608413696289
 20
-285.0500183105469
 11
8.331046104431152
 21
-290.7000427246094
  0
LINE
  8
0
  6
CONTINUOUS
 62
     7
 10
-8.507547378540039
 20
-285.0500183105469
 11
-8.330985069274902
 21
-290.7000122070312
  0
LINE
  8
0
  6
CONTINUOUS
 62
     7
 10
8.07110595703125
 20
-276.0500183105469
 11
8.07110595703125
 21
-285.0500183105469
  0
LINE
  8
0
  6
CONTINUOUS
 62
     7
 10
-8.07110595703125
 20
-276.0500183105469
 11
-8.07110595703125
 21
-285.0500183105469
  0
LINE
  8
0
  6
CONTINUOUS
 62
     7
 10
-13.5
 20
-290.7000122070312
 11
-13.5
 21
-325.6087341308594
  0
LINE
  8
0
  6
CONTINUOUS
 62
     7
 10
13.5
 20
-290.7000122070312
 11
13.5
 21
-325.6087341308594
  0
LINE
  8
0
  6
CONTINUOUS
 62
     3
 10
-8.071089744567871
 20
-285.0499572753906
 11
2.143782512575854E-05
 21
-276.0499572753906
  0
LINE
  8
0
  6
CONTINUOUS
 62
     7
 10
0
 20
-276.0500183105469
 11
0
 21
-285.0500183105469
  0
LINE
  8
0
  6
CONTINUOUS
 62
     3
 10
-1.763440741342492E-05
 20
-285.0500183105469
 11
8.071093559265137
 21
-276.0500183105469
  0
LINE
  8
0
  6
CONTINUOUS
 62
     3
 10
8.07111644744873
 20
-285.050048828125
 11
2.598193168523721E-05
 21
-276.0500793457031
  0
LINE
  8
0
  6
CONTINUOUS
 62
     3
 10
-8.071104049682617
 20
-276.0500183105469
 11
2.66493752860697E-05
 21
-285.050048828125
  0
LINE
  8
0
  6
CONTINUOUS
 62
     3
 10
37.597900390625
 20
-312.1455993652344
 11
33.74266052246094
 21
-328.844482421875
  0
LINE
  8
0
  6
CONTINUOUS
 62
     7
 10
22.5001220703125
 20
-324.1963195800781
 11
21.94206809997559
 21
-326.613525390625
  0
LINE
  8
0
  6
CONTINUOUS
 62
     7
 10
45.88500213623047
 20
-329.5951538085938
 11
45.32695007324219
 21
-332.0123596191406
  0
LINE
  8
0
  6
CONTINUOUS
 62
     3
 10
335
 20
0
 11
787.7841186523437
 21
0
  0
LINE
  8
0
  6
CONTINUOUS
 62
     7
 10
589
 20
114.9999694824219
 11
589
 21
4
  0
LINE
  8
0
  6
CONTINUOUS
 62
     7
 10
589
 20
114.9999694824219
 11
607
 21
114.9999694824219
  0
LINE
  8
0
  6
CONTINUOUS
 62
     7
 10
589
 20
-115
 11
607
 21
-115
  0
LINE
  8
0
  6
CONTINUOUS
 62
     7
 10
607
 20
114.9999694824219
 11
607
 21
12.43438720703125
  0
LINE
  8
0
  6
CONTINUOUS
 62
     7
 10
664
 20
72.49996948242187
 11
664
 21
-72.5
  0
LINE
  8
0
  6
CONTINUOUS
 62
     7
 10
654
 20
72.49996948242187
 11
654
 21
-72.5
  0
LINE
  8
0
  6
CONTINUOUS
 62
     7
 10
654
 20
-72.5
 11
664
 21
-72.5
  0
LINE
  8
0
  6
CONTINUOUS
 62
     7
 10
654
 20
72.49996948242187
 11
664
 21
72.49996948242187
  0
LINE
  8
0
  6
CONTINUOUS
 62
     7
 10
622
 20
77.49996948242187
 11
622
 21
3.708099365234375
  0
LINE
  8
0
  6
CONTINUOUS
 62
     7
 10
612
 20
-82.5
 11
617
 21
-82.5
  0
LINE
  8
0
  6
CONTINUOUS
 62
     7
 10
612
 20
82.49996948242188
 11
617
 21
82.49996948242188
  0
LINE
  8
0
  6
CONTINUOUS
 62
     7
 10
616
 20
-48.60113525390625
 11
616
 21
-46.19300079345703
  0
LINE
  8
0
  6
CONTINUOUS
 62
     7
 10
607.0000610351563
 20
12.43439960479736
 11
616.0000610351563
 21
10.02285194396973
  0
LINE
  8
0
  6
CONTINUOUS
 62
     7
 10
606.9999389648437
 20
-51.01267242431641
 11
616
 21
-48.60112762451172
  0
LINE
  8
0
  6
CONTINUOUS
 62
     7
 10
607
 20
-51.01266479492187
 11
607
 21
-115
  0
LINE
  8
0
  6
CONTINUOUS
 62
     7
 10
622
 20
31.18218994140625
 11
654
 21
31.18218994140625
  0
LINE
  8
0
  6
CONTINUOUS
 62
     7
 10
622.0000610351563
 20
57.07563018798828
 11
654.0000610351562
 21
50.24575805664062
  0
LINE
  8
0
  6
CONTINUOUS
 62
     7
 10
642
 20
-31.18218994140625
 11
654
 21
-31.18218994140625
  0
LINE
  8
0
  6
CONTINUOUS
 62
     7
 10
622
 20
-57.07561492919922
 11
654
 21
-50.24573135375977
  0
LINE
  8
0
  6
CONTINUOUS
 62
     7
 10
587.5
 20
4
 11
620.5
 21
4
  0
LINE
  8
0
  6
CONTINUOUS
 62
     7
 10
587.5
 20
-4
 11
620.5
 21
-4
  0
LINE
  8
0
  6
CONTINUOUS
 62
     7
 10
616
 20
4
 11
616
 21
10.0228271484375
  0
LINE
  8
0
  6
CONTINUOUS
 62
     7
 10
622
 20
-3.708099365234375
 11
622
 21
-22.19300079345703
  0
LINE
  8
0
  6
CONTINUOUS
 62
     7
 10
589
 20
-4
 11
589
 21
-115
  0
LINE
  8
0
  6
CONTINUOUS
 62
     7
 10
704
 20
72.50002288818359
 11
704
 21
20.85110855102539
  0
LINE
  8
0
  6
CONTINUOUS
 62
     7
 10
541
 20
117.4999694824219
 11
585
 21
117.4999694824219
  0
LINE
  8
0
  6
CONTINUOUS
 62
     7
 10
541
 20
-117.5
 11
585
 21
-117.5
  0
LINE
  8
0
  6
CONTINUOUS
 62
     7
 10
537
 20
115
 11
537
 21
-114.9999694824219
  0
LINE
  8
0
  6
CONTINUOUS
 62
     7
 10
541
 20
-111.4677429199219
 11
585
 21
-111.4677429199219
  0
LINE
  8
0
  6
CONTINUOUS
 62
     7
 10
537.0000610351562
 20
113.4999389648438
 11
541.0000610351563
 21
117.4999465942383
  0
LINE
  8
0
  6
CONTINUOUS
 62
     7
 10
584.9998168945312
 20
117.4999465942383
 11
588.9998168945313
 21
113.4999465942383
  0
LINE
  8
0
  6
CONTINUOUS
 62
     7
 10
589
 20
-113.5000381469727
 11
585
 21
-117.5000457763672
  0
LINE
  8
0
  6
CONTINUOUS
 62
     7
 10
541.0001220703125
 20
-117.4999008178711
 11
537.0001220703125
 21
-113.4998626708984
  0
LINE
  8
0
  6
CONTINUOUS
 62
     7
 10
541
 20
111.4676208496094
 11
585
 21
111.4676208496094
  0
LINE
  8
0
  6
CONTINUOUS
 62
     7
 10
541
 20
105.0982360839844
 11
585
 21
105.0982360839844
  0
LINE
  8
0
  6
CONTINUOUS
 62
     7
 10
541
 20
100.2502136230469
 11
585
 21
100.2502136230469
  0
LINE
  8
0
  6
CONTINUOUS
 62
     7
 10
541
 20
90.49581909179687
 11
585
 21
90.49581909179687
  0
LINE
  8
0
  6
CONTINUOUS
 62
     7
 10
541
 20
74.94113159179688
 11
585
 21
74.94113159179688
  0
LINE
  8
0
  6
CONTINUOUS
 62
     7
 10
541
 20
61.28469848632813
 11
585
 21
61.28469848632813
  0
LINE
  8
0
  6
CONTINUOUS
 62
     7
 10
541
 20
52.53948974609375
 11
585
 21
52.53948974609375
  0
LINE
  8
0
  6
CONTINUOUS
 62
     7
 10
541
 20
37.16400146484375
 11
585
 21
37.16400146484375
  0
LINE
  8
0
  6
CONTINUOUS
 62
     7
 10
541
 20
27.5504150390625
 11
585
 21
27.5504150390625
  0
LINE
  8
0
  6
CONTINUOUS
 62
     7
 10
541
 20
10.99948120117188
 11
585
 21
10.99948120117188
  0
LINE
  8
0
  6
CONTINUOUS
 62
     7
 10
541
 20
-90.49783325195313
 11
585
 21
-90.49783325195313
  0
LINE
  8
0
  6
CONTINUOUS
 62
     7
 10
541
 20
-100.2507019042969
 11
585
 21
-100.2507019042969
  0
LINE
  8
0
  6
CONTINUOUS
 62
     7
 10
541
 20
-105.0988464355469
 11
585
 21
-105.0988464355469
  0
LINE
  8
0
  6
CONTINUOUS
 62
     7
 10
445
 20
150
 11
467
 21
150
  0
LINE
  8
0
  6
CONTINUOUS
 62
     7
 10
445
 20
-149.9999694824219
 11
467
 21
-149.9999694824219
  0
LINE
  8
0
  6
CONTINUOUS
 62
     7
 10
445
 20
150
 11
445
 21
63.5789794921875
  0
LINE
  8
0
  6
CONTINUOUS
 62
     7
 10
467
 20
150
 11
467
 21
-149.9999694824219
  0
LINE
  8
0
  6
CONTINUOUS
 62
     7
 10
519
 20
115
 11
519
 21
17.5
  0
LINE
  8
0
  6
CONTINUOUS
 62
     7
 10
519
 20
-114.9999694824219
 11
537
 21
-114.9999694824219
  0
LINE
  8
0
  6
CONTINUOUS
 62
     7
 10
519
 20
115
 11
537
 21
115
  0
LINE
  8
0
  6
CONTINUOUS
 62
     7
 10
467
 20
17.5
 11
519
 21
17.5
  0
LINE
  8
0
  6
CONTINUOUS
 62
     7
 10
467
 20
-17.5
 11
519
 21
-17.5
  0
LINE
  8
0
  6
CONTINUOUS
 62
     7
 10
519
 20
-17.5
 11
519
 21
-114.9999694824219
  0
LINE
  8
0
  6
CONTINUOUS
 62
     7
 10
467.0000915527344
 20
106.8764953613281
 11
519.0000610351562
 21
85.59574890136719
  0
LINE
  8
0
  6
CONTINUOUS
 62
     7
 10
466.9999694824219
 20
92.734375
 11
518.9999389648438
 21
71.45362091064453
  0
LINE
  8
0
  6
CONTINUOUS
 62
     7
 10
504.6410217285156
 20
51.9927978515625
 11
514
 21
51.9927978515625
  0
LINE
  8
0
  6
CONTINUOUS
 62
     7
 10
504.6410217285156
 20
-51.9927978515625
 11
514
 21
-51.9927978515625
  0
LINE
  8
0
  6
CONTINUOUS
 62
     7
 10
467.0000305175781
 20
-92.73435211181641
 11
519
 21
-71.45359802246094
  0
LINE
  8
0
  6
CONTINUOUS
 62
     7
 10
467.0000305175781
 20
-106.8765182495117
 11
519
 21
-85.59575653076172
  0
LINE
  8
0
  6
CONTINUOUS
 62
     7
 10
470.095703125
 20
66.22222900390625
 11
504.6410217285156
 21
51.99277496337891
  0
LINE
  8
0
  6
CONTINUOUS
 62
     7
 10
470.0956726074219
 20
-66.22223663330078
 11
504.6410217285156
 21
-51.99277496337891
  0
LINE
  8
0
  6
CONTINUOUS
 62
     7
 10
440
 20
115
 11
440
 21
74.63330078125
  0
LINE
  8
0
  6
CONTINUOUS
 62
     7
 10
440
 20
115
 11
445
 21
115
  0
LINE
  8
0
  6
CONTINUOUS
 62
     7
 10
440
 20
-115
 11
445
 21
-115
  0
LINE
  8
0
  6
CONTINUOUS
 62
     7
 10
350
 20
32.5
 11
350
 21
-32.5
  0
LINE
  8
0
  6
CONTINUOUS
 62
     7
 10
350
 20
-32.5
 11
445
 21
-32.5
  0
LINE
  8
0
  6
CONTINUOUS
 62
     7
 10
350
 20
32.5
 11
445
 21
32.5
  0
LINE
  8
0
  6
CONTINUOUS
 62
     7
 10
350
 20
9
 11
431
 21
9
  0
LINE
  8
0
  6
CONTINUOUS
 62
     7
 10
350
 20
-9
 11
431
 21
-9
  0
LINE
  8
0
  6
CONTINUOUS
 62
     7
 10
445
 20
-37.5
 11
449.4187927246094
 21
-37.5
  0
LINE
  8
0
  6
CONTINUOUS
 62
     7
 10
445
 20
37.5
 11
450.41064453125
 21
37.5
  0
LINE
  8
0
  6
CONTINUOUS
 62
     7
 10
440
 20
-71.69732666015625
 11
440
 21
-115
  0
LINE
  8
0
  6
CONTINUOUS
 62
     7
 10
445
 20
-67.507568359375
 11
445
 21
-149.9999694824219
  0
LINE
  8
0
  6
CONTINUOUS
 62
     7
 10
445
 20
37.5
 11
445
 21
-37.5
  0
LINE
  8
0
  6
CONTINUOUS
 62
     7
 10
430
 20
9
 11
430
 21
-9
  0
LINE
  8
0
  6
CONTINUOUS
 62
     7
 10
501.4852600097656
 20
-2.202235009463038E-05
 11
493
 21
8.485259056091309
  0
LINE
  8
0
  6
CONTINUOUS
 62
     7
 10
493
 20
8.485260963439941
 11
484.5147399902344
 21
2.316832251381129E-06
  0
LINE
  8
0
  6
CONTINUOUS
 62
     7
 10
492.9999694824219
 20
-8.485258102416992
 11
484.5147399902344
 21
-1.926235199789517E-05
  0
LINE
  8
0
  6
CONTINUOUS
 62
     7
 10
501.4852600097656
 20
1.772648829501122E-06
 11
493
 21
-8.485256195068359
  0
LINE
  8
0
  6
CONTINUOUS
 62
     3
 10
493
 20
15.72772216796875
 11
493
 21
-15.83087158203125
  0
LINE
  8
0
  6
CONTINUOUS
 62
     7
 10
667.5
 20
-72.07395935058594
 11
700.5
 21
-72.07395935058594
  0
LINE
  8
0
  6
CONTINUOUS
 62
     7
 10
667.5
 20
75
 11
700.5
 21
75
  0
LINE
  8
0
  6
CONTINUOUS
 62
     7
 10
667.5
 20
74.99998474121094
 11
664
 21
70.83908843994141
  0
LINE
  8
0
  6
CONTINUOUS
 62
     7
 10
700.5
 20
74.99996185302734
 11
704
 21
70.83906555175781
  0
LINE
  8
0
  6
CONTINUOUS
 62
     7
 10
700.5
 20
-75.00000762939453
 11
704
 21
-70.83911895751953
  0
LINE
  8
0
  6
CONTINUOUS
 62
     7
 10
667.5
 20
-75
 11
700.5
 21
-75
  0
LINE
  8
0
  6
CONTINUOUS
 62
     7
 10
667.5
 20
-74.99998474121094
 11
664
 21
-70.839111328125
  0
LINE
  8
0
  6
CONTINUOUS
 62
     7
 10
667.5
 20
72.07391357421875
 11
700.5
 21
72.07391357421875
  0
LINE
  8
0
  6
CONTINUOUS
 62
     7
 10
667.5
 20
68.98251342773437
 11
700.5
 21
68.98251342773437
  0
LINE
  8
0
  6
CONTINUOUS
 62
     7
 10
667.5
 20
59.98248291015625
 11
700.5
 21
59.98248291015625
  0
LINE
  8
0
  6
CONTINUOUS
 62
     7
 10
667.5
 20
54.0025634765625
 11
700.5
 21
54.0025634765625
  0
LINE
  8
0
  6
CONTINUOUS
 62
     7
 10
667.5
 20
40.91079711914063
 11
700.5
 21
40.91079711914063
  0
LINE
  8
0
  6
CONTINUOUS
 62
     7
 10
667.5
 20
48.15170288085938
 11
700.5
 21
48.15170288085938
  0
LINE
  8
0
  6
CONTINUOUS
 62
     7
 10
667.5
 20
33.98257446289063
 11
700.5
 21
33.98257446289063
  0
LINE
  8
0
  6
CONTINUOUS
 62
     7
 10
667.5
 20
25.72195434570313
 11
700.5
 21
25.72195434570313
  0
LINE
  8
0
  6
CONTINUOUS
 62
     7
 10
667.5
 20
18.07150268554688
 11
695.5584106445312
 21
18.07150268554688
  0
LINE
  8
0
  6
CONTINUOUS
 62
     7
 10
667.5
 20
9.00006103515625
 11
700.5
 21
9.00006103515625
  0
LINE
  8
0
  6
CONTINUOUS
 62
     7
 10
667.5
 20
-68.98260498046875
 11
700.5
 21
-68.98260498046875
  0
LINE
  8
0
  6
CONTINUOUS
 62
     7
 10
569.0090942382812
 20
-121.5299987792969
 11
569.135009765625
 21
-117.5
  0
LINE
  8
0
  6
CONTINUOUS
 62
     7
 10
578.9910278320313
 20
-121.5299987792969
 11
578.8650512695313
 21
-117.5
  0
LINE
  8
0
  6
CONTINUOUS
 62
     3
 10
574
 20
-112.517951965332
 11
574
 21
-132.2556762695312
  0
LINE
  8
0
  6
CONTINUOUS
 62
     7
 10
569.009033203125
 20
-121.5299987792969
 11
578.990966796875
 21
-121.5299987792969
  0
LINE
  8
0
  6
CONTINUOUS
 62
     7
 10
578.5355224609375
 20
-128.5299987792969
 11
578.5355224609375
 21
-121.5299987792969
  0
LINE
  8
0
  6
CONTINUOUS
 62
     3
 10
574
 20
-121.5299682617188
 11
578.5355224609375
 21
-128.5299530029297
  0
LINE
  8
0
  6
CONTINUOUS
 62
     3
 10
574.0000610351563
 20
-128.5300140380859
 11
578.5355834960938
 21
-121.5300064086914
  0
LINE
  8
0
  6
CONTINUOUS
 62
     3
 10
569.4644775390625
 20
-121.5299453735352
 11
574
 21
-128.5299682617187
  0
LINE
  8
0
  6
CONTINUOUS
 62
     3
 10
569.4644775390625
 20
-128.5300140380859
 11
574
 21
-121.5300064086914
  0
LINE
  8
0
  6
CONTINUOUS
 62
     7
 10
569.4644775390625
 20
-128.5299987792969
 11
569.4644775390625
 21
-121.5299987792969
  0
LINE
  8
0
  6
CONTINUOUS
 62
     7
 10
569.4644775390625
 20
-128.5299987792969
 11
578.5355224609375
 21
-128.5299987792969
  0
LINE
  8
0
  6
CONTINUOUS
 62
     7
 10
592
 20
-29.01912498474121
 11
592
 21
-31.71853828430176
  0
LINE
  8
0
  6
CONTINUOUS
 62
     3
 10
584.9986572265625
 20
-34.19300079345703
 11
647.62939453125
 21
-34.19300079345703
  0
LINE
  8
0
  6
CONTINUOUS
 62
     3
 10
604
 20
-15.03795146942139
 11
604
 21
-48.40578460693359
  0
LINE
  8
0
  6
CONTINUOUS
 62
     7
 10
615.9979858398437
 20
-22.19300079345703
 11
627
 21
-22.19300079345703
  0
LINE
  8
0
  6
CONTINUOUS
 62
     7
 10
627
 20
-22.19300079345703
 11
627
 21
-46.19300079345703
  0
LINE
  8
0
  6
CONTINUOUS
 62
     7
 10
615
 20
-46.19300079345703
 11
627
 21
-46.19300079345703
  0
LINE
  8
0
  6
CONTINUOUS
 62
     7
 10
633
 20
-25.68543815612793
 11
627
 21
-25.87293815612793
  0
LINE
  8
0
  6
CONTINUOUS
 62
     7
 10
633
 20
-42.70056533813477
 11
633
 21
-25.6854362487793
  0
LINE
  8
0
  6
CONTINUOUS
 62
     7
 10
633
 20
-42.7005729675293
 11
627
 21
-42.5130729675293
  0
LINE
  8
0
  6
CONTINUOUS
 62
     7
 10
642
 20
-42.46081161499023
 11
642
 21
-25.92519760131836
  0
LINE
  8
0
  6
CONTINUOUS
 62
     7
 10
633
 20
-42.46081161499023
 11
642
 21
-42.46081161499023
  0
LINE
  8
0
  6
CONTINUOUS
 62
     7
 10
633
 20
-25.92519760131836
 11
642
 21
-25.92519760131836
  0
LINE
  8
0
  6
CONTINUOUS
 62
     7
 10
616
 20
-22.19300079345703
 11
616
 21
-4
  0
LINE
  8
0
  6
CONTINUOUS
 62
     7
 10
622
 20
-46.19300079345703
 11
622
 21
-77.5
  0
LINE
  8
0
  6
CONTINUOUS
 62
     7
 10
574
 20
-121.5299987792969
 11
574.0000610351563
 21
-128.5299835205078
  0
LINE
  8
0
  6
CONTINUOUS
 62
     7
 10
633
 20
-34.19300079345703
 11
642
 21
-34.19300079345703
  0
LINE
  8
0
  6
CONTINUOUS
 62
     3
 10
642
 20
-34.1930046081543
 11
633
 21
-42.46081924438477
  0
LINE
  8
0
  6
CONTINUOUS
 62
     3
 10
642
 20
-42.46079635620117
 11
633
 21
-34.1929817199707
  0
LINE
  8
0
  6
CONTINUOUS
 62
     3
 10
642
 20
-25.92519760131836
 11
633
 21
-34.19300842285156
  0
LINE
  8
0
  6
CONTINUOUS
 62
     3
 10
642
 20
-34.1929931640625
 11
633
 21
-25.92518615722656
  0
LINE
  8
0
  6
CONTINUOUS
 62
     7
 10
-143.5397796630859
 20
-518.5469360351563
 11
-144.3406982421875
 21
-520.2871704101562
  0
LINE
  8
0
  6
CONTINUOUS
 62
     7
 10
-142.7716369628906
 20
-524.531982421875
 11
-141.1365051269531
 21
-525.2845458984375
  0
LINE
  8
0
  6
CONTINUOUS
 62
     7
 10
-141.136474609375
 20
-525.2846069335937
 11
-141.2400970458984
 21
-525.509765625
  0
LINE
  8
0
  6
CONTINUOUS
 62
     3
 10
-116.0731201171875
 20
-510.588623046875
 11
-116.0731201171875
 21
-519.384521484375
  0
LINE
  8
0
  6
CONTINUOUS
 62
     7
 10
704
 20
0
 11
704
 21
-72.49997711181641
  0
LINE
  8
0
  6
CONTINUOUS
 62
     7
 10
719
 20
-480
 11
759
 21
-480
  0
LINE
  8
0
  6
CONTINUOUS
 62
     7
 10
719
 20
-470
 11
759
 21
-470
  0
LINE
  8
0
  6
CONTINUOUS
 62
     7
 10
719
 20
-419
 11
759
 21
-419
  0
LINE
  8
0
  6
CONTINUOUS
 62
     7
 10
719
 20
-531
 11
759
 21
-531
  0
LINE
  8
0
  6
CONTINUOUS
 62
     7
 10
724
 20
-516
 11
754
 21
-516
  0
LINE
  8
0
  6
CONTINUOUS
 62
     7
 10
724
 20
-434
 11
754
 21
-434
  0
LINE
  8
0
  6
CONTINUOUS
 62
     7
 10
704
 20
-402.5
 11
719
 21
-402.5
  0
LINE
  8
0
  6
CONTINUOUS
 62
     7
 10
704
 20
-547.5
 11
719
 21
-547.5
  0
LINE
  8
0
  6
CONTINUOUS
 62
     7
 10
719
 20
-402.5
 11
719
 21
-547.5
  0
LINE
  8
0
  6
CONTINUOUS
 62
     7
 10
759
 20
-375
 11
759
 21
-575
  0
LINE
  8
0
  6
CONTINUOUS
 62
     7
 10
759
 20
-375
 11
774
 21
-375
  0
LINE
  8
0
  6
CONTINUOUS
 62
     7
 10
759
 20
-575
 11
774
 21
-575
  0
LINE
  8
0
  6
CONTINUOUS
 62
     7
 10
774
 20
-375
 11
774
 21
-575
  0
LINE
  8
0
  6
CONTINUOUS
 62
     7
 10
704
 20
-402.5
 11
704
 21
-547.5
  0
LINE
  8
0
  6
CONTINUOUS
 62
     7
 10
712
 20
-402.0897827148438
 11
712.4102172851562
 21
-402.4999694824219
  0
LINE
  8
0
  6
CONTINUOUS
 62
     7
 10
710.0001220703125
 20
-402.0896911621094
 11
710.4103393554688
 21
-402.4998779296875
  0
LINE
  8
0
  6
CONTINUOUS
 62
     7
 10
712
 20
-405.2459716796875
 11
712
 21
-366.255859375
  0
LINE
  8
0
  6
CONTINUOUS
 62
     7
 10
692.579345703125
 20
-385.08984375
 11
730.9560546875
 21
-385.08984375
  0
LINE
  8
0
  6
CONTINUOUS
 62
     7
 10
703.9998168945312
 20
-402.0899963378906
 11
704.5900268554688
 21
-398.7427062988281
  0
LINE
  8
0
  6
CONTINUOUS
 62
     7
 10
706.559814453125
 20
-397.08984375
 11
717.440185546875
 21
-397.08984375
  0
LINE
  8
0
  6
CONTINUOUS
 62
     7
 10
705.86962890625
 20
-397.2127380371094
 11
711.65966796875
 21
-395.0841064453125
  0
LINE
  8
0
  6
CONTINUOUS
 62
     7
 10
712.3401489257813
 20
-395.0840454101563
 11
718.1302490234375
 21
-397.2126770019531
  0
LINE
  8
0
  6
CONTINUOUS
 62
     7
 10
703.998779296875
 20
-402.08984375
 11
720
 21
-402.08984375
  0
LINE
  8
0
  6
CONTINUOUS
 62
     7
 10
704.300048828125
 20
-402.08984375
 11
704.300048828125
 21
-402.5
  0
LINE
  8
0
  6
CONTINUOUS
 62
     7
 10
719.699951171875
 20
-402.08984375
 11
719.699951171875
 21
-404.08984375
  0
LINE
  8
0
  6
CONTINUOUS
 62
     7
 10
719
 20
-404.08984375
 11
719.699951171875
 21
-404.08984375
  0
LINE
  8
0
  6
CONTINUOUS
 62
     7
 10
719.4097900390625
 20
-398.7425231933594
 11
720
 21
-402.0898132324219
  0
LINE
  8
0
  6
CONTINUOUS
 62
     7
 10
719
 20
5
 11
759
 21
5
  0
LINE
  8
0
  6
CONTINUOUS
 62
     7
 10
719
 20
-5
 11
759
 21
-5
  0
LINE
  8
0
  6
CONTINUOUS
 62
     7
 10
719
 20
56
 11
759
 21
56
  0
LINE
  8
0
  6
CONTINUOUS
 62
     7
 10
719
 20
-56
 11
759
 21
-56
  0
LINE
  8
0
  6
CONTINUOUS
 62
     7
 10
724
 20
-41
 11
754
 21
-41
  0
LINE
  8
0
  6
CONTINUOUS
 62
     7
 10
724
 20
41
 11
754
 21
41
  0
LINE
  8
0
  6
CONTINUOUS
 62
     7
 10
759
 20
100
 11
759
 21
-100
  0
LINE
  8
0
  6
CONTINUOUS
 62
     7
 10
759
 20
-100
 11
774
 21
-100
  0
LINE
  8
0
  6
CONTINUOUS
 62
     7
 10
774
 20
100
 11
774
 21
-100
  0
LINE
  8
0
  6
CONTINUOUS
 62
     7
 10
704
 20
20.85107421875
 11
704
 21
72.5
  0
LINE
  8
0
  6
CONTINUOUS
 62
     7
 10
759
 20
100
 11
774
 21
100
  0
LINE
  8
0
  6
CONTINUOUS
 62
     7
 10
712
 20
24.0146484375
 11
712
 21
-4.065185546875
  0
LINE
  8
0
  6
CONTINUOUS
 62
     7
 10
719
 20
20.971923828125
 11
719
 21
72.5
  0
LINE
  8
0
  6
CONTINUOUS
 62
     7
 10
704
 20
72.5
 11
719
 21
72.5
  0
LINE
  8
0
  6
CONTINUOUS
 62
     7
 10
704
 20
-72.5
 11
719
 21
-72.5
  0
LINE
  8
0
  6
CONTINUOUS
 62
     7
 10
719
 20
-72.5
 11
719
 21
9.170654296875
  0
LINE
  8
0
  6
CONTINUOUS
 62
     7
 10
704
 20
-72.5
 11
704
 21
11.02218151092529
  0
ARC
  8
0
  6
CONTINUOUS
 62
     7
 10
617
 20
-552.5
 40
5.000000000000019
 50
270.0000179860897
 51
0
  0
ARC
  8
0
  6
CONTINUOUS
 62
     7
 10
612
 20
-562.5
 40
5.000000000000019
 50
89.99998201391031
 51
179.9999640278219
  0
ARC
  8
0
  6
CONTINUOUS
 62
     7
 10
612
 20
-387.5
 40
5.000000000000038
 50
179.9999776881996
 51
269.9999733624889
  0
ARC
  8
0
  6
CONTINUOUS
 62
     7
 10
617
 20
-397.5
 40
5
 50
359.9999453584866
 51
89.99992737239695
  0
ARC
  8
0
  6
CONTINUOUS
 62
     7
 10
618
 20
-390.5
 40
2.000000000000038
 50
179.9999776882003
 51
270.0000280040029
  0
ARC
  8
0
  6
CONTINUOUS
 62
     7
 10
618
 20
-559.5
 40
1.999999999999985
 50
89.99998201391097
 51
179.9999640278219
  0
ARC
  8
0
  6
CONTINUOUS
 62
     7
 10
472
 20
-355
 40
4.999999999999981
 50
179.9999776881996
 51
270.0000280040023
  0
ARC
  8
0
  6
CONTINUOUS
 62
     7
 10
472
 20
-404.1546020507812
 40
5
 50
179.999991348578
 51
247.6128808859912
  0
ARC
  8
0
  6
CONTINUOUS
 62
     7
 10
514
 20
-531.9927978515625
 40
5
 50
0
 51
90.00000250447782
  0
ARC
  8
0
  6
CONTINUOUS
 62
     7
 10
514
 20
-418.0072326660156
 40
5.000000000000004
 50
269.9999974955222
 51
0
  0
ARC
  8
0
  6
CONTINUOUS
 62
     7
 10
472
 20
-545.8453979492188
 40
4.999999999999956
 50
112.3871086413541
 51
180.0000050089569
  0
CIRCLE
  8
0
  6
CONTINUOUS
 62
     3
 10
574
 20
-475
 40
4.990937232971191
  0
ARC
  8
0
  6
CONTINUOUS
 62
     7
 10
604
 20
-336.5
 40
20.50000000000002
 50
299.1059880396958
 51
353.2767831183339
  0
ARC
  8
0
  6
CONTINUOUS
 62
     7
 10
621
 20
-343.8999938964844
 40
5.000000000000004
 50
90.00000250447782
 51
180.0000050089563
  0
ARC
  8
0
  6
CONTINUOUS
 62
     7
 10
615
 20
-337.8999938964844
 40
23.00000000000002
 50
90.00000250447805
 51
180.0000050089564
  0
ARC
  8
0
  6
CONTINUOUS
 62
     7
 10
604
 20
-336.5
 40
20.49999999999999
 50
80.95569823197921
 51
239.6281165386795
  0
CIRCLE
  8
0
  6
CONTINUOUS
 62
     7
 10
0
 20
-475
 40
150
  0
ARC
  8
0
  6
CONTINUOUS
 62
     7
 10
0
 20
-475
 40
32.49999999999998
 50
106.0766695464224
 51
73.92333865025743
  0
ARC
  8
0
  6
CONTINUOUS
 62
     3
 10
0
 20
-475
 40
132.5
 50
333.1091217659313
 51
342.2186338544365
  0
CIRCLE
  8
0
  6
CONTINUOUS
 62
     7
 10
122.4140625
 20
-525.70556640625
 40
7.5
  0
CIRCLE
  8
0
  6
CONTINUOUS
 62
     7
 10
122.4140625
 20
-424.2944641113281
 40
7.5
  0
ARC
  8
0
  6
CONTINUOUS
 62
     3
 10
0
 20
-475
 40
132.5
 50
18.10912301817034
 51
27.21863510667556
  0
CIRCLE
  8
0
  6
CONTINUOUS
 62
     7
 10
50.70556640625
 20
-352.5859680175781
 40
7.5
  0
ARC
  8
0
  6
CONTINUOUS
 62
     3
 10
0
 20
-475
 40
132.5
 50
63.10911744022025
 51
72.21863635891464
  0
CIRCLE
  8
0
  6
CONTINUOUS
 62
     7
 10
-50.70556640625
 20
-352.5859680175781
 40
7.5
  0
ARC
  8
0
  6
CONTINUOUS
 62
     3
 10
0
 20
-475
 40
132.5
 50
108.1091152773648
 51
117.2186410262483
  0
CIRCLE
  8
0
  6
CONTINUOUS
 62
     7
 10
-122.4140625
 20
-424.2944641113281
 40
7.5
  0
ARC
  8
0
  6
CONTINUOUS
 62
     3
 10
0
 20
-475
 40
132.5
 50
153.1091131145093
 51
162.2186320332036
  0
CIRCLE
  8
0
  6
CONTINUOUS
 62
     7
 10
-122.4140625
 20
-525.70556640625
 40
7.5
  0
ARC
  8
0
  6
CONTINUOUS
 62
     3
 10
0
 20
-475
 40
132.5
 50
198.1091350846869
 51
207.218640343003
  0
CIRCLE
  8
0
  6
CONTINUOUS
 62
     7
 10
-50.70556640625
 20
-597.4140625
 40
7.5
  0
ARC
  8
0
  6
CONTINUOUS
 62
     3
 10
0
 20
-475
 40
132.5
 50
243.1091260916423
 51
252.2186381801475
  0
CIRCLE
  8
0
  6
CONTINUOUS
 62
     7
 10
50.70556640625
 20
-597.4140625
 40
7.5
  0
ARC
  8
0
  6
CONTINUOUS
 62
     3
 10
0
 20
-475
 40
132.5
 50
288.1091239287867
 51
297.218636017292
  0
CIRCLE
  8
0
  6
CONTINUOUS
 62
     7
 10
0
 20
-475
 40
55
  0
CIRCLE
  8
0
  6
CONTINUOUS
 62
     7
 10
0
 20
-475
 40
87.5
  0
ARC
  8
0
  6
CONTINUOUS
 62
     3
 10
0
 20
-475
 40
75
 50
323.8767994610546
 51
336.1231988692933
  0
ARC
  8
0
  6
CONTINUOUS
 62
     3
 10
0
 20
-475
 40
74.99999999999999
 50
23.87680113070673
 51
36.12320053894538
  0
ARC
  8
0
  6
CONTINUOUS
 62
     3
 10
0
 20
-475
 40
75
 50
83.87679938526426
 51
96.12319879350289
  0
ARC
  8
0
  6
CONTINUOUS
 62
     3
 10
0
 20
-475
 40
74.99999999999999
 50
143.8768010549164
 51
156.1231936329658
  0
ARC
  8
0
  6
CONTINUOUS
 62
     3
 10
0
 20
-475
 40
74.99999999999999
 50
203.8768063670341
 51
216.1231989450836
  0
ARC
  8
0
  6
CONTINUOUS
 62
     3
 10
0
 20
-475
 40
75.00000000000006
 50
263.8768012064971
 51
276.1232006147357
  0
ARC
  8
0
  6
CONTINUOUS
 62
     7
 10
0
 20
-475
 40
107.5
 50
19.35118096590611
 51
0.6488233475505203
  0
ARC
  8
0
  6
CONTINUOUS
 62
     7
 10
0
 20
-475
 40
115
 50
17.4935163607298
 51
2.506470877253908
  0
CIRCLE
  8
0
  6
CONTINUOUS
 62
     7
 10
103.40478515625
 20
-456.7669372558594
 40
17.5
  0
ARC
  8
0
  6
CONTINUOUS
 62
     7
 10
34.19256210327148
 20
-326.895751953125
 40
12
 50
347.0000002074245
 51
166.9999966786442
  0
ARC
  8
0
  6
CONTINUOUS
 62
     7
 10
617
 20
77.49996948242187
 40
5
 50
0
 51
89.99998201391031
  0
ARC
  8
0
  6
CONTINUOUS
 62
     7
 10
617
 20
-77.5
 40
5.000000000000004
 50
270.0000179860897
 51
0
  0
ARC
  8
0
  6
CONTINUOUS
 62
     7
 10
612
 20
-87.5
 40
5.000000000000004
 50
89.99998201391031
 51
179.9999640278213
  0
ARC
  8
0
  6
CONTINUOUS
 62
     7
 10
612
 20
87.49996948242188
 40
5.000000000000038
 50
179.9999776881996
 51
270.0000280040023
  0
ARC
  8
0
  6
CONTINUOUS
 62
     7
 10
604
 20
0
 40
9.999999999999986
 50
23.57817672245736
 51
156.4218368242355
  0
ARC
  8
0
  6
CONTINUOUS
 62
     7
 10
587.5
 20
0
 40
4
 50
89.99998201391097
 51
270.0000006832446
  0
ARC
  8
0
  6
CONTINUOUS
 62
     7
 10
620.5
 20
0
 40
4
 50
270.0000179860891
 51
89.99998201391097
  0
ARC
  8
0
  6
CONTINUOUS
 62
     7
 10
604
 20
0
 40
10.00000000000001
 50
203.5781631757645
 51
336.4218232775426
  0
ARC
  8
0
  6
CONTINUOUS
 62
     7
 10
472
 20
70.84539794921875
 40
5
 50
179.999991348578
 51
247.6128808859913
  0
ARC
  8
0
  6
CONTINUOUS
 62
     7
 10
472
 20
-70.84539794921875
 40
4.999999999999996
 50
112.3871086413539
 51
180.0000050089563
  0
ARC
  8
0
  6
CONTINUOUS
 62
     7
 10
514
 20
56.9927978515625
 40
4.999999999999997
 50
269.9999974955222
 51
0
  0
ARC
  8
0
  6
CONTINUOUS
 62
     7
 10
514
 20
-56.9927978515625
 40
5
 50
0
 51
90.00000250447782
  0
ARC
  8
0
  6
CONTINUOUS
 62
     7
 10
431
 20
0
 40
9
 50
270.0000179860894
 51
89.99998201391061
  0
CIRCLE
  8
0
  6
CONTINUOUS
 62
     7
 10
493
 20
0
 40
13.5
  0
ARC
  8
0
  6
CONTINUOUS
 62
     7
 10
615.9979858398437
 20
-17.1929931640625
 40
4.999999999999965
 50
225.6327620434661
 51
269.9999974955222
  0
ARC
  8
0
  6
CONTINUOUS
 62
     7
 10
-141.4337158203125
 20
-521.625
 40
3.200000047683717
 50
155.2866320634226
 51
245.2866277377119
  0
ARC
  8
0
  6
CONTINUOUS
 62
     7
 10
-141.4337158203125
 20
-521.625
 40
3.200000047683717
 50
155.2866320634226
 51
245.2866277377119
  0
ARC
  8
0
  6
CONTINUOUS
 62
     7
 10
724
 20
-429
 40
4.999999999999943
 50
179.999991348578
 51
270.0000006832456
  0
ARC
  8
0
  6
CONTINUOUS
 62
     7
 10
754
 20
-429
 40
5.000000000000004
 50
269.9999974955222
 51
0
  0
ARC
  8
0
  6
CONTINUOUS
 62
     7
 10
724
 20
-521
 40
5.000000000000004
 50
90.00000250447782
 51
180.0000050089569
  0
ARC
  8
0
  6
CONTINUOUS
 62
     7
 10
754
 20
-521
 40
5
 50
0
 51
90.00000250447782
  0
ARC
  8
0
  6
CONTINUOUS
 62
     7
 10
723.956787109375
 20
-401.494873046875
 40
3.999999999999989
 50
126.0864395502154
 51
188.5540383028321
  0
ARC
  8
0
  6
CONTINUOUS
 62
     7
 10
712
 20
-385.08984375
 40
16.29999923706053
 50
306.0864140506921
 51
233.9135431469402
  0
CIRCLE
  8
0
  6
CONTINUOUS
 62
     7
 10
712
 20
-385.08984375
 40
10
  0
ARC
  8
0
  6
CONTINUOUS
 62
     7
 10
706.559814453125
 20
-399.08984375
 40
1.999999999999985
 50
89.99998201391097
 51
170.0000206677889
  0
ARC
  8
0
  6
CONTINUOUS
 62
     7
 10
717.440185546875
 20
-399.08984375
 40
1.999999999999974
 50
10.00000397796106
 51
89.99998201391097
  0
ARC
  8
0
  6
CONTINUOUS
 62
     7
 10
700.043212890625
 20
-401.494873046875
 40
4.000000000000021
 50
351.4459282863106
 51
53.91357911911838
  0
ARC
  8
0
  6
CONTINUOUS
 62
     7
 10
724
 20
46
 40
4.999999999999943
 50
179.999991348578
 51
270.0000006832456
  0
ARC
  8
0
  6
CONTINUOUS
 62
     7
 10
754
 20
46
 40
4.999999999999997
 50
269.9999974955222
 51
0
  0
ARC
  8
0
  6
CONTINUOUS
 62
     7
 10
724
 20
-46
 40
4.999999999999997
 50
90.00000250447782
 51
180.0000050089563
  0
ARC
  8
0
  6
CONTINUOUS
 62
     7
 10
754
 20
-46
 40
5
 50
0
 51
90.00000250447782
  0
POLYLINE
  8
0
  6
CONTINUOUS
 62
     7
 66
     1
 10
0
 20
0
  0
VERTEX
  8
0
  6
CONTINUOUS
 62
     7
 10
440.0004540503202
 20
-377.4781153295513
 42
-0.1753072597614682
  0
VERTEX
  8
0
  6
CONTINUOUS
 62
     7
 10
449.3538545564459
 20
-390.9189611020801
 42
-0.07487187039956648
  0
VERTEX
  8
0
  6
CONTINUOUS
 62
     7
 10
450.7736179171317
 20
-407.4921772099416
 42
-0.009977965626693862
  0
VERTEX
  8
0
  6
CONTINUOUS
 62
     7
 10
449.7578028558339
 20
-424.1587856927771
 42
0.006321303141573363
  0
VERTEX
  8
0
  6
CONTINUOUS
 62
     7
 10
448.6107851232615
 20
-440.8186717531027
 42
0.02428265730407071
  0
VERTEX
  8
0
  6
CONTINUOUS
 62
     7
 10
448.4855571206931
 20
-457.5100135725576
 42
0.02735404327713626
  0
VERTEX
  8
0
  6
CONTINUOUS
 62
     7
 10
450.293795218589
 20
-474.1018939112015
 42
-0.0245877519087531
  0
VERTEX
  8
0
  6
CONTINUOUS
 62
     7
 10
452.2208575297734
 20
-490.6824636379858
 42
-0.08166869850714024
  0
VERTEX
  8
0
  6
CONTINUOUS
 62
     7
 10
450.605481422848
 20
-507.2299418811816
 42
0.06572731692591799
  0
VERTEX
  8
0
  6
CONTINUOUS
 62
     7
 10
447.3678437625235
 20
-523.5579278021654
 42
-0.03410781111027485
  0
VERTEX
  8
0
  6
CONTINUOUS
 62
     7
 10
446.9893798998335
 20
-540.2302200888007
 42
-0.1191277430040598
  0
VERTEX
  8
0
  6
CONTINUOUS
 62
     7
 10
439.9994094412949
 20
-555.2209099269181
 42
0
  0
SEQEND
  8
0
  0
POLYLINE
  8
0
  6
CONTINUOUS
 62
     7
 66
     1
 10
0
 20
0
  0
VERTEX
  8
0
  6
CONTINUOUS
 62
     7
 10
592
 20
-349.3105163574219
 42
0.248081581815508
  0
VERTEX
  8
0
  6
CONTINUOUS
 62
     7
 10
593.0447739408999
 20
-350.4121551471658
 42
0.04461254015514813
  0
VERTEX
  8
0
  6
CONTINUOUS
 62
     7
 10
594.5322138709535
 20
-350.9690747306155
 42
0.02126250341457135
  0
VERTEX
  8
0
  6
CONTINUOUS
 62
     7
 10
596.0788194932583
 20
-351.3382527909649
 42
0.01385512460622473
  0
VERTEX
  8
0
  6
CONTINUOUS
 62
     7
 10
597.6478532938484
 20
-351.6007073914086
 42
0.01053210998062033
  0
VERTEX
  8
0
  6
CONTINUOUS
 62
     7
 10
599.2278922917641
 20
-351.7872888246509
 42
0.008816671457669954
  0
VERTEX
  8
0
  6
CONTINUOUS
 62
     7
 10
600.8143839044985
 20
-351.9130632204511
 42
0.007912324608271222
  0
VERTEX
  8
0
  6
CONTINUOUS
 62
     7
 10
602.4043504317752
 20
-351.9859475257587
 42
0.007515146179456391
  0
VERTEX
  8
0
  6
CONTINUOUS
 62
     7
 10
603.9958281568988
 20
-352.0099180497626
 42
0.007513445473536046
  0
VERTEX
  8
0
  6
CONTINUOUS
 62
     7
 10
605.5871623676031
 20
-351.986202973151
 42
0.007906861837116847
  0
VERTEX
  8
0
  6
CONTINUOUS
 62
     7
 10
607.1767221943974
 20
-351.9136132746843
 42
0.008810116307684138
  0
VERTEX
  8
0
  6
CONTINUOUS
 62
     7
 10
608.7632986209139
 20
-351.7881467511941
 42
0.01052390138002986
  0
VERTEX
  8
0
  6
CONTINUOUS
 62
     7
 10
610.3440241529108
 20
-351.6018464010094
 42
0.01384400423203847
  0
VERTEX
  8
0
  6
CONTINUOUS
 62
     7
 10
611.914398170112
 20
-351.3395924695274
 42
0.0212463885637255
  0
VERTEX
  8
0
  6
CONTINUOUS
 62
     7
 10
613.4630219078986
 20
-350.9704500171963
 42
0.04455011562122681
  0
VERTEX
  8
0
  6
CONTINUOUS
 62
     7
 10
614.9523861483997
 20
-350.4135831300371
 42
0.2479909471623206
  0
VERTEX
  8
0
  6
CONTINUOUS
 62
     7
 10
616
 20
-349.3105163574219
 42
0
  0
SEQEND
  8
0
  0
POLYLINE
  8
0
  6
CONTINUOUS
 62
     7
 66
     1
 10
0
 20
0
  0
VERTEX
  8
0
  6
CONTINUOUS
 62
     7
 10
595.5
 20
-363.2413330078125
 42
0.2478632552116341
  0
VERTEX
  8
0
  6
CONTINUOUS
 62
     7
 10
596.248085776696
 20
-364.0092242097321
 42
0.04354537782655255
  0
VERTEX
  8
0
  6
CONTINUOUS
 62
     7
 10
597.3024632012268
 20
-364.3939701374021
 42
0.02075794984313904
  0
VERTEX
  8
0
  6
CONTINUOUS
 62
     7
 10
598.3972727475555
 20
-364.649064227886
 42
0.01353047399401965
  0
VERTEX
  8
0
  6
CONTINUOUS
 62
     7
 10
599.5072275572803
 20
-364.8304172728683
 42
0.01028825683531745
  0
VERTEX
  8
0
  6
CONTINUOUS
 62
     7
 10
600.6246121535164
 20
-364.959355296048
 42
0.008614206889687484
  0
VERTEX
  8
0
  6
CONTINUOUS
 62
     7
 10
601.7463654945263
 20
-365.0462864398266
 42
0.007731442429245251
  0
VERTEX
  8
0
  6
CONTINUOUS
 62
     7
 10
602.870470201367
 20
-365.0966793162795
 42
0.007343632302748798
  0
VERTEX
  8
0
  6
CONTINUOUS
 62
     7
 10
603.9956150429095
 20
-365.1132810009052
 42
0.007341380211315457
  0
VERTEX
  8
0
  6
CONTINUOUS
 62
     7
 10
605.1206415419116
 20
-365.0969407148604
 42
0.007724531199839143
  0
VERTEX
  8
0
  6
CONTINUOUS
 62
     7
 10
606.2444583918226
 20
-365.0468409121901
 42
0.008612328414172161
  0
VERTEX
  8
0
  6
CONTINUOUS
 62
     7
 10
607.3671816805288
 20
-364.9601361365537
 42
0.01027626486006111
  0
VERTEX
  8
0
  6
CONTINUOUS
 62
     7
 10
608.4850589754298
 20
-364.8314737313392
 42
0.01351160910530349
  0
VERTEX
  8
0
  6
CONTINUOUS
 62
     7
 10
609.5959772628006
 20
-364.6503658092447
 42
0.02072243687516013
  0
VERTEX
  8
0
  6
CONTINUOUS
 62
     7
 10
610.6922498505498
 20
-364.3954585541627
 42
0.04343657313885379
  0
VERTEX
  8
0
  6
CONTINUOUS
 62
     7
 10
611.7486150757054
 20
-364.0108374842576
 42
0.2478609004117311
  0
VERTEX
  8
0
  6
CONTINUOUS
 62
     7
 10
612.5
 20
-363.2413330078125
 42
0
  0
SEQEND
  8
0
  0
POLYLINE
  8
0
  6
CONTINUOUS
 62
     7
 66
     1
 10
0
 20
0
  0
VERTEX
  8
0
  6
CONTINUOUS
 62
     7
 10
440.000104794816
 20
74.63409754682024
 42
-0.04592299410830997
  0
VERTEX
  8
0
  6
CONTINUOUS
 62
     7
 10
446.5300618671724
 20
59.13235218086452
 42
-0.04744122615089172
  0
VERTEX
  8
0
  6
CONTINUOUS
 62
     7
 10
449.931953638551
 20
42.66128151384837
 42
-0.02920960640588358
  0
VERTEX
  8
0
  6
CONTINUOUS
 62
     7
 10
450.7813198232539
 20
25.84789205000698
 42
-0.01262769604238
  0
VERTEX
  8
0
  6
CONTINUOUS
 62
     7
 10
450.2338355003682
 20
9.01394995260444
 42
0.001318480003096598
  0
VERTEX
  8
0
  6
CONTINUOUS
 62
     7
 10
449.3069455064159
 20
-7.805312976159762
 42
0.01585887023864238
  0
VERTEX
  8
0
  6
CONTINUOUS
 62
     7
 10
448.9537152058117
 20
-24.6432378379936
 42
0.005745509047635718
  0
VERTEX
  8
0
  6
CONTINUOUS
 62
     7
 10
449.5866344633367
 20
-41.47531565138327
 42
-0.04443778082386027
  0
VERTEX
  8
0
  6
CONTINUOUS
 62
     7
 10
449.2611890960507
 20
-58.28861819833459
 42
-0.2293747543283158
  0
VERTEX
  8
0
  6
CONTINUOUS
 62
     7
 10
439.99859292398
 20
-71.69774480316303
 42
0
  0
SEQEND
  8
0
  0
POLYLINE
  8
0
  6
CONTINUOUS
 62
     7
 66
     1
 10
0
 20
0
  0
VERTEX
  8
0
  6
CONTINUOUS
 62
     7
 10
592
 20
-31.71853828430176
 42
0.05059491804565653
  0
VERTEX
  8
0
  6
CONTINUOUS
 62
     7
 10
592.1884986650218
 20
-33.56787502799612
 42
0.04716348060100473
  0
VERTEX
  8
0
  6
CONTINUOUS
 62
     7
 10
592.7339920471408
 20
-35.34602953738992
 42
0.04170062768883802
  0
VERTEX
  8
0
  6
CONTINUOUS
 62
     7
 10
593.585551384153
 20
-36.99966877999796
 42
0.03588152117352139
  0
VERTEX
  8
0
  6
CONTINUOUS
 62
     7
 10
594.6825572159941
 20
-38.50245495429014
 42
0.03066398704874478
  0
VERTEX
  8
0
  6
CONTINUOUS
 62
     7
 10
595.9694646079987
 20
-39.84727452742634
 42
0.02635005710650333
  0
VERTEX
  8
0
  6
CONTINUOUS
 62
     7
 10
597.4008290281437
 20
-41.03741148341581
 42
0.02293336125982269
  0
VERTEX
  8
0
  6
CONTINUOUS
 62
     7
 10
598.9425717768778
 20
-42.0815649798125
 42
0.0202682188355918
  0
VERTEX
  8
0
  6
CONTINUOUS
 62
     7
 10
600.5691225385541
 20
-42.98941728767588
 42
0.01819160847443726
  0
VERTEX
  8
0
  6
CONTINUOUS
 62
     7
 10
602.260216887728
 20
-43.76969778534058
 42
0.0165947795422545
  0
VERTEX
  8
0
  6
CONTINUOUS
 62
     7
 10
604.0019691703764
 20
-44.43094395153871
 42
0.01536230671644127
  0
VERTEX
  8
0
  6
CONTINUOUS
 62
     7
 10
605.7823600005315
 20
-44.97975174075737
 42
0.01442614238287006
  0
VERTEX
  8
0
  6
CONTINUOUS
 62
     7
 10
607.5923226127653
 20
-45.42172702329901
 42
0.0137315782995182
  0
VERTEX
  8
0
  6
CONTINUOUS
 62
     7
 10
609.4243874284953
 20
-45.76125527333419
 42
0.01323990660456937
  0
VERTEX
  8
0
  6
CONTINUOUS
 62
     7
 10
611.2721711596353
 20
-46.00161511430872
 42
0.01292485919280855
  0
VERTEX
  8
0
  6
CONTINUOUS
 62
     7
 10
613.1300043523247
 20
-46.14508071948389
 42
0.0127704665830092
  0
VERTEX
  8
0
  6
CONTINUOUS
 62
     7
 10
614.9926973588367
 20
-46.19300006387064
 42
0
  0
SEQEND
  8
0
  0
POLYLINE
  8
0
  6
CONTINUOUS
 62
     7
 66
     1
 10
0
 20
0
  0
VERTEX
  8
0
  6
CONTINUOUS
 62
     7
 10
612.5019989453006
 20
-20.76764258091871
 42
0.03674702795451849
  0
VERTEX
  8
0
  6
CONTINUOUS
 62
     7
 10
611.1649333270993
 20
-19.63964425015092
 42
0.03635561614823001
  0
VERTEX
  8
0
  6
CONTINUOUS
 62
     7
 10
609.6776214385787
 20
-18.7182037072358
 42
0.03602153408045245
  0
VERTEX
  8
0
  6
CONTINUOUS
 62
     7
 10
608.072779330156
 20
-18.02071587591295
 42
0.03576746137080639
  0
VERTEX
  8
0
  6
CONTINUOUS
 62
     7
 10
606.3846184140033
 20
-17.55987114237666
 42
0.03560862896497337
  0
VERTEX
  8
0
  6
CONTINUOUS
 62
     7
 10
604.6483123564419
 20
-17.34376143832108
 42
0.03555213439227278
  0
VERTEX
  8
0
  6
CONTINUOUS
 62
     7
 10
602.8995938478058
 20
-17.37594950785639
 42
0.03561922393191932
  0
VERTEX
  8
0
  6
CONTINUOUS
 62
     7
 10
601.1733335211638
 20
-17.65569982062436
 42
0.03581097405834167
  0
VERTEX
  8
0
  6
CONTINUOUS
 62
     7
 10
599.5039631798609
 20
-18.17838167847321
 42
0.03608618917564263
  0
VERTEX
  8
0
  6
CONTINUOUS
 62
     7
 10
597.9268209295735
 20
-18.93467806934056
 42
0.03644317208884772
  0
VERTEX
  8
0
  6
CONTINUOUS
 62
     7
 10
596.4754749175041
 20
-19.91090085209937
 42
0.03685493945738864
  0
VERTEX
  8
0
  6
CONTINUOUS
 62
     7
 10
595.1820597856583
 20
-21.08869102982046
 42
0.03728605978607549
  0
VERTEX
  8
0
  6
CONTINUOUS
 62
     7
 10
594.0765837151671
 20
-22.44477613840527
 42
0.03769688599420863
  0
VERTEX
  8
0
  6
CONTINUOUS
 62
     7
 10
593.1859139161265
 20
-23.95094499824237
 42
0.03804676710956057
  0
VERTEX
  8
0
  6
CONTINUOUS
 62
     7
 10
592.5326187776599
 20
-25.57432142161662
 42
0.038298390088541
  0
VERTEX
  8
0
  6
CONTINUOUS
 62
     7
 10
592.1337891071573
 20
-27.27801571561323
 42
0.03841513735345704
  0
VERTEX
  8
0
  6
CONTINUOUS
 62
     7
 10
592.0000003223651
 20
-29.02183519809993
 42
0
  0
SEQEND
  8
0
  0
POLYLINE
  8
0
  6
CONTINUOUS
 62
     7
 66
     1
 10
0
 20
0
  0
VERTEX
  8
0
  6
CONTINUOUS
 62
     7
 10
723.538330078125
 20
11.7392578125
 42
0.01902146622957329
  0
VERTEX
  8
0
  6
CONTINUOUS
 62
     7
 10
724.2802288291693
 20
11.94346819896747
 42
0.01048036661696227
  0
VERTEX
  8
0
  6
CONTINUOUS
 62
     7
 10
725.0088926578992
 20
12.1911952580453
 42
0.005839354613800508
  0
VERTEX
  8
0
  6
CONTINUOUS
 62
     7
 10
725.7304985850511
 20
12.45983964136556
 42
0.02971924920642614
  0
VERTEX
  8
0
  6
CONTINUOUS
 62
     7
 10
726.4313304198004
 20
12.77700076415314
 42
0.05877631418420468
  0
VERTEX
  8
0
  6
CONTINUOUS
 62
     7
 10
727.0644418416917
 20
13.21137135418768
 42
0.05384139659327895
  0
VERTEX
  8
0
  6
CONTINUOUS
 62
     7
 10
727.5759094573222
 20
13.78454287119097
 42
0.04812138103693372
  0
VERTEX
  8
0
  6
CONTINUOUS
 62
     7
 10
727.9688270083717
 20
14.44586769373637
 42
0.05488166665009142
  0
VERTEX
  8
0
  6
CONTINUOUS
 62
     7
 10
728.2143137132521
 20
15.17353730549175
 42
0.05415929437784951
  0
VERTEX
  8
0
  6
CONTINUOUS
 62
     7
 10
728.297607421875
 20
15.936767578125
 42
0.05421304940333662
  0
VERTEX
  8
0
  6
CONTINUOUS
 62
     7
 10
728.2141830077906
 20
16.70034767591385
 42
0.05489568489035506
  0
VERTEX
  8
0
  6
CONTINUOUS
 62
     7
 10
727.968500164775
 20
17.4281253765758
 42
0.04804076410467448
  0
VERTEX
  8
0
  6
CONTINUOUS
 62
     7
 10
727.5761683903877
 20
18.08839294262476
 42
0.05381899032934755
  0
VERTEX
  8
0
  6
CONTINUOUS
 62
     7
 10
727.0646018327914
 20
18.66201436570646
 42
0.058784043457154
  0
VERTEX
  8
0
  6
CONTINUOUS
 62
     7
 10
726.4314938797515
 20
19.09645218612511
 42
0.02971392343424956
  0
VERTEX
  8
0
  6
CONTINUOUS
 62
     7
 10
725.7309907681374
 20
19.41351168207861
 42
0.00585753691208857
  0
VERTEX
  8
0
  6
CONTINUOUS
 62
     7
 10
725.0096058940361
 20
19.68211031021227
 42
0.01049959459118858
  0
VERTEX
  8
0
  6
CONTINUOUS
 62
     7
 10
724.2806203590151
 20
19.9298856757461
 42
0.01898559936149142
  0
VERTEX
  8
0
  6
CONTINUOUS
 62
     7
 10
723.538818359375
 20
20.134033203125
 42
0
  0
SEQEND
  8
0
  0
POLYLINE
  8
0
  6
CONTINUOUS
 62
     7
 66
     1
 10
0
 20
0
  0
VERTEX
  8
0
  6
CONTINUOUS
 62
     7
 10
698.849853515625
 20
12.83447265625
 42
0.1945672265755364
  0
VERTEX
  8
0
  6
CONTINUOUS
 62
     7
 10
701.7920399278147
 20
11.39506792304863
 42
0.02554288674070665
  0
VERTEX
  8
0
  6
CONTINUOUS
 62
     7
 10
705.1706633092481
 20
10.88328645201489
 42
0.01446680416668516
  0
VERTEX
  8
0
  6
CONTINUOUS
 62
     7
 10
708.5800773219356
 20
10.62982527780327
 42
0.01162852758222786
  0
VERTEX
  8
0
  6
CONTINUOUS
 62
     7
 10
712
 20
10.55126953125
 42
0.01162216241364992
  0
VERTEX
  8
0
  6
CONTINUOUS
 62
     7
 10
715.4181168546633
 20
10.6297409761288
 42
0.01447018319482722
  0
VERTEX
  8
0
  6
CONTINUOUS
 62
     7
 10
718.8286361450815
 20
10.88321875740916
 42
0.02555924876822744
  0
VERTEX
  8
0
  6
CONTINUOUS
 62
     7
 10
722.2089867659029
 20
11.39531802020467
 42
0.1953275025857956
  0
VERTEX
  8
0
  6
CONTINUOUS
 62
     7
 10
725.149895567062
 20
12.83679094178838
 42
0.1938572497876667
  0
VERTEX
  8
0
  6
CONTINUOUS
 62
     7
 10
722.2055300460037
 20
14.27456181851656
 42
0.02553281135330092
  0
VERTEX
  8
0
  6
CONTINUOUS
 62
     7
 10
718.82689006713
 20
14.78626235167341
 42
0.01446795730180103
  0
VERTEX
  8
0
  6
CONTINUOUS
 62
     7
 10
715.4174720590966
 20
15.03968571399598
 42
0.01162480404299549
  0
VERTEX
  8
0
  6
CONTINUOUS
 62
     7
 10
712
 20
15.1181640625
 42
0.01162704613699098
  0
VERTEX
  8
0
  6
CONTINUOUS
 62
     7
 10
708.5818842334137
 20
15.03965720584789
 42
0.01447371067919804
  0
VERTEX
  8
0
  6
CONTINUOUS
 62
     7
 10
705.1713724233961
 20
14.78608712945824
 42
0.02556067450977161
  0
VERTEX
  8
0
  6
CONTINUOUS
 62
     7
 10
701.7910416563536
 20
14.2738606967848
 42
0.1951803014309311
  0
VERTEX
  8
0
  6
CONTINUOUS
 62
     7
 10
698.8498577821232
 20
12.83263321011898
 42
0
  0
SEQEND
  8
0
  0
POLYLINE
  8
0
  6
CONTINUOUS
 62
     7
 66
     1
 10
0
 20
0
  0
VERTEX
  8
0
  6
CONTINUOUS
 62
     7
 10
704.2619020586907
 20
10.98545465218175
 42
0.04188613022378786
  0
VERTEX
  8
0
  6
CONTINUOUS
 62
     7
 10
704.7020316815067
 20
9.757465205901283
 42
0.04165468219632459
  0
VERTEX
  8
0
  6
CONTINUOUS
 62
     7
 10
705.3402726644482
 20
8.619523715053326
 42
0.04136408119868348
  0
VERTEX
  8
0
  6
CONTINUOUS
 62
     7
 10
706.1577221632236
 20
7.602647361325615
 42
0.04106062826750173
  0
VERTEX
  8
0
  6
CONTINUOUS
 62
     7
 10
707.1310259949532
 20
6.733484675914843
 42
0.04077373210751754
  0
VERTEX
  8
0
  6
CONTINUOUS
 62
     7
 10
708.2330961697152
 20
6.034276735056616
 42
0.04052967900159325
  0
VERTEX
  8
0
  6
CONTINUOUS
 62
     7
 10
709.4339586170214
 20
5.522502872004351
 42
0.04034890219004937
  0
VERTEX
  8
0
  6
CONTINUOUS
 62
     7
 10
710.7015423731038
 20
5.210673016431503
 42
0.04023730416243711
  0
VERTEX
  8
0
  6
CONTINUOUS
 62
     7
 10
712.0021782469289
 20
5.106201463604695
 42
0.04023045196247707
  0
VERTEX
  8
0
  6
CONTINUOUS
 62
     7
 10
713.3025325424923
 20
5.211333892784861
 42
0.04031713967838985
  0
VERTEX
  8
0
  6
CONTINUOUS
 62
     7
 10
714.5689700327979
 20
5.523479794206823
 42
0.04051233780461401
  0
VERTEX
  8
0
  6
CONTINUOUS
 62
     7
 10
715.7691279806176
 20
6.035445857417742
 42
0.04075999998141681
  0
VERTEX
  8
0
  6
CONTINUOUS
 62
     7
 10
716.8706153895242
 20
6.734724687252755
 42
0.04105956262831192
  0
VERTEX
  8
0
  6
CONTINUOUS
 62
     7
 10
717.8436605561069
 20
7.604103517515718
 42
0.04137676030982645
  0
VERTEX
  8
0
  6
CONTINUOUS
 62
     7
 10
718.6610663312124
 20
8.621506103344215
 42
0.04167427534095742
  0
VERTEX
  8
0
  6
CONTINUOUS
 62
     7
 10
719.2992076316385
 20
9.760185573679673
 42
0.04191528628133104
  0
VERTEX
  8
0
  6
CONTINUOUS
 62
     7
 10
719.7390960257399
 20
10.98920635112401
 42
0
  0
SEQEND
  8
0
  0
POLYLINE
  8
0
  6
CONTINUOUS
 62
     7
 66
     1
 10
0
 20
0
  0
VERTEX
  8
0
  6
CONTINUOUS
 62
     7
 10
723.5516225725285
 20
20.1299021111126
 42
0.02483087067150307
  0
VERTEX
  8
0
  6
CONTINUOUS
 62
     7
 10
722.1432328369393
 20
20.49202132736893
 42
0.01364876553536328
  0
VERTEX
  8
0
  6
CONTINUOUS
 62
     7
 10
720.7113877894261
 20
20.74932948674047
 42
0.009382959064434754
  0
VERTEX
  8
0
  6
CONTINUOUS
 62
     7
 10
719.2691012660896
 20
20.94166803513352
 42
0.007275504699618839
  0
VERTEX
  8
0
  6
CONTINUOUS
 62
     7
 10
717.8207061248133
 20
21.08638282005158
 42
0.006095727122767475
  0
VERTEX
  8
0
  6
CONTINUOUS
 62
     7
 10
716.3687108007235
 20
21.19256798741134
 42
0.005403454110790403
  0
VERTEX
  8
0
  6
CONTINUOUS
 62
     7
 10
714.9146410751416
 20
21.26546949695381
 42
0.005011303809719719
  0
VERTEX
  8
0
  6
CONTINUOUS
 62
     7
 10
713.4592536813196
 20
21.30816231415848
 42
0.004832092236385373
  0
VERTEX
  8
0
  6
CONTINUOUS
 62
     7
 10
712.003329098201
 20
21.32226555132247
 42
0.004831326620330147
  0
VERTEX
  8
0
  6
CONTINUOUS
 62
     7
 10
710.5475088577126
 20
21.30829357721306
 42
0.005006440239891557
  0
VERTEX
  8
0
  6
CONTINUOUS
 62
     7
 10
709.0931120023528
 20
21.26577626646806
 42
0.005400831365524819
  0
VERTEX
  8
0
  6
CONTINUOUS
 62
     7
 10
707.6389547912903
 20
21.19303899017184
 42
0.006091070722168727
  0
VERTEX
  8
0
  6
CONTINUOUS
 62
     7
 10
706.186880608579
 20
21.08703783109547
 42
0.007269742893869724
  0
VERTEX
  8
0
  6
CONTINUOUS
 62
     7
 10
704.7379894966064
 20
20.94249395635796
 42
0.009378608205153802
  0
VERTEX
  8
0
  6
CONTINUOUS
 62
     7
 10
703.2942739992941
 20
20.75021581634291
 42
0.01364198818417606
  0
VERTEX
  8
0
  6
CONTINUOUS
 62
     7
 10
701.8607595182363
 20
20.49289218352312
 42
0.0248078671944836
  0
VERTEX
  8
0
  6
CONTINUOUS
 62
     7
 10
700.4508624605152
 20
20.13075482390576
 42
0
  0
SEQEND
  8
0
  0
POLYLINE
  8
0
  6
CONTINUOUS
 62
     7
 66
     1
 10
0
 20
0
  0
VERTEX
  8
0
  6
CONTINUOUS
 62
     7
 10
700.461669921875
 20
11.7392578125
 42
-0.01902135150945414
  0
VERTEX
  8
0
  6
CONTINUOUS
 62
     7
 10
699.7197711738903
 20
11.94346821843802
 42
-0.01048041611075098
  0
VERTEX
  8
0
  6
CONTINUOUS
 62
     7
 10
698.9911073193907
 20
12.19119520026929
 42
-0.005839305255022463
  0
VERTEX
  8
0
  6
CONTINUOUS
 62
     7
 10
698.2695014315245
 20
12.45983968577917
 42
-0.02971922528825891
  0
VERTEX
  8
0
  6
CONTINUOUS
 62
     7
 10
697.5686695559302
 20
12.77700072030528
 42
-0.05877643786952001
  0
VERTEX
  8
0
  6
CONTINUOUS
 62
     7
 10
696.935558170406
 20
13.21137136897406
 42
-0.05384142346773641
  0
VERTEX
  8
0
  6
CONTINUOUS
 62
     7
 10
696.4240905345333
 20
13.78454286656888
 42
-0.04812132854442203
  0
VERTEX
  8
0
  6
CONTINUOUS
 62
     7
 10
696.0311729700693
 20
14.44586768506558
 42
-0.05488158376502854
  0
VERTEX
  8
0
  6
CONTINUOUS
 62
     7
 10
695.7856862686907
 20
15.1735373180152
 42
-0.05415925962598561
  0
VERTEX
  8
0
  6
CONTINUOUS
 62
     7
 10
695.702392578125
 20
15.936767578125
 42
-0.05421308352567926
  0
VERTEX
  8
0
  6
CONTINUOUS
 62
     7
 10
695.7858170074493
 20
16.70034767528251
 42
-0.05489577001729809
  0
VERTEX
  8
0
  6
CONTINUOUS
 62
     7
 10
696.0314998619319
 20
17.42812537875007
 42
-0.04804081679045819
  0
VERTEX
  8
0
  6
CONTINUOUS
 62
     7
 10
696.4238316276338
 20
18.08839295177473
 42
-0.05381896387352998
  0
VERTEX
  8
0
  6
CONTINUOUS
 62
     7
 10
696.9353981700261
 20
18.66201439379297
 42
-0.05878391963628961
  0
VERTEX
  8
0
  6
CONTINUOUS
 62
     7
 10
697.5685061714549
 20
19.09645215678534
 42
-0.02971394611136306
  0
VERTEX
  8
0
  6
CONTINUOUS
 62
     7
 10
698.2690092373264
 20
19.41351173515882
 42
-0.005857585780036085
  0
VERTEX
  8
0
  6
CONTINUOUS
 62
     7
 10
698.9903941481095
 20
19.68211025943805
 42
-0.01049954523274551
  0
VERTEX
  8
0
  6
CONTINUOUS
 62
     7
 10
699.7193796520437
 20
19.9298856996735
 42
-0.01898571376135696
  0
VERTEX
  8
0
  6
CONTINUOUS
 62
     7
 10
700.461181640625
 20
20.134033203125
 42
0
  0
SEQEND
  8
0
  0
TEXT
  8
0
  6
CONTINUOUS
 62
     7
 10
-158.9285755157471
 20
-12.5
 40
25
 41
1.026265240998546
  1
ERKV-NBD-1500
  0
ENDSEC
  0
EOF
