  0
SECTION
  2
HEADER
  0
ENDSEC
  0
SECTION
  2
TABLES
  0
TABLE
  2
LTYPE
 70
    22
  0
LTYPE
  2
CONTINUOUS
 70
    64
  3
Solid line
 72
    65
 73
     0
 40
0.000000
  0
LTYPE
  2
DASHED
 70
    64
  3
__ __ __ __ __ __ __ __ __ __ __ __ __ __ __
 72
    65
 73
     2
 40
3.500000
 49
2.000000
 49
-1.500000
  0
LTYPE
  2
CENTER
 70
    64
  3
____ _ ____ _ ____ _ ____ _ ____ _ ____ _ ____
 72
    65
 73
     4
 40
17.500000
 49
13.000000
 49
-1.500000
 49
1.500000
 49
-1.500000
  0
LTYPE
  2
PHANTOM
 70
    64
  3
_____ _ _ _____ _ _ _____ _ _ _____ _ _ ____  
 72
    65
 73
     6
 40
15.500000
 49
8.000000
 49
-1.500000
 49
1.500000
 49
-1.500000
 49
1.500000
 49
-1.500000
  0
LTYPE
  2
DOT
 70
    64
  3
. . . . . . . . . . . . . . . . . . . . . . . .
 72
    65
 73
     2
 40
0.25
 49
0.0
 49
-0.25
  0
ENDTAB
  0
TABLE
  2
LAYER
 70
     1
  0
LAYER
  2
0
 70
     0
 62
     7
  6
CONTINUOUS
  0
ENDTAB
  0
TABLE
  2
STYLE
 70
     1
  0
STYLE
  2
STANDARD
 70
     0
 40
0.000000
 41
1.000000
 50
0.000000
 71
     0
 42
0.200000
  3
txt
  0
ENDTAB
  0
TABLE
  2
VIEW
 70
     0
  0
ENDTAB
  0
ENDSEC
  0
SECTION
  2
BLOCKS
  0
ENDSEC
  0
SECTION
  2
ENTITIES
  0
LINE
  8
0
  6
CONTINUOUS
 62
     3
 10
335
 20
-475
 11
751.2930297851562
 21
-475
  0
LINE
  8
0
  6
CONTINUOUS
 62
     7
 10
589
 20
-360
 11
589
 21
-590
  0
LINE
  8
0
  6
CONTINUOUS
 62
     7
 10
589
 20
-590
 11
616
 21
-590
  0
LINE
  8
0
  6
CONTINUOUS
 62
     7
 10
607
 20
-371.816650390625
 11
607
 21
-590
  0
LINE
  8
0
  6
CONTINUOUS
 62
     7
 10
664
 20
-401.5
 11
664
 21
-548.5
  0
LINE
  8
0
  6
CONTINUOUS
 62
     7
 10
654
 20
-402.5
 11
654
 21
-547.5
  0
LINE
  8
0
  6
CONTINUOUS
 62
     7
 10
654
 20
-547.5
 11
664
 21
-547.5
  0
LINE
  8
0
  6
CONTINUOUS
 62
     7
 10
654
 20
-402.5
 11
664
 21
-402.5
  0
LINE
  8
0
  6
CONTINUOUS
 62
     7
 10
622
 20
-397.5
 11
622
 21
-552.5
  0
LINE
  8
0
  6
CONTINUOUS
 62
     7
 10
612
 20
-557.5
 11
617
 21
-557.5
  0
LINE
  8
0
  6
CONTINUOUS
 62
     7
 10
616
 20
-360
 11
616
 21
-390.5
  0
LINE
  8
0
  6
CONTINUOUS
 62
     7
 10
612
 20
-392.5
 11
617
 21
-392.5
  0
LINE
  8
0
  6
CONTINUOUS
 62
     7
 10
616
 20
-590
 11
616
 21
-559.5
  0
LINE
  8
0
  6
CONTINUOUS
 62
     7
 10
621.9999389648438
 20
-414.2030334472656
 11
653.9999389648437
 21
-421.5271911621094
  0
LINE
  8
0
  6
CONTINUOUS
 62
     7
 10
622
 20
-440.947509765625
 11
654
 21
-440.947509765625
  0
LINE
  8
0
  6
CONTINUOUS
 62
     7
 10
622
 20
-535.7969360351562
 11
654
 21
-528.4727783203125
  0
LINE
  8
0
  6
CONTINUOUS
 62
     7
 10
622
 20
-509.052490234375
 11
654
 21
-509.052490234375
  0
LINE
  8
0
  6
CONTINUOUS
 62
     7
 10
606.9999389648437
 20
-371.8166809082031
 11
615.9999389648437
 21
-370.7746276855469
  0
LINE
  8
0
  6
CONTINUOUS
 62
     7
 10
664
 20
-401.5
 11
686.5
 21
-401.5
  0
LINE
  8
0
  6
CONTINUOUS
 62
     7
 10
664
 20
-548.5
 11
686.5
 21
-548.5
  0
LINE
  8
0
  6
CONTINUOUS
 62
     7
 10
686.5
 20
-401.5
 11
686.5
 21
-548.5
  0
LINE
  8
0
  6
CONTINUOUS
 62
     7
 10
541
 20
-357.5
 11
585
 21
-357.5
  0
LINE
  8
0
  6
CONTINUOUS
 62
     7
 10
541
 20
-592.5
 11
585
 21
-592.5
  0
LINE
  8
0
  6
CONTINUOUS
 62
     7
 10
537
 20
-360
 11
537
 21
-590
  0
LINE
  8
0
  6
CONTINUOUS
 62
     7
 10
537
 20
-361.5
 11
541
 21
-357.5
  0
LINE
  8
0
  6
CONTINUOUS
 62
     7
 10
585
 20
-357.5
 11
589
 21
-361.5
  0
LINE
  8
0
  6
CONTINUOUS
 62
     7
 10
589
 20
-588.5
 11
585
 21
-592.5
  0
LINE
  8
0
  6
CONTINUOUS
 62
     7
 10
541
 20
-592.5
 11
537
 21
-588.5
  0
LINE
  8
0
  6
CONTINUOUS
 62
     7
 10
541
 20
-400.0578002929687
 11
585
 21
-400.0578002929687
  0
LINE
  8
0
  6
CONTINUOUS
 62
     7
 10
541
 20
-413.7132568359375
 11
585
 21
-413.7132568359375
  0
LINE
  8
0
  6
CONTINUOUS
 62
     7
 10
541
 20
-422.4596557617187
 11
585
 21
-422.4596557617187
  0
LINE
  8
0
  6
CONTINUOUS
 62
     7
 10
541
 20
-437.8352966308594
 11
585
 21
-437.8352966308594
  0
LINE
  8
0
  6
CONTINUOUS
 62
     7
 10
541
 20
-447.447998046875
 11
585
 21
-447.447998046875
  0
LINE
  8
0
  6
CONTINUOUS
 62
     7
 10
541
 20
-464.00048828125
 11
585
 21
-464.00048828125
  0
LINE
  8
0
  6
CONTINUOUS
 62
     7
 10
541
 20
-486.0003051757812
 11
585
 21
-486.0003051757812
  0
LINE
  8
0
  6
CONTINUOUS
 62
     7
 10
541
 20
-502.5516662597656
 11
585
 21
-502.5516662597656
  0
LINE
  8
0
  6
CONTINUOUS
 62
     7
 10
541
 20
-512.1639404296875
 11
585
 21
-512.1639404296875
  0
LINE
  8
0
  6
CONTINUOUS
 62
     7
 10
541
 20
-527.5404663085937
 11
585
 21
-527.5404663085937
  0
LINE
  8
0
  6
CONTINUOUS
 62
     7
 10
541
 20
-536.2864379882813
 11
585
 21
-536.2864379882813
  0
LINE
  8
0
  6
CONTINUOUS
 62
     7
 10
541
 20
-549.94091796875
 11
585
 21
-549.94091796875
  0
LINE
  8
0
  6
CONTINUOUS
 62
     7
 10
541
 20
-565.4974365234375
 11
585
 21
-565.4974365234375
  0
LINE
  8
0
  6
CONTINUOUS
 62
     7
 10
541
 20
-575.2504272460937
 11
585
 21
-575.2504272460937
  0
LINE
  8
0
  6
CONTINUOUS
 62
     7
 10
541
 20
-580.0982055664062
 11
585
 21
-580.0982055664062
  0
LINE
  8
0
  6
CONTINUOUS
 62
     7
 10
541
 20
-586.4676513671875
 11
585
 21
-586.4676513671875
  0
LINE
  8
0
  6
CONTINUOUS
 62
     7
 10
445
 20
-325
 11
467
 21
-325
  0
LINE
  8
0
  6
CONTINUOUS
 62
     7
 10
445
 20
-625
 11
467
 21
-625
  0
LINE
  8
0
  6
CONTINUOUS
 62
     7
 10
445
 20
-325
 11
445
 21
-382.2501525878906
  0
LINE
  8
0
  6
CONTINUOUS
 62
     7
 10
467
 20
-325
 11
467
 21
-625
  0
LINE
  8
0
  6
CONTINUOUS
 62
     7
 10
519
 20
-360
 11
519
 21
-590
  0
LINE
  8
0
  6
CONTINUOUS
 62
     7
 10
519
 20
-590
 11
537
 21
-590
  0
LINE
  8
0
  6
CONTINUOUS
 62
     7
 10
472
 20
-360
 11
537
 21
-360
  0
LINE
  8
0
  6
CONTINUOUS
 62
     7
 10
470.095703125
 20
-541.2222900390625
 11
504.6409912109375
 21
-526.9927978515625
  0
LINE
  8
0
  6
CONTINUOUS
 62
     7
 10
470.095703125
 20
-408.7777709960937
 11
504.6410522460938
 21
-423.0072326660156
  0
LINE
  8
0
  6
CONTINUOUS
 62
     7
 10
467
 20
-368.1234741210938
 11
519
 21
-389.4042358398437
  0
LINE
  8
0
  6
CONTINUOUS
 62
     7
 10
467.0000305175781
 20
-382.2656555175781
 11
519
 21
-403.5464172363281
  0
LINE
  8
0
  6
CONTINUOUS
 62
     7
 10
504.6410217285156
 20
-423.0072326660156
 11
514
 21
-423.0072326660156
  0
LINE
  8
0
  6
CONTINUOUS
 62
     7
 10
504.6410217285156
 20
-526.9927978515625
 11
514
 21
-526.9927978515625
  0
LINE
  8
0
  6
CONTINUOUS
 62
     7
 10
467
 20
-567.734375
 11
519
 21
-546.45361328125
  0
LINE
  8
0
  6
CONTINUOUS
 62
     7
 10
467.0000305175781
 20
-581.8765258789062
 11
519.0000610351562
 21
-560.5957641601563
  0
LINE
  8
0
  6
CONTINUOUS
 62
     7
 10
440
 20
-590
 11
445
 21
-590
  0
LINE
  8
0
  6
CONTINUOUS
 62
     7
 10
440
 20
-360
 11
445
 21
-360
  0
LINE
  8
0
  6
CONTINUOUS
 62
     7
 10
350
 20
-438.5
 11
350
 21
-507.5
  0
LINE
  8
0
  6
CONTINUOUS
 62
     7
 10
350
 20
-507.5
 11
445
 21
-507.5
  0
LINE
  8
0
  6
CONTINUOUS
 62
     7
 10
350
 20
-442.5
 11
445
 21
-442.5
  0
LINE
  8
0
  6
CONTINUOUS
 62
     7
 10
440
 20
-555.2203369140625
 11
440
 21
-590
  0
LINE
  8
0
  6
CONTINUOUS
 62
     7
 10
445
 20
-546.8104858398437
 11
445
 21
-625
  0
LINE
  8
0
  6
CONTINUOUS
 62
     7
 10
440
 20
-360
 11
440
 21
-377.4778747558594
  0
LINE
  8
0
  6
CONTINUOUS
 62
     7
 10
350
 20
-438.5
 11
430
 21
-438.5
  0
LINE
  8
0
  6
CONTINUOUS
 62
     7
 10
430
 20
-438.5
 11
430
 21
-442.5
  0
LINE
  8
0
  6
CONTINUOUS
 62
     7
 10
445
 20
-437.5
 11
448.7959899902344
 21
-437.5
  0
LINE
  8
0
  6
CONTINUOUS
 62
     7
 10
445
 20
-512.5
 11
449.16015625
 21
-512.5
  0
LINE
  8
0
  6
CONTINUOUS
 62
     7
 10
445
 20
-438.1000061035156
 11
445
 21
-512.5
  0
LINE
  8
0
  6
CONTINUOUS
 62
     3
 10
493
 20
-268.0375671386719
 11
493
 21
-375
  0
LINE
  8
0
  6
CONTINUOUS
 62
     7
 10
479.5
 20
-290.7000122070312
 11
506.5
 21
-290.7000122070312
  0
LINE
  8
0
  6
CONTINUOUS
 62
     7
 10
501.0710754394531
 20
-276.0500183105469
 11
484.9289245605469
 21
-276.0500183105469
  0
LINE
  8
0
  6
CONTINUOUS
 62
     7
 10
501.507568359375
 20
-285.0500183105469
 11
484.492431640625
 21
-285.0500183105469
  0
LINE
  8
0
  6
CONTINUOUS
 62
     7
 10
501.507568359375
 20
-285.0500183105469
 11
501.3310241699219
 21
-290.7000122070312
  0
LINE
  8
0
  6
CONTINUOUS
 62
     7
 10
484.4924011230469
 20
-285.0500183105469
 11
484.6689453125
 21
-290.7000122070312
  0
LINE
  8
0
  6
CONTINUOUS
 62
     7
 10
501.071044921875
 20
-276.0500183105469
 11
501.071044921875
 21
-285.0500183105469
  0
LINE
  8
0
  6
CONTINUOUS
 62
     7
 10
484.928955078125
 20
-276.0500183105469
 11
484.928955078125
 21
-285.0500183105469
  0
LINE
  8
0
  6
CONTINUOUS
 62
     7
 10
479.5
 20
-322.7000122070313
 11
506.5
 21
-322.7000122070313
  0
LINE
  8
0
  6
CONTINUOUS
 62
     7
 10
484.3499755859375
 20
-322.7000122070313
 11
484.3499755859375
 21
-360
  0
LINE
  8
0
  6
CONTINUOUS
 62
     7
 10
501.6500244140625
 20
-322.7000122070313
 11
501.6500244140625
 21
-360
  0
LINE
  8
0
  6
CONTINUOUS
 62
     7
 10
506.5
 20
-290.7000122070312
 11
506.5
 21
-322.7000122070313
  0
LINE
  8
0
  6
CONTINUOUS
 62
     7
 10
479.5
 20
-290.7000122070312
 11
479.5
 21
-322.7000122070313
  0
LINE
  8
0
  6
CONTINUOUS
 62
     3
 10
484.928955078125
 20
-285.0499877929688
 11
493
 21
-276.0499877929688
  0
LINE
  8
0
  6
CONTINUOUS
 62
     3
 10
484.928955078125
 20
-276.0500183105469
 11
493
 21
-285.0500183105469
  0
LINE
  8
0
  6
CONTINUOUS
 62
     7
 10
493
 20
-285.0500183105469
 11
493
 21
-276.0500183105469
  0
LINE
  8
0
  6
CONTINUOUS
 62
     3
 10
493.0000610351563
 20
-276.050048828125
 11
501.0710754394531
 21
-285.0500183105469
  0
LINE
  8
0
  6
CONTINUOUS
 62
     3
 10
501.0710754394531
 20
-276.0499877929688
 11
493.0000305175781
 21
-285.0500183105469
  0
LINE
  8
0
  6
CONTINUOUS
 62
     3
 10
574
 20
-465.135009765625
 11
574
 21
-484.864990234375
  0
LINE
  8
0
  6
CONTINUOUS
 62
     7
 10
574
 20
-470.0502624511719
 11
569.0502319335937
 21
-475
  0
LINE
  8
0
  6
CONTINUOUS
 62
     7
 10
569.0502319335937
 20
-475
 11
574
 21
-479.9497375488281
  0
LINE
  8
0
  6
CONTINUOUS
 62
     7
 10
574
 20
-479.9497680664062
 11
578.9497680664062
 21
-475
  0
LINE
  8
0
  6
CONTINUOUS
 62
     7
 10
578.94970703125
 20
-475
 11
574
 21
-470.0502624511719
  0
LINE
  8
0
  6
CONTINUOUS
 62
     7
 10
592
 20
-336.9199829101562
 11
592
 21
-348.3305053710937
  0
LINE
  8
0
  6
CONTINUOUS
 62
     7
 10
595.5
 20
-360
 11
589
 21
-360
  0
LINE
  8
0
  6
CONTINUOUS
 62
     7
 10
616
 20
-360
 11
612.5
 21
-360
  0
LINE
  8
0
  6
CONTINUOUS
 62
     7
 10
612.5
 20
-350.2359313964844
 11
612.5
 21
-363.2413330078125
  0
LINE
  8
0
  6
CONTINUOUS
 62
     7
 10
595.5
 20
-350.2359924316406
 11
595.5
 21
-363.2413330078125
  0
LINE
  8
0
  6
CONTINUOUS
 62
     7
 10
616
 20
-342.9199829101563
 11
616
 21
-348.3305053710937
  0
LINE
  8
0
  6
CONTINUOUS
 62
     7
 10
627
 20
-313.9199829101562
 11
627
 21
-337.9199829101562
  0
LINE
  8
0
  6
CONTINUOUS
 62
     7
 10
621
 20
-337.9199829101562
 11
627
 21
-337.9199829101562
  0
LINE
  8
0
  6
CONTINUOUS
 62
     7
 10
615
 20
-313.9199829101562
 11
627
 21
-313.9199829101562
  0
LINE
  8
0
  6
CONTINUOUS
 62
     7
 10
633
 20
-317.4124450683594
 11
627
 21
-317.5999450683594
  0
LINE
  8
0
  6
CONTINUOUS
 62
     7
 10
633
 20
-334.4275512695312
 11
633
 21
-317.4124450683594
  0
LINE
  8
0
  6
CONTINUOUS
 62
     3
 10
647.4326171875
 20
-325.9199829101563
 11
586.7659301757813
 21
-325.9199829101563
  0
LINE
  8
0
  6
CONTINUOUS
 62
     3
 10
604
 20
-311.5993957519531
 11
604
 21
-368.7841186523437
  0
LINE
  8
0
  6
CONTINUOUS
 62
     7
 10
633
 20
-334.4275817871094
 11
627
 21
-334.2400817871094
  0
LINE
  8
0
  6
CONTINUOUS
 62
     7
 10
633
 20
-334.1878051757812
 11
642
 21
-334.1878051757812
  0
LINE
  8
0
  6
CONTINUOUS
 62
     7
 10
642
 20
-334.1878051757812
 11
642
 21
-317.6522216796875
  0
LINE
  8
0
  6
CONTINUOUS
 62
     7
 10
633
 20
-317.6522216796875
 11
642
 21
-317.6522216796875
  0
LINE
  8
0
  6
CONTINUOUS
 62
     7
 10
633
 20
-325.9199829101563
 11
642
 21
-325.9199829101563
  0
LINE
  8
0
  6
CONTINUOUS
 62
     3
 10
642
 20
-325.9199829101563
 11
633
 21
-317.6521911621094
  0
LINE
  8
0
  6
CONTINUOUS
 62
     3
 10
642
 20
-317.6521911621094
 11
633
 21
-325.9199829101563
  0
LINE
  8
0
  6
CONTINUOUS
 62
     3
 10
633
 20
-325.9200134277344
 11
642
 21
-334.1878051757812
  0
LINE
  8
0
  6
CONTINUOUS
 62
     3
 10
642
 20
-325.9199829101563
 11
633
 21
-334.1877746582031
  0
LINE
  8
0
  6
CONTINUOUS
 62
     3
 10
332.5
 20
0
 11
752.862548828125
 21
0
  0
LINE
  8
0
  6
CONTINUOUS
 62
     7
 10
589
 20
114.9999694824219
 11
589
 21
4
  0
LINE
  8
0
  6
CONTINUOUS
 62
     7
 10
589
 20
114.9999694824219
 11
607
 21
114.9999694824219
  0
LINE
  8
0
  6
CONTINUOUS
 62
     7
 10
589
 20
-115
 11
607
 21
-115
  0
LINE
  8
0
  6
CONTINUOUS
 62
     7
 10
607
 20
114.9999694824219
 11
607
 21
12.43438720703125
  0
LINE
  8
0
  6
CONTINUOUS
 62
     7
 10
664
 20
73.49996948242188
 11
664
 21
-73.5
  0
LINE
  8
0
  6
CONTINUOUS
 62
     7
 10
654
 20
72.49996948242187
 11
654
 21
-72.5
  0
LINE
  8
0
  6
CONTINUOUS
 62
     7
 10
654
 20
-72.5
 11
664
 21
-72.5
  0
LINE
  8
0
  6
CONTINUOUS
 62
     7
 10
654
 20
72.49996948242187
 11
664
 21
72.49996948242187
  0
LINE
  8
0
  6
CONTINUOUS
 62
     7
 10
622
 20
77.49996948242187
 11
622
 21
3.708099365234375
  0
LINE
  8
0
  6
CONTINUOUS
 62
     7
 10
612
 20
-82.5
 11
617
 21
-82.5
  0
LINE
  8
0
  6
CONTINUOUS
 62
     7
 10
612
 20
82.49996948242188
 11
617
 21
82.49996948242188
  0
LINE
  8
0
  6
CONTINUOUS
 62
     7
 10
616
 20
-48.60113525390625
 11
616
 21
-46.19300079345703
  0
LINE
  8
0
  6
CONTINUOUS
 62
     7
 10
607.0000610351563
 20
12.43439960479736
 11
616.0000610351563
 21
10.02285194396973
  0
LINE
  8
0
  6
CONTINUOUS
 62
     7
 10
606.9999389648437
 20
-51.01267242431641
 11
616
 21
-48.60112762451172
  0
LINE
  8
0
  6
CONTINUOUS
 62
     7
 10
607
 20
-51.01266479492187
 11
607
 21
-115
  0
LINE
  8
0
  6
CONTINUOUS
 62
     7
 10
622
 20
31.18218994140625
 11
654
 21
31.18218994140625
  0
LINE
  8
0
  6
CONTINUOUS
 62
     7
 10
622.0000610351563
 20
57.07563018798828
 11
654.0000610351562
 21
50.24575805664062
  0
LINE
  8
0
  6
CONTINUOUS
 62
     7
 10
642
 20
-31.18218994140625
 11
654
 21
-31.18218994140625
  0
LINE
  8
0
  6
CONTINUOUS
 62
     7
 10
622
 20
-57.07561492919922
 11
654
 21
-50.24573135375977
  0
LINE
  8
0
  6
CONTINUOUS
 62
     7
 10
587.5
 20
4
 11
620.5
 21
4
  0
LINE
  8
0
  6
CONTINUOUS
 62
     7
 10
587.5
 20
-4
 11
620.5
 21
-4
  0
LINE
  8
0
  6
CONTINUOUS
 62
     7
 10
616
 20
4
 11
616
 21
10.0228271484375
  0
LINE
  8
0
  6
CONTINUOUS
 62
     7
 10
622
 20
-3.708099365234375
 11
622
 21
-22.19300079345703
  0
LINE
  8
0
  6
CONTINUOUS
 62
     7
 10
589
 20
-4
 11
589
 21
-115
  0
LINE
  8
0
  6
CONTINUOUS
 62
     7
 10
664
 20
73.49996948242188
 11
686.5
 21
73.49996948242188
  0
LINE
  8
0
  6
CONTINUOUS
 62
     7
 10
664
 20
-73.5
 11
686.5
 21
-73.5
  0
LINE
  8
0
  6
CONTINUOUS
 62
     7
 10
686.5
 20
73.49996948242188
 11
686.5
 21
-73.5
  0
LINE
  8
0
  6
CONTINUOUS
 62
     7
 10
541
 20
117.4999694824219
 11
585
 21
117.4999694824219
  0
LINE
  8
0
  6
CONTINUOUS
 62
     7
 10
541
 20
-117.5
 11
585
 21
-117.5
  0
LINE
  8
0
  6
CONTINUOUS
 62
     7
 10
537
 20
115
 11
537
 21
-114.9999694824219
  0
LINE
  8
0
  6
CONTINUOUS
 62
     7
 10
541
 20
-111.4677429199219
 11
585
 21
-111.4677429199219
  0
LINE
  8
0
  6
CONTINUOUS
 62
     7
 10
537.0000610351562
 20
113.4999389648438
 11
541.0000610351563
 21
117.4999465942383
  0
LINE
  8
0
  6
CONTINUOUS
 62
     7
 10
584.9998168945312
 20
117.4999465942383
 11
588.9998168945313
 21
113.4999465942383
  0
LINE
  8
0
  6
CONTINUOUS
 62
     7
 10
589
 20
-113.5000381469727
 11
585
 21
-117.5000457763672
  0
LINE
  8
0
  6
CONTINUOUS
 62
     7
 10
541.0001220703125
 20
-117.4999008178711
 11
537.0001220703125
 21
-113.4998626708984
  0
LINE
  8
0
  6
CONTINUOUS
 62
     7
 10
541
 20
111.4676208496094
 11
585
 21
111.4676208496094
  0
LINE
  8
0
  6
CONTINUOUS
 62
     7
 10
541
 20
105.0982360839844
 11
585
 21
105.0982360839844
  0
LINE
  8
0
  6
CONTINUOUS
 62
     7
 10
541
 20
100.2502136230469
 11
585
 21
100.2502136230469
  0
LINE
  8
0
  6
CONTINUOUS
 62
     7
 10
541
 20
90.49581909179687
 11
585
 21
90.49581909179687
  0
LINE
  8
0
  6
CONTINUOUS
 62
     7
 10
541
 20
74.94113159179688
 11
585
 21
74.94113159179688
  0
LINE
  8
0
  6
CONTINUOUS
 62
     7
 10
541
 20
61.28469848632813
 11
585
 21
61.28469848632813
  0
LINE
  8
0
  6
CONTINUOUS
 62
     7
 10
541
 20
52.53948974609375
 11
585
 21
52.53948974609375
  0
LINE
  8
0
  6
CONTINUOUS
 62
     7
 10
541
 20
37.16400146484375
 11
585
 21
37.16400146484375
  0
LINE
  8
0
  6
CONTINUOUS
 62
     7
 10
541
 20
27.5504150390625
 11
585
 21
27.5504150390625
  0
LINE
  8
0
  6
CONTINUOUS
 62
     7
 10
541
 20
10.99948120117188
 11
585
 21
10.99948120117188
  0
LINE
  8
0
  6
CONTINUOUS
 62
     7
 10
541
 20
-90.49783325195313
 11
585
 21
-90.49783325195313
  0
LINE
  8
0
  6
CONTINUOUS
 62
     7
 10
541
 20
-100.2507019042969
 11
585
 21
-100.2507019042969
  0
LINE
  8
0
  6
CONTINUOUS
 62
     7
 10
541
 20
-105.0988464355469
 11
585
 21
-105.0988464355469
  0
LINE
  8
0
  6
CONTINUOUS
 62
     7
 10
445
 20
150
 11
467
 21
150
  0
LINE
  8
0
  6
CONTINUOUS
 62
     7
 10
445
 20
-149.9999694824219
 11
467
 21
-149.9999694824219
  0
LINE
  8
0
  6
CONTINUOUS
 62
     7
 10
445
 20
150
 11
445
 21
63.5789794921875
  0
LINE
  8
0
  6
CONTINUOUS
 62
     7
 10
467
 20
150
 11
467
 21
-149.9999694824219
  0
LINE
  8
0
  6
CONTINUOUS
 62
     7
 10
519
 20
115
 11
519
 21
17.5
  0
LINE
  8
0
  6
CONTINUOUS
 62
     7
 10
519
 20
-114.9999694824219
 11
537
 21
-114.9999694824219
  0
LINE
  8
0
  6
CONTINUOUS
 62
     7
 10
519
 20
115
 11
537
 21
115
  0
LINE
  8
0
  6
CONTINUOUS
 62
     7
 10
467
 20
17.5
 11
519
 21
17.5
  0
LINE
  8
0
  6
CONTINUOUS
 62
     7
 10
467
 20
-17.5
 11
519
 21
-17.5
  0
LINE
  8
0
  6
CONTINUOUS
 62
     7
 10
519
 20
-17.5
 11
519
 21
-114.9999694824219
  0
LINE
  8
0
  6
CONTINUOUS
 62
     7
 10
467.0000915527344
 20
106.8764953613281
 11
519.0000610351562
 21
85.59574890136719
  0
LINE
  8
0
  6
CONTINUOUS
 62
     7
 10
466.9999694824219
 20
92.734375
 11
518.9999389648438
 21
71.45362091064453
  0
LINE
  8
0
  6
CONTINUOUS
 62
     7
 10
504.6410217285156
 20
51.9927978515625
 11
514
 21
51.9927978515625
  0
LINE
  8
0
  6
CONTINUOUS
 62
     7
 10
504.6410217285156
 20
-51.9927978515625
 11
514
 21
-51.9927978515625
  0
LINE
  8
0
  6
CONTINUOUS
 62
     7
 10
467.0000305175781
 20
-92.73435211181641
 11
519
 21
-71.45359802246094
  0
LINE
  8
0
  6
CONTINUOUS
 62
     7
 10
467.0000305175781
 20
-106.8765182495117
 11
519
 21
-85.59575653076172
  0
LINE
  8
0
  6
CONTINUOUS
 62
     7
 10
470.095703125
 20
66.22222900390625
 11
504.6410217285156
 21
51.99277496337891
  0
LINE
  8
0
  6
CONTINUOUS
 62
     7
 10
470.0956726074219
 20
-66.22223663330078
 11
504.6410217285156
 21
-51.99277496337891
  0
LINE
  8
0
  6
CONTINUOUS
 62
     7
 10
440
 20
115
 11
440
 21
74.63330078125
  0
LINE
  8
0
  6
CONTINUOUS
 62
     7
 10
440
 20
115
 11
445
 21
115
  0
LINE
  8
0
  6
CONTINUOUS
 62
     7
 10
440
 20
-115
 11
445
 21
-115
  0
LINE
  8
0
  6
CONTINUOUS
 62
     7
 10
350
 20
32.5
 11
350
 21
-32.5
  0
LINE
  8
0
  6
CONTINUOUS
 62
     7
 10
350
 20
-32.5
 11
445
 21
-32.5
  0
LINE
  8
0
  6
CONTINUOUS
 62
     7
 10
350
 20
32.5
 11
445
 21
32.5
  0
LINE
  8
0
  6
CONTINUOUS
 62
     7
 10
350
 20
9
 11
431
 21
9
  0
LINE
  8
0
  6
CONTINUOUS
 62
     7
 10
350
 20
-9
 11
431
 21
-9
  0
LINE
  8
0
  6
CONTINUOUS
 62
     7
 10
445
 20
-37.5
 11
449.4187927246094
 21
-37.5
  0
LINE
  8
0
  6
CONTINUOUS
 62
     7
 10
445
 20
37.5
 11
450.41064453125
 21
37.5
  0
LINE
  8
0
  6
CONTINUOUS
 62
     7
 10
440
 20
-71.69732666015625
 11
440
 21
-115
  0
LINE
  8
0
  6
CONTINUOUS
 62
     7
 10
445
 20
-67.507568359375
 11
445
 21
-149.9999694824219
  0
LINE
  8
0
  6
CONTINUOUS
 62
     7
 10
445
 20
36.9000244140625
 11
445
 21
-37.5
  0
LINE
  8
0
  6
CONTINUOUS
 62
     7
 10
430
 20
9
 11
430
 21
-9
  0
LINE
  8
0
  6
CONTINUOUS
 62
     7
 10
501.4852600097656
 20
-2.202235009463038E-05
 11
493
 21
8.485259056091309
  0
LINE
  8
0
  6
CONTINUOUS
 62
     7
 10
493
 20
8.485260963439941
 11
484.5147399902344
 21
2.316832251381129E-06
  0
LINE
  8
0
  6
CONTINUOUS
 62
     7
 10
492.9999694824219
 20
-8.485258102416992
 11
484.5147399902344
 21
-1.926235199789517E-05
  0
LINE
  8
0
  6
CONTINUOUS
 62
     7
 10
501.4852600097656
 20
1.772648829501122E-06
 11
493
 21
-8.485256195068359
  0
LINE
  8
0
  6
CONTINUOUS
 62
     3
 10
493
 20
15.72772216796875
 11
493
 21
-15.83087158203125
  0
LINE
  8
0
  6
CONTINUOUS
 62
     7
 10
569.0090942382812
 20
-121.5299987792969
 11
569.135009765625
 21
-117.5
  0
LINE
  8
0
  6
CONTINUOUS
 62
     7
 10
578.9910278320313
 20
-121.5299987792969
 11
578.8650512695313
 21
-117.5
  0
LINE
  8
0
  6
CONTINUOUS
 62
     3
 10
574
 20
-112.517951965332
 11
574
 21
-132.2556762695312
  0
LINE
  8
0
  6
CONTINUOUS
 62
     7
 10
569.009033203125
 20
-121.5299987792969
 11
578.990966796875
 21
-121.5299987792969
  0
LINE
  8
0
  6
CONTINUOUS
 62
     7
 10
578.5355224609375
 20
-128.5299987792969
 11
578.5355224609375
 21
-121.5299987792969
  0
LINE
  8
0
  6
CONTINUOUS
 62
     3
 10
574
 20
-121.5299682617188
 11
578.5355224609375
 21
-128.5299530029297
  0
LINE
  8
0
  6
CONTINUOUS
 62
     3
 10
574.0000610351563
 20
-128.5300140380859
 11
578.5355834960938
 21
-121.5300064086914
  0
LINE
  8
0
  6
CONTINUOUS
 62
     3
 10
569.4644775390625
 20
-121.5299453735352
 11
574
 21
-128.5299682617187
  0
LINE
  8
0
  6
CONTINUOUS
 62
     3
 10
569.4644775390625
 20
-128.5300140380859
 11
574
 21
-121.5300064086914
  0
LINE
  8
0
  6
CONTINUOUS
 62
     7
 10
569.4644775390625
 20
-128.5299987792969
 11
569.4644775390625
 21
-121.5299987792969
  0
LINE
  8
0
  6
CONTINUOUS
 62
     7
 10
569.4644775390625
 20
-128.5299987792969
 11
578.5355224609375
 21
-128.5299987792969
  0
LINE
  8
0
  6
CONTINUOUS
 62
     7
 10
592
 20
-29.01912498474121
 11
592
 21
-31.71853828430176
  0
LINE
  8
0
  6
CONTINUOUS
 62
     3
 10
584.9986572265625
 20
-34.19300079345703
 11
647.62939453125
 21
-34.19300079345703
  0
LINE
  8
0
  6
CONTINUOUS
 62
     3
 10
604
 20
-15.03795146942139
 11
604
 21
-48.40578460693359
  0
LINE
  8
0
  6
CONTINUOUS
 62
     7
 10
615.9979858398437
 20
-22.19300079345703
 11
627
 21
-22.19300079345703
  0
LINE
  8
0
  6
CONTINUOUS
 62
     7
 10
627
 20
-22.19300079345703
 11
627
 21
-46.19300079345703
  0
LINE
  8
0
  6
CONTINUOUS
 62
     7
 10
615
 20
-46.19300079345703
 11
627
 21
-46.19300079345703
  0
LINE
  8
0
  6
CONTINUOUS
 62
     7
 10
633
 20
-25.68543815612793
 11
627
 21
-25.87293815612793
  0
LINE
  8
0
  6
CONTINUOUS
 62
     7
 10
633
 20
-42.70056533813477
 11
633
 21
-25.6854362487793
  0
LINE
  8
0
  6
CONTINUOUS
 62
     7
 10
633
 20
-42.7005729675293
 11
627
 21
-42.5130729675293
  0
LINE
  8
0
  6
CONTINUOUS
 62
     7
 10
642
 20
-42.46081161499023
 11
642
 21
-25.92519760131836
  0
LINE
  8
0
  6
CONTINUOUS
 62
     7
 10
633
 20
-42.46081161499023
 11
642
 21
-42.46081161499023
  0
LINE
  8
0
  6
CONTINUOUS
 62
     7
 10
633
 20
-25.92519760131836
 11
642
 21
-25.92519760131836
  0
LINE
  8
0
  6
CONTINUOUS
 62
     7
 10
616
 20
-22.19300079345703
 11
616
 21
-4
  0
LINE
  8
0
  6
CONTINUOUS
 62
     7
 10
622
 20
-46.19300079345703
 11
622
 21
-77.5
  0
LINE
  8
0
  6
CONTINUOUS
 62
     7
 10
574
 20
-121.5299835205078
 11
574.0000610351563
 21
-128.5299987792969
  0
LINE
  8
0
  6
CONTINUOUS
 62
     3
 10
642
 20
-34.1930046081543
 11
633
 21
-42.46081924438477
  0
LINE
  8
0
  6
CONTINUOUS
 62
     3
 10
633
 20
-34.1929817199707
 11
642
 21
-42.46079635620117
  0
LINE
  8
0
  6
CONTINUOUS
 62
     7
 10
642
 20
-34.19300079345703
 11
633
 21
-34.19300079345703
  0
LINE
  8
0
  6
CONTINUOUS
 62
     3
 10
633
 20
-34.19300842285156
 11
642
 21
-25.92519760131836
  0
LINE
  8
0
  6
CONTINUOUS
 62
     3
 10
633
 20
-25.92518615722656
 11
642
 21
-34.1929931640625
  0
LINE
  8
0
  6
CONTINUOUS
 62
     3
 10
-165
 20
-475
 11
165
 21
-475
  0
LINE
  8
0
  6
CONTINUOUS
 62
     3
 10
0
 20
-261.0500183105469
 11
0
 21
-640
  0
LINE
  8
0
  6
CONTINUOUS
 62
     7
 10
9
 20
-438.5
 11
9
 21
-449.5
  0
LINE
  8
0
  6
CONTINUOUS
 62
     7
 10
-9
 20
-438.5
 11
-9
 21
-449.5
  0
LINE
  8
0
  6
CONTINUOUS
 62
     3
 10
111.7655639648437
 20
-521.2949829101562
 11
132.5182189941406
 21
-529.8910522460938
  0
LINE
  8
0
  6
CONTINUOUS
 62
     3
 10
111.765739440918
 20
-428.7051086425781
 11
132.5184020996094
 21
-420.1090698242188
  0
LINE
  8
0
  6
CONTINUOUS
 62
     3
 10
46.2949104309082
 20
-363.234375
 11
54.89093780517578
 21
-342.4817504882813
  0
LINE
  8
0
  6
CONTINUOUS
 62
     3
 10
-46.2946891784668
 20
-363.2344055175781
 11
-54.89072418212891
 21
-342.4817199707031
  0
LINE
  8
0
  6
CONTINUOUS
 62
     3
 10
-111.765625
 20
-428.7049865722656
 11
-132.5182952880859
 21
-420.1089477539062
  0
LINE
  8
0
  6
CONTINUOUS
 62
     3
 10
-111.7656707763672
 20
-521.2947387695312
 11
-132.5183410644531
 21
-529.8907470703125
  0
LINE
  8
0
  6
CONTINUOUS
 62
     3
 10
-46.29494857788086
 20
-586.7655029296875
 11
-54.89101028442383
 21
-607.5181884765625
  0
LINE
  8
0
  6
CONTINUOUS
 62
     3
 10
46.29468536376953
 20
-586.7656860351562
 11
54.89071655273438
 21
-607.5183715820313
  0
LINE
  8
0
  6
CONTINUOUS
 62
     7
 10
-9
 20
-449.5
 11
9
 21
-449.5
  0
LINE
  8
0
  6
CONTINUOUS
 62
     7
 10
-9
 20
-438.5
 11
9
 21
-438.5
  0
LINE
  8
0
  6
CONTINUOUS
 62
     3
 10
58.56739807128906
 20
-508.8139038085938
 11
71.13248443603516
 21
-516.068359375
  0
LINE
  8
0
  6
CONTINUOUS
 62
     3
 10
58.56741333007813
 20
-441.1861267089844
 11
71.13249969482422
 21
-433.9316711425781
  0
LINE
  8
0
  6
CONTINUOUS
 62
     3
 10
-58.56745147705078
 20
-441.1860656738281
 11
-71.13259124755859
 21
-433.9315795898438
  0
LINE
  8
0
  6
CONTINUOUS
 62
     3
 10
-58.56748962402344
 20
-508.8139953613281
 11
-71.13257598876953
 21
-516.0684204101562
  0
LINE
  8
0
  6
CONTINUOUS
 62
     7
 10
-13.5
 20
-290.7000122070312
 11
13.5
 21
-290.7000122070312
  0
LINE
  8
0
  6
CONTINUOUS
 62
     7
 10
8.07110595703125
 20
-276.0500183105469
 11
-8.07110595703125
 21
-276.0500183105469
  0
LINE
  8
0
  6
CONTINUOUS
 62
     7
 10
8.507568359375
 20
-285.0500183105469
 11
-8.507568359375
 21
-285.0500183105469
  0
LINE
  8
0
  6
CONTINUOUS
 62
     7
 10
8.507608413696289
 20
-285.0500183105469
 11
8.331046104431152
 21
-290.7000427246094
  0
LINE
  8
0
  6
CONTINUOUS
 62
     7
 10
-8.507547378540039
 20
-285.0500183105469
 11
-8.330985069274902
 21
-290.7000122070312
  0
LINE
  8
0
  6
CONTINUOUS
 62
     7
 10
8.07110595703125
 20
-276.0500183105469
 11
8.07110595703125
 21
-285.0500183105469
  0
LINE
  8
0
  6
CONTINUOUS
 62
     7
 10
-8.07110595703125
 20
-276.0500183105469
 11
-8.07110595703125
 21
-285.0500183105469
  0
LINE
  8
0
  6
CONTINUOUS
 62
     7
 10
-13.5
 20
-290.7000122070312
 11
-13.5
 21
-325.6087341308594
  0
LINE
  8
0
  6
CONTINUOUS
 62
     7
 10
13.5
 20
-290.7000122070312
 11
13.5
 21
-325.6087341308594
  0
LINE
  8
0
  6
CONTINUOUS
 62
     3
 10
-8.071089744567871
 20
-285.0499572753906
 11
2.143782512575854E-05
 21
-276.0499572753906
  0
LINE
  8
0
  6
CONTINUOUS
 62
     7
 10
0
 20
-276.0500183105469
 11
0
 21
-285.0500183105469
  0
LINE
  8
0
  6
CONTINUOUS
 62
     3
 10
-1.763440741342492E-05
 20
-285.0500183105469
 11
8.071093559265137
 21
-276.0500183105469
  0
LINE
  8
0
  6
CONTINUOUS
 62
     3
 10
8.07111644744873
 20
-285.050048828125
 11
2.598193168523721E-05
 21
-276.0500793457031
  0
LINE
  8
0
  6
CONTINUOUS
 62
     3
 10
-8.071104049682617
 20
-276.0500183105469
 11
2.66493752860697E-05
 21
-285.050048828125
  0
LINE
  8
0
  6
CONTINUOUS
 62
     3
 10
37.597900390625
 20
-312.1455993652344
 11
33.74266052246094
 21
-328.844482421875
  0
LINE
  8
0
  6
CONTINUOUS
 62
     3
 10
49.12076568603516
 20
-330.3421936035156
 11
19.83978271484375
 21
-323.5821533203125
  0
LINE
  8
0
  6
CONTINUOUS
 62
     7
 10
22.5001220703125
 20
-324.1963195800781
 11
21.94206809997559
 21
-326.613525390625
  0
LINE
  8
0
  6
CONTINUOUS
 62
     7
 10
45.88500213623047
 20
-329.5951538085938
 11
45.32695007324219
 21
-332.0123596191406
  0
LINE
  8
0
  6
CONTINUOUS
 62
     7
 10
686.5
 20
-547.5
 11
686.5
 21
-402.5
  0
LINE
  8
0
  6
CONTINUOUS
 62
     7
 10
701.5
 20
-547.5
 11
701.5
 21
-402.5
  0
LINE
  8
0
  6
CONTINUOUS
 62
     7
 10
736.5
 20
-395
 11
736.5
 21
-555
  0
LINE
  8
0
  6
CONTINUOUS
 62
     7
 10
724.5
 20
-395
 11
736.5
 21
-395
  0
LINE
  8
0
  6
CONTINUOUS
 62
     7
 10
724.5
 20
-395
 11
724.5
 21
-555
  0
LINE
  8
0
  6
CONTINUOUS
 62
     7
 10
706.5
 20
-437
 11
719.5
 21
-437
  0
LINE
  8
0
  6
CONTINUOUS
 62
     7
 10
724.5
 20
-555
 11
736.5
 21
-555
  0
LINE
  8
0
  6
CONTINUOUS
 62
     7
 10
706.5
 20
-513
 11
719.5
 21
-513
  0
LINE
  8
0
  6
CONTINUOUS
 62
     7
 10
701.5
 20
-531
 11
724.5
 21
-531
  0
LINE
  8
0
  6
CONTINUOUS
 62
     7
 10
701.5
 20
-419
 11
724.5
 21
-419
  0
LINE
  8
0
  6
CONTINUOUS
 62
     7
 10
686.5
 20
-547.5
 11
701.5
 21
-547.5
  0
LINE
  8
0
  6
CONTINUOUS
 62
     7
 10
701.5
 20
-480
 11
724.5
 21
-480
  0
LINE
  8
0
  6
CONTINUOUS
 62
     7
 10
701.5
 20
-470
 11
724.5
 21
-470
  0
LINE
  8
0
  6
CONTINUOUS
 62
     7
 10
686.5
 20
-402.5
 11
701.5
 21
-402.5
  0
LINE
  8
0
  6
CONTINUOUS
 62
     7
 10
686.5
 20
72.5
 11
701.5
 21
72.5
  0
LINE
  8
0
  6
CONTINUOUS
 62
     7
 10
701.5
 20
5
 11
724.5
 21
5
  0
LINE
  8
0
  6
CONTINUOUS
 62
     7
 10
701.5
 20
-5
 11
724.5
 21
-5
  0
LINE
  8
0
  6
CONTINUOUS
 62
     7
 10
686.5
 20
-72.5
 11
701.5
 21
-72.5
  0
LINE
  8
0
  6
CONTINUOUS
 62
     7
 10
701.5
 20
56
 11
724.5
 21
56
  0
LINE
  8
0
  6
CONTINUOUS
 62
     7
 10
701.5
 20
-56
 11
724.5
 21
-56
  0
LINE
  8
0
  6
CONTINUOUS
 62
     7
 10
706.5
 20
-38
 11
719.5
 21
-38
  0
LINE
  8
0
  6
CONTINUOUS
 62
     7
 10
724.5
 20
-80
 11
736.5
 21
-80
  0
LINE
  8
0
  6
CONTINUOUS
 62
     7
 10
706.5
 20
38
 11
719.5
 21
38
  0
LINE
  8
0
  6
CONTINUOUS
 62
     7
 10
724.5
 20
80
 11
724.5
 21
-80
  0
LINE
  8
0
  6
CONTINUOUS
 62
     7
 10
724.5
 20
80
 11
736.5
 21
80
  0
LINE
  8
0
  6
CONTINUOUS
 62
     7
 10
736.5
 20
80
 11
736.5
 21
-80
  0
LINE
  8
0
  6
CONTINUOUS
 62
     7
 10
701.5
 20
-72.5
 11
701.5
 21
0
  0
LINE
  8
0
  6
CONTINUOUS
 62
     7
 10
686.5
 20
-72.5
 11
686.5
 21
0
  0
LINE
  8
0
  6
CONTINUOUS
 62
     7
 10
686.5
 20
0
 11
686.5
 21
72.5
  0
LINE
  8
0
  6
CONTINUOUS
 62
     7
 10
701.5
 20
0
 11
701.5
 21
72.5
  0
ARC
  8
0
  6
CONTINUOUS
 62
     7
 10
617
 20
-552.5
 40
5.000000000000019
 50
270.0000179860897
 51
0
  0
ARC
  8
0
  6
CONTINUOUS
 62
     7
 10
612
 20
-562.5
 40
5.000000000000019
 50
89.99998201391031
 51
179.9999640278219
  0
ARC
  8
0
  6
CONTINUOUS
 62
     7
 10
612
 20
-387.5
 40
5.000000000000038
 50
179.9999776881996
 51
269.9999733624889
  0
ARC
  8
0
  6
CONTINUOUS
 62
     7
 10
617
 20
-397.5
 40
5
 50
359.9999453584866
 51
89.99992737239695
  0
ARC
  8
0
  6
CONTINUOUS
 62
     7
 10
618
 20
-390.5
 40
2.000000000000038
 50
179.9999776882003
 51
270.0000280040029
  0
ARC
  8
0
  6
CONTINUOUS
 62
     7
 10
618
 20
-559.5
 40
1.999999999999985
 50
89.99998201391097
 51
179.9999640278219
  0
ARC
  8
0
  6
CONTINUOUS
 62
     7
 10
472
 20
-355
 40
4.999999999999981
 50
179.9999776881996
 51
270.0000280040023
  0
ARC
  8
0
  6
CONTINUOUS
 62
     7
 10
472
 20
-404.1546020507812
 40
5
 50
179.999991348578
 51
247.6128808859912
  0
ARC
  8
0
  6
CONTINUOUS
 62
     7
 10
514
 20
-531.9927978515625
 40
5
 50
0
 51
90.00000250447782
  0
ARC
  8
0
  6
CONTINUOUS
 62
     7
 10
514
 20
-418.0072326660156
 40
5.000000000000004
 50
269.9999974955222
 51
0
  0
ARC
  8
0
  6
CONTINUOUS
 62
     7
 10
472
 20
-545.8453979492188
 40
4.999999999999956
 50
112.3871086413541
 51
180.0000050089569
  0
CIRCLE
  8
0
  6
CONTINUOUS
 62
     3
 10
574
 20
-475
 40
4.990937232971191
  0
ARC
  8
0
  6
CONTINUOUS
 62
     7
 10
604
 20
-339
 40
20.50000000000002
 50
299.0160139577593
 51
3.019913073120957
  0
ARC
  8
0
  6
CONTINUOUS
 62
     7
 10
615
 20
-336.9199829101562
 40
23.00000000000002
 50
90.00000250447805
 51
180.0000050089564
  0
ARC
  8
0
  6
CONTINUOUS
 62
     7
 10
621
 20
-342.9199829101563
 40
5.000000000000004
 50
90.00000250447782
 51
180.0000050089563
  0
ARC
  8
0
  6
CONTINUOUS
 62
     7
 10
604
 20
-339
 40
20.49999999999999
 50
98.63801980438811
 51
239.9785872053713
  0
ARC
  8
0
  6
CONTINUOUS
 62
     7
 10
617
 20
77.49996948242187
 40
5
 50
0
 51
89.99998201391031
  0
ARC
  8
0
  6
CONTINUOUS
 62
     7
 10
617
 20
-77.5
 40
5.000000000000004
 50
270.0000179860897
 51
0
  0
ARC
  8
0
  6
CONTINUOUS
 62
     7
 10
612
 20
-87.5
 40
5.000000000000004
 50
89.99998201391031
 51
179.9999640278213
  0
ARC
  8
0
  6
CONTINUOUS
 62
     7
 10
612
 20
87.49996948242188
 40
5.000000000000038
 50
179.9999776881996
 51
270.0000280040023
  0
ARC
  8
0
  6
CONTINUOUS
 62
     7
 10
604
 20
0
 40
9.999999999999986
 50
23.57817672245736
 51
156.4218368242355
  0
ARC
  8
0
  6
CONTINUOUS
 62
     7
 10
587.5
 20
0
 40
4
 50
89.99998201391097
 51
270.0000006832446
  0
ARC
  8
0
  6
CONTINUOUS
 62
     7
 10
620.5
 20
0
 40
4
 50
270.0000179860891
 51
89.99998201391097
  0
ARC
  8
0
  6
CONTINUOUS
 62
     7
 10
604
 20
0
 40
10.00000000000001
 50
203.5781631757645
 51
336.4218232775426
  0
ARC
  8
0
  6
CONTINUOUS
 62
     7
 10
472
 20
70.84539794921875
 40
5
 50
179.999991348578
 51
247.6128808859913
  0
ARC
  8
0
  6
CONTINUOUS
 62
     7
 10
472
 20
-70.84539794921875
 40
4.999999999999996
 50
112.3871086413539
 51
180.0000050089563
  0
ARC
  8
0
  6
CONTINUOUS
 62
     7
 10
514
 20
56.9927978515625
 40
4.999999999999997
 50
269.9999974955222
 51
0
  0
ARC
  8
0
  6
CONTINUOUS
 62
     7
 10
514
 20
-56.9927978515625
 40
5
 50
0
 51
90.00000250447782
  0
ARC
  8
0
  6
CONTINUOUS
 62
     7
 10
431
 20
0
 40
9
 50
270.0000179860894
 51
89.99998201391061
  0
CIRCLE
  8
0
  6
CONTINUOUS
 62
     7
 10
493
 20
0
 40
13.5
  0
ARC
  8
0
  6
CONTINUOUS
 62
     7
 10
615.9979858398437
 20
-17.1929931640625
 40
4.999999999999965
 50
225.6327620434661
 51
269.9999974955222
  0
CIRCLE
  8
0
  6
CONTINUOUS
 62
     7
 10
0
 20
-475
 40
150
  0
ARC
  8
0
  6
CONTINUOUS
 62
     7
 10
0
 20
-475
 40
32.49999999999998
 50
106.0766695464224
 51
73.92333865025743
  0
ARC
  8
0
  6
CONTINUOUS
 62
     3
 10
0
 20
-475
 40
132.5
 50
333.1091217659313
 51
342.2186338544365
  0
CIRCLE
  8
0
  6
CONTINUOUS
 62
     7
 10
122.4140625
 20
-525.70556640625
 40
7.5
  0
CIRCLE
  8
0
  6
CONTINUOUS
 62
     7
 10
122.4140625
 20
-424.2944641113281
 40
7.5
  0
ARC
  8
0
  6
CONTINUOUS
 62
     3
 10
0
 20
-475
 40
132.5
 50
18.10912301817034
 51
27.21863510667556
  0
CIRCLE
  8
0
  6
CONTINUOUS
 62
     7
 10
50.70556640625
 20
-352.5859680175781
 40
7.5
  0
ARC
  8
0
  6
CONTINUOUS
 62
     3
 10
0
 20
-475
 40
132.5
 50
63.10911744022025
 51
72.21863635891464
  0
CIRCLE
  8
0
  6
CONTINUOUS
 62
     7
 10
-50.70556640625
 20
-352.5859680175781
 40
7.5
  0
ARC
  8
0
  6
CONTINUOUS
 62
     3
 10
0
 20
-475
 40
132.5
 50
108.1091152773648
 51
117.2186410262483
  0
CIRCLE
  8
0
  6
CONTINUOUS
 62
     7
 10
-122.4140625
 20
-424.2944641113281
 40
7.5
  0
ARC
  8
0
  6
CONTINUOUS
 62
     3
 10
0
 20
-475
 40
132.5
 50
153.1091131145093
 51
162.2186320332036
  0
CIRCLE
  8
0
  6
CONTINUOUS
 62
     7
 10
-122.4140625
 20
-525.70556640625
 40
7.5
  0
ARC
  8
0
  6
CONTINUOUS
 62
     3
 10
0
 20
-475
 40
132.5
 50
198.1091350846869
 51
207.218640343003
  0
CIRCLE
  8
0
  6
CONTINUOUS
 62
     7
 10
-50.70556640625
 20
-597.4140625
 40
7.5
  0
ARC
  8
0
  6
CONTINUOUS
 62
     3
 10
0
 20
-475
 40
132.5
 50
243.1091260916423
 51
252.2186381801475
  0
CIRCLE
  8
0
  6
CONTINUOUS
 62
     7
 10
50.70556640625
 20
-597.4140625
 40
7.5
  0
ARC
  8
0
  6
CONTINUOUS
 62
     3
 10
0
 20
-475
 40
132.5
 50
288.1091239287867
 51
297.218636017292
  0
CIRCLE
  8
0
  6
CONTINUOUS
 62
     7
 10
0
 20
-475
 40
55
  0
CIRCLE
  8
0
  6
CONTINUOUS
 62
     7
 10
0
 20
-475
 40
87.5
  0
ARC
  8
0
  6
CONTINUOUS
 62
     3
 10
0
 20
-475
 40
75
 50
323.8767994610546
 51
336.1231988692933
  0
ARC
  8
0
  6
CONTINUOUS
 62
     3
 10
0
 20
-475
 40
74.99999999999999
 50
23.87680113070673
 51
36.12320053894538
  0
ARC
  8
0
  6
CONTINUOUS
 62
     3
 10
0
 20
-475
 40
75
 50
83.87679938526426
 51
96.12319879350289
  0
ARC
  8
0
  6
CONTINUOUS
 62
     3
 10
0
 20
-475
 40
74.99999999999999
 50
143.8768010549164
 51
156.1231936329658
  0
ARC
  8
0
  6
CONTINUOUS
 62
     3
 10
0
 20
-475
 40
74.99999999999999
 50
203.8768063670341
 51
216.1231989450836
  0
ARC
  8
0
  6
CONTINUOUS
 62
     3
 10
0
 20
-475
 40
75.00000000000006
 50
263.8768012064971
 51
276.1232006147357
  0
ARC
  8
0
  6
CONTINUOUS
 62
     7
 10
0
 20
-475
 40
107.5
 50
19.35118096590611
 51
0.6488233475505203
  0
ARC
  8
0
  6
CONTINUOUS
 62
     7
 10
0
 20
-475
 40
115
 50
17.4935163607298
 51
2.506470877253908
  0
CIRCLE
  8
0
  6
CONTINUOUS
 62
     7
 10
103.40478515625
 20
-456.7669372558594
 40
17.5
  0
ARC
  8
0
  6
CONTINUOUS
 62
     7
 10
34.19256210327148
 20
-326.895751953125
 40
12
 50
347.0000002074245
 51
166.9999966786442
  0
ARC
  8
0
  6
CONTINUOUS
 62
     7
 10
719.5
 20
-518
 40
5
 50
0
 51
90.00000250447782
  0
ARC
  8
0
  6
CONTINUOUS
 62
     7
 10
719.5
 20
-432
 40
5.000000000000004
 50
269.9999974955222
 51
0
  0
ARC
  8
0
  6
CONTINUOUS
 62
     7
 10
706.5
 20
-432
 40
4.999999999999943
 50
179.999991348578
 51
270.0000006832456
  0
ARC
  8
0
  6
CONTINUOUS
 62
     7
 10
706.5
 20
-518
 40
5.000000000000004
 50
90.00000250447782
 51
180.0000050089569
  0
ARC
  8
0
  6
CONTINUOUS
 62
     7
 10
706.5
 20
-43
 40
4.999999999999997
 50
90.00000250447782
 51
180.0000050089563
  0
ARC
  8
0
  6
CONTINUOUS
 62
     7
 10
706.5
 20
43
 40
4.999999999999943
 50
179.999991348578
 51
270.0000006832456
  0
ARC
  8
0
  6
CONTINUOUS
 62
     7
 10
719.5
 20
43
 40
4.999999999999997
 50
269.9999974955222
 51
0
  0
ARC
  8
0
  6
CONTINUOUS
 62
     7
 10
719.5
 20
-43
 40
5
 50
0
 51
90.00000250447782
  0
POLYLINE
  8
0
  6
CONTINUOUS
 62
     7
 66
     1
 10
0
 20
0
  0
VERTEX
  8
0
  6
CONTINUOUS
 62
     7
 10
440.0004540503202
 20
-377.4781153295513
 42
-0.1753072597614682
  0
VERTEX
  8
0
  6
CONTINUOUS
 62
     7
 10
449.3538545564459
 20
-390.9189611020801
 42
-0.07487187039956648
  0
VERTEX
  8
0
  6
CONTINUOUS
 62
     7
 10
450.7736179171317
 20
-407.4921772099416
 42
-0.009977965626693862
  0
VERTEX
  8
0
  6
CONTINUOUS
 62
     7
 10
449.7578028558339
 20
-424.1587856927771
 42
0.006321303141573363
  0
VERTEX
  8
0
  6
CONTINUOUS
 62
     7
 10
448.6107851232615
 20
-440.8186717531027
 42
0.02428265730407071
  0
VERTEX
  8
0
  6
CONTINUOUS
 62
     7
 10
448.4855571206931
 20
-457.5100135725576
 42
0.02735404327713626
  0
VERTEX
  8
0
  6
CONTINUOUS
 62
     7
 10
450.293795218589
 20
-474.1018939112015
 42
-0.0245877519087531
  0
VERTEX
  8
0
  6
CONTINUOUS
 62
     7
 10
452.2208575297734
 20
-490.6824636379858
 42
-0.08166869850714024
  0
VERTEX
  8
0
  6
CONTINUOUS
 62
     7
 10
450.605481422848
 20
-507.2299418811816
 42
0.06572731692591799
  0
VERTEX
  8
0
  6
CONTINUOUS
 62
     7
 10
447.3678437625235
 20
-523.5579278021654
 42
-0.03410781111027485
  0
VERTEX
  8
0
  6
CONTINUOUS
 62
     7
 10
446.9893798998335
 20
-540.2302200888007
 42
-0.1191277430040598
  0
VERTEX
  8
0
  6
CONTINUOUS
 62
     7
 10
439.9994094412949
 20
-555.2209099269181
 42
0
  0
SEQEND
  8
0
  0
POLYLINE
  8
0
  6
CONTINUOUS
 62
     7
 66
     1
 10
0
 20
0
  0
VERTEX
  8
0
  6
CONTINUOUS
 62
     7
 10
592
 20
-348.3305053710937
 42
0.2480804210107619
  0
VERTEX
  8
0
  6
CONTINUOUS
 62
     7
 10
593.0447718207818
 20
-349.4321484668697
 42
0.04461264114313269
  0
VERTEX
  8
0
  6
CONTINUOUS
 62
     7
 10
594.5322104804544
 20
-349.989074439329
 42
0.02126264486451267
  0
VERTEX
  8
0
  6
CONTINUOUS
 62
     7
 10
596.0788158207034
 20
-350.3582582156118
 42
0.01385526862345371
  0
VERTEX
  8
0
  6
CONTINUOUS
 62
     7
 10
597.6478498819595
 20
-350.6207176437246
 42
0.01053225768806196
  0
VERTEX
  8
0
  6
CONTINUOUS
 62
     7
 10
599.2278894837708
 20
-350.8073029671515
 42
0.008816827702069813
  0
VERTEX
  8
0
  6
CONTINUOUS
 62
     7
 10
600.814381922105
 20
-350.9330802656928
 42
0.007912495517625327
  0
VERTEX
  8
0
  6
CONTINUOUS
 62
     7
 10
602.4043494194689
 20
-351.0059664074322
 42
0.007515339688125645
  0
VERTEX
  8
0
  6
CONTINUOUS
 62
     7
 10
603.995828187177
 20
-351.0299375810105
 42
0.007513639118875636
  0
VERTEX
  8
0
  6
CONTINUOUS
 62
     7
 10
605.5871634407916
 20
-351.0062218595772
 42
0.007907032799907661
  0
VERTEX
  8
0
  6
CONTINUOUS
 62
     7
 10
607.1767242327576
 20
-350.9336303294952
 42
0.008810272668451885
  0
VERTEX
  8
0
  6
CONTINUOUS
 62
     7
 10
608.7633014856598
 20
-350.8081609067104
 42
0.01052404923271075
  0
VERTEX
  8
0
  6
CONTINUOUS
 62
     7
 10
610.344027618059
 20
-350.6218566680257
 42
0.01384414848347753
  0
VERTEX
  8
0
  6
CONTINUOUS
 62
     7
 10
611.9144018921032
 20
-350.3595979073351
 42
0.0212465304321095
  0
VERTEX
  8
0
  6
CONTINUOUS
 62
     7
 10
613.4630253410336
 20
-349.9904497333082
 42
0.04455021776575484
  0
VERTEX
  8
0
  6
CONTINUOUS
 62
     7
 10
614.9523883006834
 20
-349.4335764484789
 42
0.2479897890751639
  0
VERTEX
  8
0
  6
CONTINUOUS
 62
     7
 10
616
 20
-348.3305053710937
 42
0
  0
SEQEND
  8
0
  0
POLYLINE
  8
0
  6
CONTINUOUS
 62
     7
 66
     1
 10
0
 20
0
  0
VERTEX
  8
0
  6
CONTINUOUS
 62
     7
 10
595.5
 20
-363.2413330078125
 42
0.2478632552116341
  0
VERTEX
  8
0
  6
CONTINUOUS
 62
     7
 10
596.248085776696
 20
-364.0092242097321
 42
0.04354537782655255
  0
VERTEX
  8
0
  6
CONTINUOUS
 62
     7
 10
597.3024632012268
 20
-364.3939701374021
 42
0.02075794984313904
  0
VERTEX
  8
0
  6
CONTINUOUS
 62
     7
 10
598.3972727475555
 20
-364.649064227886
 42
0.01353047399401965
  0
VERTEX
  8
0
  6
CONTINUOUS
 62
     7
 10
599.5072275572803
 20
-364.8304172728683
 42
0.01028825683531745
  0
VERTEX
  8
0
  6
CONTINUOUS
 62
     7
 10
600.6246121535164
 20
-364.959355296048
 42
0.008614206889687484
  0
VERTEX
  8
0
  6
CONTINUOUS
 62
     7
 10
601.7463654945263
 20
-365.0462864398266
 42
0.007731442429245251
  0
VERTEX
  8
0
  6
CONTINUOUS
 62
     7
 10
602.870470201367
 20
-365.0966793162795
 42
0.007343632302748798
  0
VERTEX
  8
0
  6
CONTINUOUS
 62
     7
 10
603.9956150429095
 20
-365.1132810009052
 42
0.007341380211315457
  0
VERTEX
  8
0
  6
CONTINUOUS
 62
     7
 10
605.1206415419116
 20
-365.0969407148604
 42
0.007724531199839143
  0
VERTEX
  8
0
  6
CONTINUOUS
 62
     7
 10
606.2444583918226
 20
-365.0468409121901
 42
0.008612328414172161
  0
VERTEX
  8
0
  6
CONTINUOUS
 62
     7
 10
607.3671816805288
 20
-364.9601361365537
 42
0.01027626486006111
  0
VERTEX
  8
0
  6
CONTINUOUS
 62
     7
 10
608.4850589754298
 20
-364.8314737313392
 42
0.01351160910530349
  0
VERTEX
  8
0
  6
CONTINUOUS
 62
     7
 10
609.5959772628006
 20
-364.6503658092447
 42
0.02072243687516013
  0
VERTEX
  8
0
  6
CONTINUOUS
 62
     7
 10
610.6922498505498
 20
-364.3954585541627
 42
0.04343657313885379
  0
VERTEX
  8
0
  6
CONTINUOUS
 62
     7
 10
611.7486150757054
 20
-364.0108374842576
 42
0.2478609004117311
  0
VERTEX
  8
0
  6
CONTINUOUS
 62
     7
 10
612.5
 20
-363.2413330078125
 42
0
  0
SEQEND
  8
0
  0
POLYLINE
  8
0
  6
CONTINUOUS
 62
     7
 66
     1
 10
0
 20
0
  0
VERTEX
  8
0
  6
CONTINUOUS
 62
     7
 10
440.000104794816
 20
74.63409754682024
 42
-0.04592299410830997
  0
VERTEX
  8
0
  6
CONTINUOUS
 62
     7
 10
446.5300618671724
 20
59.13235218086452
 42
-0.04744122615089172
  0
VERTEX
  8
0
  6
CONTINUOUS
 62
     7
 10
449.931953638551
 20
42.66128151384837
 42
-0.02920960640588358
  0
VERTEX
  8
0
  6
CONTINUOUS
 62
     7
 10
450.7813198232539
 20
25.84789205000698
 42
-0.01262769604238
  0
VERTEX
  8
0
  6
CONTINUOUS
 62
     7
 10
450.2338355003682
 20
9.01394995260444
 42
0.001318480003096598
  0
VERTEX
  8
0
  6
CONTINUOUS
 62
     7
 10
449.3069455064159
 20
-7.805312976159762
 42
0.01585887023864238
  0
VERTEX
  8
0
  6
CONTINUOUS
 62
     7
 10
448.9537152058117
 20
-24.6432378379936
 42
0.005745509047635718
  0
VERTEX
  8
0
  6
CONTINUOUS
 62
     7
 10
449.5866344633367
 20
-41.47531565138327
 42
-0.04443778082386027
  0
VERTEX
  8
0
  6
CONTINUOUS
 62
     7
 10
449.2611890960507
 20
-58.28861819833459
 42
-0.2293747543283158
  0
VERTEX
  8
0
  6
CONTINUOUS
 62
     7
 10
439.99859292398
 20
-71.69774480316303
 42
0
  0
SEQEND
  8
0
  0
POLYLINE
  8
0
  6
CONTINUOUS
 62
     7
 66
     1
 10
0
 20
0
  0
VERTEX
  8
0
  6
CONTINUOUS
 62
     7
 10
592
 20
-31.71853828430176
 42
0.05059491804565653
  0
VERTEX
  8
0
  6
CONTINUOUS
 62
     7
 10
592.1884986650218
 20
-33.56787502799612
 42
0.04716348060100473
  0
VERTEX
  8
0
  6
CONTINUOUS
 62
     7
 10
592.7339920471408
 20
-35.34602953738992
 42
0.04170062768883802
  0
VERTEX
  8
0
  6
CONTINUOUS
 62
     7
 10
593.585551384153
 20
-36.99966877999796
 42
0.03588152117352139
  0
VERTEX
  8
0
  6
CONTINUOUS
 62
     7
 10
594.6825572159941
 20
-38.50245495429014
 42
0.03066398704874478
  0
VERTEX
  8
0
  6
CONTINUOUS
 62
     7
 10
595.9694646079987
 20
-39.84727452742634
 42
0.02635005710650333
  0
VERTEX
  8
0
  6
CONTINUOUS
 62
     7
 10
597.4008290281437
 20
-41.03741148341581
 42
0.02293336125982269
  0
VERTEX
  8
0
  6
CONTINUOUS
 62
     7
 10
598.9425717768778
 20
-42.0815649798125
 42
0.0202682188355918
  0
VERTEX
  8
0
  6
CONTINUOUS
 62
     7
 10
600.5691225385541
 20
-42.98941728767588
 42
0.01819160847443726
  0
VERTEX
  8
0
  6
CONTINUOUS
 62
     7
 10
602.260216887728
 20
-43.76969778534058
 42
0.0165947795422545
  0
VERTEX
  8
0
  6
CONTINUOUS
 62
     7
 10
604.0019691703764
 20
-44.43094395153871
 42
0.01536230671644127
  0
VERTEX
  8
0
  6
CONTINUOUS
 62
     7
 10
605.7823600005315
 20
-44.97975174075737
 42
0.01442614238287006
  0
VERTEX
  8
0
  6
CONTINUOUS
 62
     7
 10
607.5923226127653
 20
-45.42172702329901
 42
0.0137315782995182
  0
VERTEX
  8
0
  6
CONTINUOUS
 62
     7
 10
609.4243874284953
 20
-45.76125527333419
 42
0.01323990660456937
  0
VERTEX
  8
0
  6
CONTINUOUS
 62
     7
 10
611.2721711596353
 20
-46.00161511430872
 42
0.01292485919280855
  0
VERTEX
  8
0
  6
CONTINUOUS
 62
     7
 10
613.1300043523247
 20
-46.14508071948389
 42
0.0127704665830092
  0
VERTEX
  8
0
  6
CONTINUOUS
 62
     7
 10
614.9926973588367
 20
-46.19300006387064
 42
0
  0
SEQEND
  8
0
  0
POLYLINE
  8
0
  6
CONTINUOUS
 62
     7
 66
     1
 10
0
 20
0
  0
VERTEX
  8
0
  6
CONTINUOUS
 62
     7
 10
612.5019989453006
 20
-20.76764258091871
 42
0.03674702795451849
  0
VERTEX
  8
0
  6
CONTINUOUS
 62
     7
 10
611.1649333270993
 20
-19.63964425015092
 42
0.03635561614823001
  0
VERTEX
  8
0
  6
CONTINUOUS
 62
     7
 10
609.6776214385787
 20
-18.7182037072358
 42
0.03602153408045245
  0
VERTEX
  8
0
  6
CONTINUOUS
 62
     7
 10
608.072779330156
 20
-18.02071587591295
 42
0.03576746137080639
  0
VERTEX
  8
0
  6
CONTINUOUS
 62
     7
 10
606.3846184140033
 20
-17.55987114237666
 42
0.03560862896497337
  0
VERTEX
  8
0
  6
CONTINUOUS
 62
     7
 10
604.6483123564419
 20
-17.34376143832108
 42
0.03555213439227278
  0
VERTEX
  8
0
  6
CONTINUOUS
 62
     7
 10
602.8995938478058
 20
-17.37594950785639
 42
0.03561922393191932
  0
VERTEX
  8
0
  6
CONTINUOUS
 62
     7
 10
601.1733335211638
 20
-17.65569982062436
 42
0.03581097405834167
  0
VERTEX
  8
0
  6
CONTINUOUS
 62
     7
 10
599.5039631798609
 20
-18.17838167847321
 42
0.03608618917564263
  0
VERTEX
  8
0
  6
CONTINUOUS
 62
     7
 10
597.9268209295735
 20
-18.93467806934056
 42
0.03644317208884772
  0
VERTEX
  8
0
  6
CONTINUOUS
 62
     7
 10
596.4754749175041
 20
-19.91090085209937
 42
0.03685493945738864
  0
VERTEX
  8
0
  6
CONTINUOUS
 62
     7
 10
595.1820597856583
 20
-21.08869102982046
 42
0.03728605978607549
  0
VERTEX
  8
0
  6
CONTINUOUS
 62
     7
 10
594.0765837151671
 20
-22.44477613840527
 42
0.03769688599420863
  0
VERTEX
  8
0
  6
CONTINUOUS
 62
     7
 10
593.1859139161265
 20
-23.95094499824237
 42
0.03804676710956057
  0
VERTEX
  8
0
  6
CONTINUOUS
 62
     7
 10
592.5326187776599
 20
-25.57432142161662
 42
0.038298390088541
  0
VERTEX
  8
0
  6
CONTINUOUS
 62
     7
 10
592.1337891071573
 20
-27.27801571561323
 42
0.03841513735345704
  0
VERTEX
  8
0
  6
CONTINUOUS
 62
     7
 10
592.0000003223651
 20
-29.02183519809993
 42
0
  0
SEQEND
  8
0
  0
TEXT
  8
0
  6
CONTINUOUS
 62
     7
 10
-146.4285755157471
 20
-12.5
 40
25
 41
0.9993229798231079
  1
ERKV-NAD-200
  0
ENDSEC
  0
EOF
