  0
SECTION
  2
HEADER
  0
ENDSEC
  0
SECTION
  2
TABLES
  0
TABLE
  2
LTYPE
 70
    22
  0
LTYPE
  2
CONTINUOUS
 70
    64
  3
Solid line
 72
    65
 73
     0
 40
0.000000
  0
LTYPE
  2
DASHED
 70
    64
  3
__ __ __ __ __ __ __ __ __ __ __ __ __ __ __
 72
    65
 73
     2
 40
3.500000
 49
2.000000
 49
-1.500000
  0
LTYPE
  2
CENTER
 70
    64
  3
____ _ ____ _ ____ _ ____ _ ____ _ ____ _ ____
 72
    65
 73
     4
 40
17.500000
 49
13.000000
 49
-1.500000
 49
1.500000
 49
-1.500000
  0
LTYPE
  2
PHANTOM
 70
    64
  3
_____ _ _ _____ _ _ _____ _ _ _____ _ _ ____  
 72
    65
 73
     6
 40
15.500000
 49
8.000000
 49
-1.500000
 49
1.500000
 49
-1.500000
 49
1.500000
 49
-1.500000
  0
LTYPE
  2
DOT
 70
    64
  3
. . . . . . . . . . . . . . . . . . . . . . . .
 72
    65
 73
     2
 40
0.25
 49
0.0
 49
-0.25
  0
ENDTAB
  0
TABLE
  2
LAYER
 70
     1
  0
LAYER
  2
0
 70
     0
 62
     7
  6
CONTINUOUS
  0
ENDTAB
  0
TABLE
  2
STYLE
 70
     1
  0
STYLE
  2
STANDARD
 70
     0
 40
0.000000
 41
1.000000
 50
0.000000
 71
     0
 42
0.200000
  3
txt
  0
ENDTAB
  0
TABLE
  2
VIEW
 70
     0
  0
ENDTAB
  0
ENDSEC
  0
SECTION
  2
BLOCKS
  0
ENDSEC
  0
SECTION
  2
ENTITIES
  0
LINE
  8
0
  6
CONTINUOUS
 62
     7
 10
474
 20
-256.9144287109375
 11
474
 21
-442.5
  0
LINE
  8
0
  6
CONTINUOUS
 62
     7
 10
524
 20
-276.5
 11
524
 21
-423.5
  0
LINE
  8
0
  6
CONTINUOUS
 62
     7
 10
484
 20
-262.6873474121094
 11
484
 21
-297.8764038085938
  0
LINE
  8
0
  6
CONTINUOUS
 62
     7
 10
514
 20
-277.5
 11
514
 21
-422.5
  0
LINE
  8
0
  6
CONTINUOUS
 62
     7
 10
514
 20
-422.5
 11
524
 21
-422.5
  0
LINE
  8
0
  6
CONTINUOUS
 62
     7
 10
514
 20
-277.5
 11
524
 21
-277.5
  0
LINE
  8
0
  6
CONTINUOUS
 62
     7
 10
474
 20
-442.5
 11
492
 21
-442.5
  0
LINE
  8
0
  6
CONTINUOUS
 62
     7
 10
484
 20
-353
 11
514
 21
-353
  0
LINE
  8
0
  6
CONTINUOUS
 62
     7
 10
484
 20
-347
 11
514
 21
-347
  0
LINE
  8
0
  6
CONTINUOUS
 62
     7
 10
492
 20
-297.8764038085938
 11
492
 21
-327.0842895507812
  0
LINE
  8
0
  6
CONTINUOUS
 62
     7
 10
484.0000305175781
 20
-272.7672729492188
 11
514.0000610351562
 21
-290.1010131835937
  0
LINE
  8
0
  6
CONTINUOUS
 62
     7
 10
484
 20
-315.1968994140625
 11
484
 21
-384.8031005859375
  0
LINE
  8
0
  6
CONTINUOUS
 62
     7
 10
492
 20
-257.5
 11
492
 21
-277.3896179199219
  0
LINE
  8
0
  6
CONTINUOUS
 62
     7
 10
484
 20
-442.5
 11
484
 21
-402.1235961914062
  0
LINE
  8
0
  6
CONTINUOUS
 62
     7
 10
492
 20
-442.5
 11
492
 21
-422.6104125976563
  0
LINE
  8
0
  6
CONTINUOUS
 62
     7
 10
483.9999694824219
 20
-427.2327880859375
 11
514
 21
-409.8990783691406
  0
LINE
  8
0
  6
CONTINUOUS
 62
     7
 10
492
 20
-307.2402954101563
 11
514
 21
-307.2402954101563
  0
LINE
  8
0
  6
CONTINUOUS
 62
     7
 10
492
 20
-392.7596435546875
 11
514
 21
-392.7596435546875
  0
LINE
  8
0
  6
CONTINUOUS
 62
     7
 10
474.8667907714844
 20
-251.97412109375
 11
474.0000305175781
 21
-256.9144592285156
  0
LINE
  8
0
  6
CONTINUOUS
 62
     7
 10
482
 20
-250.0419921875
 11
487.5560302734375
 21
-251.23583984375
  0
LINE
  8
0
  6
CONTINUOUS
 62
     7
 10
481.9999389648437
 20
-250.0420074462891
 11
476.44384765625
 21
-251.2358856201172
  0
LINE
  8
0
  6
CONTINUOUS
 62
     7
 10
489.13330078125
 20
-251.9740447998047
 11
489.9963989257812
 21
-256.8933410644531
  0
LINE
  8
0
  6
CONTINUOUS
 62
     7
 10
474
 20
-257.5
 11
492
 21
-257.5
  0
LINE
  8
0
  6
CONTINUOUS
 62
     7
 10
484
 20
-297.8764038085938
 11
492
 21
-297.8764038085938
  0
LINE
  8
0
  6
CONTINUOUS
 62
     7
 10
484
 20
-315.1968994140625
 11
492
 21
-315.1968994140625
  0
LINE
  8
0
  6
CONTINUOUS
 62
     7
 10
484
 20
-384.8031005859375
 11
492
 21
-384.8031005859375
  0
LINE
  8
0
  6
CONTINUOUS
 62
     7
 10
492
 20
-402.1235961914062
 11
492
 21
-372.9157104492188
  0
LINE
  8
0
  6
CONTINUOUS
 62
     7
 10
484
 20
-402.1235961914062
 11
492
 21
-402.1235961914062
  0
LINE
  8
0
  6
CONTINUOUS
 62
     7
 10
489.9962768554688
 20
-256.8933715820313
 11
489.9962768554688
 21
-257.5
  0
LINE
  8
0
  6
CONTINUOUS
 62
     7
 10
428
 20
-434.6587219238281
 11
470
 21
-434.6587219238281
  0
LINE
  8
0
  6
CONTINUOUS
 62
     7
 10
428
 20
-445
 11
470
 21
-445
  0
LINE
  8
0
  6
CONTINUOUS
 62
     7
 10
428
 20
-255
 11
470
 21
-255
  0
LINE
  8
0
  6
CONTINUOUS
 62
     7
 10
428.0000915527344
 20
-255.0001068115234
 11
424.0000915527344
 21
-259.0000915527344
  0
LINE
  8
0
  6
CONTINUOUS
 62
     7
 10
424.0000305175781
 20
-440.9999389648437
 11
428.0000305175781
 21
-444.9999389648437
  0
LINE
  8
0
  6
CONTINUOUS
 62
     7
 10
470.0000305175781
 20
-445.0000305175781
 11
474.0000305175781
 21
-441.0000305175781
  0
LINE
  8
0
  6
CONTINUOUS
 62
     7
 10
474
 20
-259
 11
470
 21
-255
  0
LINE
  8
0
  6
CONTINUOUS
 62
     7
 10
428
 20
-439.26123046875
 11
470
 21
-439.26123046875
  0
LINE
  8
0
  6
CONTINUOUS
 62
     7
 10
428
 20
-312.3461303710937
 11
470
 21
-312.3461303710937
  0
LINE
  8
0
  6
CONTINUOUS
 62
     7
 10
428
 20
-323.7876892089844
 11
470
 21
-323.7876892089844
  0
LINE
  8
0
  6
CONTINUOUS
 62
     7
 10
428
 20
-333.5312194824219
 11
470
 21
-333.5312194824219
  0
LINE
  8
0
  6
CONTINUOUS
 62
     7
 10
428
 20
-345.0005187988281
 11
470
 21
-345.0005187988281
  0
LINE
  8
0
  6
CONTINUOUS
 62
     7
 10
428
 20
-355.0001220703125
 11
470
 21
-355.0001220703125
  0
LINE
  8
0
  6
CONTINUOUS
 62
     7
 10
428
 20
-366.4694519042969
 11
470
 21
-366.4694519042969
  0
LINE
  8
0
  6
CONTINUOUS
 62
     7
 10
428
 20
-376.2124633789062
 11
470
 21
-376.2124633789062
  0
LINE
  8
0
  6
CONTINUOUS
 62
     7
 10
428
 20
-387.6537170410156
 11
470
 21
-387.6537170410156
  0
LINE
  8
0
  6
CONTINUOUS
 62
     7
 10
428
 20
-406.7067260742187
 11
470
 21
-406.7067260742187
  0
LINE
  8
0
  6
CONTINUOUS
 62
     7
 10
428
 20
-415.9718017578125
 11
470
 21
-415.9718017578125
  0
LINE
  8
0
  6
CONTINUOUS
 62
     7
 10
428
 20
-422.7931823730469
 11
470
 21
-422.7931823730469
  0
LINE
  8
0
  6
CONTINUOUS
 62
     7
 10
428
 20
-429.6584777832031
 11
470
 21
-429.6584777832031
  0
LINE
  8
0
  6
CONTINUOUS
 62
     7
 10
524
 20
-276.5
 11
546.5
 21
-276.5
  0
LINE
  8
0
  6
CONTINUOUS
 62
     7
 10
546.5
 20
-276.5
 11
546.5
 21
-423.5
  0
LINE
  8
0
  6
CONTINUOUS
 62
     7
 10
524
 20
-423.5
 11
546.5
 21
-423.5
  0
LINE
  8
0
  6
CONTINUOUS
 62
     7
 10
315
 20
-225
 11
315
 21
-288.0472106933594
  0
LINE
  8
0
  6
CONTINUOUS
 62
     7
 10
315
 20
-225
 11
333
 21
-225
  0
LINE
  8
0
  6
CONTINUOUS
 62
     7
 10
333
 20
-225
 11
333
 21
-475
  0
LINE
  8
0
  6
CONTINUOUS
 62
     7
 10
424
 20
-257.5
 11
424
 21
-442.5
  0
LINE
  8
0
  6
CONTINUOUS
 62
     7
 10
409
 20
-257.5
 11
409
 21
-265.6248168945312
  0
LINE
  8
0
  6
CONTINUOUS
 62
     7
 10
409
 20
-257.5
 11
424
 21
-257.5
  0
LINE
  8
0
  6
CONTINUOUS
 62
     7
 10
315
 20
-475
 11
333
 21
-475
  0
LINE
  8
0
  6
CONTINUOUS
 62
     7
 10
409
 20
-442.5
 11
424
 21
-442.5
  0
LINE
  8
0
  6
CONTINUOUS
 62
     3
 10
235
 20
-350
 11
623.2935180664063
 21
-350
  0
LINE
  8
0
  6
CONTINUOUS
 62
     7
 10
333
 20
-427.3218078613281
 11
409
 21
-411.9439392089844
  0
LINE
  8
0
  6
CONTINUOUS
 62
     7
 10
332.9999694824219
 20
-434.1417846679687
 11
409
 21
-418.763916015625
  0
LINE
  8
0
  6
CONTINUOUS
 62
     7
 10
333
 20
-310.1224365234375
 11
399.4738159179687
 21
-310.1224365234375
  0
LINE
  8
0
  6
CONTINUOUS
 62
     7
 10
333
 20
-389.8775634765625
 11
399.4737854003906
 21
-389.8775634765625
  0
LINE
  8
0
  6
CONTINUOUS
 62
     7
 10
399.4738159179687
 20
-310.1224060058594
 11
409
 21
-304.6224670410156
  0
LINE
  8
0
  6
CONTINUOUS
 62
     7
 10
399.4737854003906
 20
-389.8775939941406
 11
408.9999694824219
 21
-395.3775329589844
  0
LINE
  8
0
  6
CONTINUOUS
 62
     7
 10
250
 20
-324
 11
250
 21
-372.5
  0
LINE
  8
0
  6
CONTINUOUS
 62
     7
 10
311
 20
-260
 11
311
 21
-283.905029296875
  0
LINE
  8
0
  6
CONTINUOUS
 62
     7
 10
311
 20
-260
 11
315
 21
-260
  0
LINE
  8
0
  6
CONTINUOUS
 62
     7
 10
311
 20
-440
 11
315
 21
-440
  0
LINE
  8
0
  6
CONTINUOUS
 62
     7
 10
250
 20
-372.5
 11
315
 21
-372.5
  0
LINE
  8
0
  6
CONTINUOUS
 62
     7
 10
250
 20
-327.5
 11
315
 21
-327.5
  0
LINE
  8
0
  6
CONTINUOUS
 62
     7
 10
315
 20
-392.3465270996094
 11
315
 21
-475
  0
LINE
  8
0
  6
CONTINUOUS
 62
     7
 10
311
 20
-395.3009643554687
 11
311
 21
-440
  0
LINE
  8
0
  6
CONTINUOUS
 62
     7
 10
315
 20
-322.5
 11
315
 21
-377.5
  0
LINE
  8
0
  6
CONTINUOUS
 62
     7
 10
315
 20
-377.5
 11
321.5388793945312
 21
-377.5
  0
LINE
  8
0
  6
CONTINUOUS
 62
     7
 10
315
 20
-322.5
 11
319.3119506835938
 21
-322.5
  0
LINE
  8
0
  6
CONTINUOUS
 62
     7
 10
250
 20
-324
 11
300
 21
-324
  0
LINE
  8
0
  6
CONTINUOUS
 62
     7
 10
300
 20
-324
 11
300
 21
-327.5
  0
LINE
  8
0
  6
CONTINUOUS
 62
     7
 10
333
 20
-273.1717834472656
 11
393.9999694824219
 21
-287.5118713378906
  0
LINE
  8
0
  6
CONTINUOUS
 62
     7
 10
333
 20
-265.8581848144531
 11
390.4972839355469
 21
-279.3748779296875
  0
LINE
  8
0
  6
CONTINUOUS
 62
     7
 10
409
 20
-287.5118408203125
 11
394
 21
-287.5118408203125
  0
LINE
  8
0
  6
CONTINUOUS
 62
     7
 10
409
 20
-287.5118408203125
 11
409
 21
-442.5
  0
LINE
  8
0
  6
CONTINUOUS
 62
     7
 10
392.8227233886719
 20
-278.1431274414062
 11
394.5532531738281
 21
-273.6235961914062
  0
LINE
  8
0
  6
CONTINUOUS
 62
     7
 10
474
 20
92.49996948242188
 11
474
 21
24.276123046875
  0
LINE
  8
0
  6
CONTINUOUS
 62
     7
 10
524
 20
73.49996948242188
 11
524
 21
-73.5
  0
LINE
  8
0
  6
CONTINUOUS
 62
     7
 10
484
 20
92.49996948242188
 11
484
 21
84.63784790039063
  0
LINE
  8
0
  6
CONTINUOUS
 62
     7
 10
514
 20
72.49996948242187
 11
514
 21
-72.5
  0
LINE
  8
0
  6
CONTINUOUS
 62
     7
 10
514
 20
-72.5
 11
524
 21
-72.5
  0
LINE
  8
0
  6
CONTINUOUS
 62
     7
 10
514
 20
72.49996948242187
 11
524
 21
72.49996948242187
  0
LINE
  8
0
  6
CONTINUOUS
 62
     7
 10
474
 20
-92.5
 11
484
 21
-92.5
  0
LINE
  8
0
  6
CONTINUOUS
 62
     7
 10
474
 20
92.49996948242188
 11
484
 21
92.49996948242188
  0
LINE
  8
0
  6
CONTINUOUS
 62
     7
 10
492
 20
14.7767333984375
 11
492
 21
-16.06246948242188
  0
LINE
  8
0
  6
CONTINUOUS
 62
     7
 10
492
 20
84.63784790039063
 11
492
 21
43.65377807617188
  0
LINE
  8
0
  6
CONTINUOUS
 62
     7
 10
484
 20
84.63784790039063
 11
492
 21
84.63784790039063
  0
LINE
  8
0
  6
CONTINUOUS
 62
     7
 10
484
 20
74.63790893554688
 11
492
 21
74.63790893554688
  0
LINE
  8
0
  6
CONTINUOUS
 62
     7
 10
484
 20
74.63790893554688
 11
484
 21
24.72079467773438
  0
LINE
  8
0
  6
CONTINUOUS
 62
     7
 10
484
 20
46.32245254516602
 11
514
 21
36.31482696533203
  0
LINE
  8
0
  6
CONTINUOUS
 62
     7
 10
484
 20
-46.32245254516602
 11
514
 21
-36.31482696533203
  0
LINE
  8
0
  6
CONTINUOUS
 62
     7
 10
484
 20
-74.63787841796875
 11
484
 21
-24.68450927734375
  0
LINE
  8
0
  6
CONTINUOUS
 62
     7
 10
492
 20
-84.63784790039063
 11
492
 21
-43.65377807617188
  0
LINE
  8
0
  6
CONTINUOUS
 62
     7
 10
484
 20
-74.63787841796875
 11
492
 21
-74.63787841796875
  0
LINE
  8
0
  6
CONTINUOUS
 62
     7
 10
484
 20
-84.63784790039063
 11
492
 21
-84.63784790039063
  0
LINE
  8
0
  6
CONTINUOUS
 62
     7
 10
484
 20
-92.5
 11
484
 21
-84.63784790039063
  0
LINE
  8
0
  6
CONTINUOUS
 62
     7
 10
492
 20
-52.5
 11
514
 21
-52.5
  0
LINE
  8
0
  6
CONTINUOUS
 62
     7
 10
492
 20
52.5
 11
514
 21
52.5
  0
LINE
  8
0
  6
CONTINUOUS
 62
     7
 10
497.3359375
 20
21.80056762695313
 11
514
 21
21.80056762695313
  0
LINE
  8
0
  6
CONTINUOUS
 62
     7
 10
489.5822448730469
 20
-21.800537109375
 11
514
 21
-21.800537109375
  0
LINE
  8
0
  6
CONTINUOUS
 62
     7
 10
474
 20
14.44729614257812
 11
474
 21
-92.5
  0
LINE
  8
0
  6
CONTINUOUS
 62
     7
 10
492.0000305175781
 20
-82.07960510253906
 11
514
 21
-67.31462860107422
  0
LINE
  8
0
  6
CONTINUOUS
 62
     7
 10
492.0000915527344
 20
82.07956695556641
 11
514.0000610351562
 21
67.31461334228516
  0
LINE
  8
0
  6
CONTINUOUS
 62
     7
 10
427.9999694824219
 20
11.00006103515625
 11
470.0000915527344
 21
11.00006103515625
  0
LINE
  8
0
  6
CONTINUOUS
 62
     7
 10
428
 20
-95
 11
470
 21
-95
  0
LINE
  8
0
  6
CONTINUOUS
 62
     7
 10
428
 20
94.99996948242188
 11
470
 21
94.99996948242188
  0
LINE
  8
0
  6
CONTINUOUS
 62
     7
 10
428.0001525878906
 20
94.99988555908203
 11
424.0001220703125
 21
90.99988555908203
  0
LINE
  8
0
  6
CONTINUOUS
 62
     7
 10
423.9999694824219
 20
-90.99991607666016
 11
427.9999694824219
 21
-94.99991607666016
  0
LINE
  8
0
  6
CONTINUOUS
 62
     7
 10
470.0000610351563
 20
-95.00008392333984
 11
474.0000915527344
 21
-91.00007629394531
  0
LINE
  8
0
  6
CONTINUOUS
 62
     7
 10
473.9999694824219
 20
91.00001525878906
 11
469.9999694824219
 21
95.00001525878906
  0
LINE
  8
0
  6
CONTINUOUS
 62
     7
 10
427.9999694824219
 20
-87.21929931640625
 11
470.0000915527344
 21
-87.21929931640625
  0
LINE
  8
0
  6
CONTINUOUS
 62
     7
 10
427.9999694824219
 20
87.21896362304687
 11
470.0000915527344
 21
87.21896362304687
  0
LINE
  8
0
  6
CONTINUOUS
 62
     7
 10
427.9999694824219
 20
76.21878051757812
 11
470.0000915527344
 21
76.21878051757812
  0
LINE
  8
0
  6
CONTINUOUS
 62
     7
 10
427.9999694824219
 20
68.35665893554687
 11
470.0000915527344
 21
68.35665893554687
  0
LINE
  8
0
  6
CONTINUOUS
 62
     7
 10
427.9999694824219
 20
61.04364013671875
 11
470.0000915527344
 21
61.04364013671875
  0
LINE
  8
0
  6
CONTINUOUS
 62
     7
 10
427.9999694824219
 20
51.76449584960938
 11
470.0000915527344
 21
51.76449584960938
  0
LINE
  8
0
  6
CONTINUOUS
 62
     7
 10
427.9999694824219
 20
43.10443115234375
 11
470.0000915527344
 21
43.10443115234375
  0
LINE
  8
0
  6
CONTINUOUS
 62
     7
 10
427.9999694824219
 20
32.51864624023438
 11
470.0000915527344
 21
32.51864624023438
  0
LINE
  8
0
  6
CONTINUOUS
 62
     7
 10
427.9999694824219
 20
22.95574951171875
 11
469.1585693359375
 21
22.95574951171875
  0
LINE
  8
0
  6
CONTINUOUS
 62
     7
 10
524
 20
73.49996948242188
 11
546.5
 21
73.49996948242188
  0
LINE
  8
0
  6
CONTINUOUS
 62
     7
 10
546.5
 20
73.49996948242188
 11
546.5
 21
-73.5
  0
LINE
  8
0
  6
CONTINUOUS
 62
     7
 10
524
 20
-73.5
 11
546.5
 21
-73.5
  0
LINE
  8
0
  6
CONTINUOUS
 62
     7
 10
315
 20
-125
 11
315
 21
-34.81515502929687
  0
LINE
  8
0
  6
CONTINUOUS
 62
     7
 10
315
 20
-125
 11
333
 21
-125
  0
LINE
  8
0
  6
CONTINUOUS
 62
     7
 10
333
 20
-125
 11
333
 21
125.0000305175781
  0
LINE
  8
0
  6
CONTINUOUS
 62
     7
 10
424
 20
-92.5
 11
424
 21
92.50003051757812
  0
LINE
  8
0
  6
CONTINUOUS
 62
     7
 10
409
 20
-92.5
 11
409
 21
-65.34310913085938
  0
LINE
  8
0
  6
CONTINUOUS
 62
     7
 10
409
 20
-92.5
 11
424
 21
-92.5
  0
LINE
  8
0
  6
CONTINUOUS
 62
     7
 10
315
 20
125.0000305175781
 11
333
 21
125.0000305175781
  0
LINE
  8
0
  6
CONTINUOUS
 62
     7
 10
409
 20
92.50003051757812
 11
424
 21
92.50003051757812
  0
LINE
  8
0
  6
CONTINUOUS
 62
     3
 10
235
 20
0
 11
620.7772827148438
 21
0
  0
LINE
  8
0
  6
CONTINUOUS
 62
     7
 10
409
 20
-40.7685546875
 11
409
 21
92.50003051757812
  0
LINE
  8
0
  6
CONTINUOUS
 62
     7
 10
389.6108703613281
 20
-38.56399154663086
 11
394.3708801269531
 21
-55.77130126953125
  0
LINE
  8
0
  6
CONTINUOUS
 62
     7
 10
338
 20
40.11474609375
 11
404
 21
40.11474609375
  0
LINE
  8
0
  6
CONTINUOUS
 62
     7
 10
338
 20
13.4346923828125
 11
404
 21
13.4346923828125
  0
LINE
  8
0
  6
CONTINUOUS
 62
     7
 10
333.0000305175781
 20
78.94040679931641
 11
409
 21
64.60031127929688
  0
LINE
  8
0
  6
CONTINUOUS
 62
     7
 10
333
 20
71.62687683105469
 11
409
 21
57.28676986694336
  0
LINE
  8
0
  6
CONTINUOUS
 62
     7
 10
394.9172973632813
 20
-57.28677368164062
 11
394
 21
-57.28677368164062
  0
LINE
  8
0
  6
CONTINUOUS
 62
     7
 10
403.862060546875
 20
-64.60031127929688
 11
394
 21
-64.60031127929688
  0
LINE
  8
0
  6
CONTINUOUS
 62
     7
 10
332.9999694824219
 20
-71.62686157226562
 11
394
 21
-57.28675842285156
  0
LINE
  8
0
  6
CONTINUOUS
 62
     7
 10
332.9999694824219
 20
-78.94042205810547
 11
393.9999694824219
 21
-64.60031890869141
  0
LINE
  8
0
  6
CONTINUOUS
 62
     7
 10
333
 20
-36.42343139648437
 11
389.2564697265625
 21
-36.42343139648437
  0
LINE
  8
0
  6
CONTINUOUS
 62
     7
 10
250
 20
-22.5
 11
250
 21
22.5
  0
LINE
  8
0
  6
CONTINUOUS
 62
     7
 10
311
 20
-90
 11
311
 21
-37.5
  0
LINE
  8
0
  6
CONTINUOUS
 62
     7
 10
311
 20
-90
 11
315
 21
-90
  0
LINE
  8
0
  6
CONTINUOUS
 62
     7
 10
311
 20
90.00003051757813
 11
315
 21
90.00003051757813
  0
LINE
  8
0
  6
CONTINUOUS
 62
     7
 10
250
 20
22.5
 11
315
 21
22.5
  0
LINE
  8
0
  6
CONTINUOUS
 62
     7
 10
250
 20
-22.5
 11
315
 21
-22.5
  0
LINE
  8
0
  6
CONTINUOUS
 62
     7
 10
311
 20
37.5
 11
311
 21
90.00003051757813
  0
LINE
  8
0
  6
CONTINUOUS
 62
     7
 10
315
 20
33.75238037109375
 11
315
 21
125.0000305175781
  0
LINE
  8
0
  6
CONTINUOUS
 62
     7
 10
250
 20
7
 11
303
 21
7
  0
LINE
  8
0
  6
CONTINUOUS
 62
     7
 10
250
 20
-7
 11
303
 21
-7
  0
LINE
  8
0
  6
CONTINUOUS
 62
     7
 10
315
 20
-27.5
 11
315
 21
27.5
  0
LINE
  8
0
  6
CONTINUOUS
 62
     7
 10
315
 20
27.5
 11
319.4265747070313
 21
27.5
  0
LINE
  8
0
  6
CONTINUOUS
 62
     7
 10
315
 20
-27.5
 11
321.527587890625
 21
-27.5
  0
LINE
  8
0
  6
CONTINUOUS
 62
     7
 10
300
 20
-7
 11
300
 21
7
  0
LINE
  8
0
  6
CONTINUOUS
 62
     7
 10
399.4732055664063
 20
-24.19819259643555
 11
408.9999694824219
 21
-25.75515174865723
  0
LINE
  8
0
  6
CONTINUOUS
 62
     3
 10
-139.9693908691406
 20
-350
 11
140
 21
-350
  0
LINE
  8
0
  6
CONTINUOUS
 62
     3
 10
0
 20
-210
 11
0
 21
-490
  0
LINE
  8
0
  6
CONTINUOUS
 62
     7
 10
-7
 20
-333
 11
-7
 21
-324
  0
LINE
  8
0
  6
CONTINUOUS
 62
     7
 10
7
 20
-333
 11
7
 21
-324
  0
LINE
  8
0
  6
CONTINUOUS
 62
     7
 10
-7
 20
-324
 11
7
 21
-324
  0
LINE
  8
0
  6
CONTINUOUS
 62
     7
 10
-7
 20
-333
 11
7
 21
-333
  0
LINE
  8
0
  6
CONTINUOUS
 62
     7
 10
546.5
 20
-422.5
 11
546.5
 21
-277.5
  0
LINE
  8
0
  6
CONTINUOUS
 62
     7
 10
546.5
 20
-1.13686837721616E-13
 11
546.5
 21
72.5
  0
LINE
  8
0
  6
CONTINUOUS
 62
     7
 10
546.5
 20
-72.5
 11
546.5
 21
-1.13686837721616E-13
  0
LINE
  8
0
  6
CONTINUOUS
 62
     7
 10
546.5
 20
-277.5
 11
546.5
 21
-422.5
  0
LINE
  8
0
  6
CONTINUOUS
 62
     7
 10
546.5
 20
-422.5
 11
561.5
 21
-422.5
  0
LINE
  8
0
  6
CONTINUOUS
 62
     7
 10
546.5
 20
-277.5
 11
561.5
 21
-277.5
  0
LINE
  8
0
  6
CONTINUOUS
 62
     7
 10
561.5
 20
-277.5
 11
561.5
 21
-422.5
  0
LINE
  8
0
  6
CONTINUOUS
 62
     7
 10
606.5
 20
-250
 11
606.5
 21
-450
  0
LINE
  8
0
  6
CONTINUOUS
 62
     7
 10
591.5
 20
-250
 11
591.5
 21
-450
  0
LINE
  8
0
  6
CONTINUOUS
 62
     7
 10
566.5
 20
-312
 11
586.5
 21
-312
  0
LINE
  8
0
  6
CONTINUOUS
 62
     7
 10
566.5
 20
-388
 11
586.5
 21
-388
  0
LINE
  8
0
  6
CONTINUOUS
 62
     7
 10
561.5
 20
-406
 11
591.5
 21
-406
  0
LINE
  8
0
  6
CONTINUOUS
 62
     7
 10
561.5
 20
-294
 11
591.5
 21
-294
  0
LINE
  8
0
  6
CONTINUOUS
 62
     7
 10
591.5
 20
-450
 11
606.5
 21
-450
  0
LINE
  8
0
  6
CONTINUOUS
 62
     7
 10
591.5
 20
-250
 11
606.5
 21
-250
  0
LINE
  8
0
  6
CONTINUOUS
 62
     7
 10
561.5
 20
-355
 11
591.5
 21
-355
  0
LINE
  8
0
  6
CONTINUOUS
 62
     7
 10
561.5
 20
-345
 11
591.5
 21
-345
  0
LINE
  8
0
  6
CONTINUOUS
 62
     7
 10
561.5
 20
5
 11
591.5
 21
5
  0
LINE
  8
0
  6
CONTINUOUS
 62
     7
 10
561.5
 20
-5
 11
591.5
 21
-5
  0
LINE
  8
0
  6
CONTINUOUS
 62
     7
 10
591.5
 20
100
 11
606.5
 21
100
  0
LINE
  8
0
  6
CONTINUOUS
 62
     7
 10
591.5
 20
-100
 11
606.5
 21
-100
  0
LINE
  8
0
  6
CONTINUOUS
 62
     7
 10
561.5
 20
56
 11
591.5
 21
56
  0
LINE
  8
0
  6
CONTINUOUS
 62
     7
 10
561.5
 20
-56
 11
591.5
 21
-56
  0
LINE
  8
0
  6
CONTINUOUS
 62
     7
 10
566.5
 20
-38
 11
586.5
 21
-38
  0
LINE
  8
0
  6
CONTINUOUS
 62
     7
 10
566.5
 20
38
 11
586.5
 21
38
  0
LINE
  8
0
  6
CONTINUOUS
 62
     7
 10
591.5
 20
100
 11
591.5
 21
-100
  0
LINE
  8
0
  6
CONTINUOUS
 62
     7
 10
606.5
 20
100
 11
606.5
 21
-100
  0
LINE
  8
0
  6
CONTINUOUS
 62
     7
 10
546.5
 20
0
 11
546.5
 21
72.5
  0
LINE
  8
0
  6
CONTINUOUS
 62
     7
 10
561.5
 20
0
 11
561.5
 21
72.5
  0
LINE
  8
0
  6
CONTINUOUS
 62
     7
 10
546.5
 20
72.5
 11
561.5
 21
72.5
  0
LINE
  8
0
  6
CONTINUOUS
 62
     7
 10
546.5
 20
-72.5
 11
561.5
 21
-72.5
  0
LINE
  8
0
  6
CONTINUOUS
 62
     7
 10
561.5
 20
-72.5
 11
561.5
 21
0
  0
LINE
  8
0
  6
CONTINUOUS
 62
     7
 10
546.5
 20
-72.5
 11
546.5
 21
0
  0
LINE
  8
0
  6
CONTINUOUS
 62
     7
 10
460.0193176269531
 20
-240.1939392089844
 11
503.2756652832031
 21
-240.1939392089844
  0
LINE
  8
0
  6
CONTINUOUS
 62
     7
 10
482
 20
-219.3211212158203
 11
482
 21
-260.3008117675781
  0
ARC
  8
0
  6
CONTINUOUS
 62
     7
 10
495
 20
-327.0842895507812
 40
2.999999999999977
 50
179.9999913485775
 51
246.9539861971382
  0
ARC
  8
0
  6
CONTINUOUS
 62
     7
 10
495
 20
-372.9157104492188
 40
3.000000000000039
 50
119.3085286481107
 51
180.0000050089558
  0
ARC
  8
0
  6
CONTINUOUS
 62
     7
 10
390.9549560546875
 20
-277.4279479980469
 40
2.000000000000016
 50
256.7709046204473
 51
339.0482547021078
  0
ARC
  8
0
  6
CONTINUOUS
 62
     7
 10
404
 20
45.11474609375
 40
4.999999999999997
 50
269.9999974955215
 51
0
  0
ARC
  8
0
  6
CONTINUOUS
 62
     7
 10
404
 20
18.4346923828125
 40
4.999999999999999
 50
269.9999974955215
 51
0
  0
ARC
  8
0
  6
CONTINUOUS
 62
     7
 10
338
 20
45.11474609375
 40
5
 50
179.999991348578
 51
270.0000006832456
  0
ARC
  8
0
  6
CONTINUOUS
 62
     7
 10
338
 20
18.4346923828125
 40
5
 50
179.999991348578
 51
270.0000006832456
  0
ARC
  8
0
  6
CONTINUOUS
 62
     7
 10
303
 20
0
 40
7.000000000000001
 50
270.0000179860895
 51
89.99998201391051
  0
ARC
  8
0
  6
CONTINUOUS
 62
     7
 10
-21.64520263671875
 20
-227.2437133789062
 40
3.150000095367433
 50
9.999998855319467
 51
189.9999620293669
  0
CIRCLE
  8
0
  6
CONTINUOUS
 62
     7
 10
0
 20
-350
 40
125
  0
ARC
  8
0
  6
CONTINUOUS
 62
     7
 10
0
 20
-350
 40
22.49999999999998
 50
108.1262180710465
 51
71.87379012563336
  0
CIRCLE
  8
0
  6
CONTINUOUS
 62
     7
 10
0
 20
-350
 40
90
  0
CIRCLE
  8
0
  6
CONTINUOUS
 62
     7
 10
0
 20
-350
 40
85
  0
ARC
  8
0
  6
CONTINUOUS
 62
     3
 10
0
 20
-350
 40
107.5
 50
354.626130104439
 51
5.271826869360981
  0
CIRCLE
  8
0
  6
CONTINUOUS
 62
     7
 10
107.5
 20
-350
 40
7.5
  0
CIRCLE
  8
0
  6
CONTINUOUS
 62
     7
 10
0
 20
-242.5
 40
7.5
  0
ARC
  8
0
  6
CONTINUOUS
 62
     3
 10
0
 20
-350
 40
107.5
 50
84.62611211834968
 51
95.27184303421748
  0
CIRCLE
  8
0
  6
CONTINUOUS
 62
     7
 10
-107.5
 20
-350
 40
7.5
  0
ARC
  8
0
  6
CONTINUOUS
 62
     3
 10
0
 20
-350
 40
107.5
 50
174.6261077926387
 51
185.2718318783173
  0
CIRCLE
  8
0
  6
CONTINUOUS
 62
     7
 10
0
 20
-457.5
 40
7.5
  0
ARC
  8
0
  6
CONTINUOUS
 62
     3
 10
0
 20
-350
 40
107.5
 50
264.62613443015
 51
275.271831195072
  0
ARC
  8
0
  6
CONTINUOUS
 62
     7
 10
566.5
 20
-307
 40
4.999999999999943
 50
179.999991348578
 51
270.0000006832456
  0
ARC
  8
0
  6
CONTINUOUS
 62
     7
 10
586.5
 20
-307
 40
5.000000000000004
 50
269.9999974955222
 51
0
  0
ARC
  8
0
  6
CONTINUOUS
 62
     7
 10
566.5
 20
-393
 40
5.000000000000004
 50
90.00000250447782
 51
180.0000050089563
  0
ARC
  8
0
  6
CONTINUOUS
 62
     7
 10
586.5
 20
-393
 40
5
 50
0
 51
90.00000250447782
  0
ARC
  8
0
  6
CONTINUOUS
 62
     7
 10
586.5
 20
-43
 40
5
 50
0
 51
90.00000250447782
  0
ARC
  8
0
  6
CONTINUOUS
 62
     7
 10
566.5
 20
-43
 40
4.999999999999997
 50
90.00000250447782
 51
180.0000050089563
  0
ARC
  8
0
  6
CONTINUOUS
 62
     7
 10
586.5
 20
43
 40
4.999999999999997
 50
269.9999974955222
 51
0
  0
ARC
  8
0
  6
CONTINUOUS
 62
     7
 10
566.5
 20
43
 40
4.999999999999943
 50
179.999991348578
 51
270.0000006832456
  0
POLYLINE
  8
0
  6
CONTINUOUS
 62
     7
 66
     1
 10
0
 20
0
 70
     1
  0
VERTEX
  8
0
  6
CONTINUOUS
 62
     7
 10
492
 20
-240.1939392089844
 42
0.1005697614596519
  0
VERTEX
  8
0
  6
CONTINUOUS
 62
     7
 10
491.2286164258952
 20
-236.4011318614867
 42
0.0993145942685613
  0
VERTEX
  8
0
  6
CONTINUOUS
 62
     7
 10
489.0449283026197
 20
-233.2046461797426
 42
0.09762475566250023
  0
VERTEX
  8
0
  6
CONTINUOUS
 62
     7
 10
485.8027735203133
 20
-231.0857180907259
 42
0.09645742494750113
  0
VERTEX
  8
0
  6
CONTINUOUS
 62
     7
 10
481.9999999999999
 20
-230.3458557128906
 42
0.09643683433006486
  0
VERTEX
  8
0
  6
CONTINUOUS
 62
     7
 10
478.1979889324393
 20
-231.0854093936061
 42
0.09759325526349616
  0
VERTEX
  8
0
  6
CONTINUOUS
 62
     7
 10
474.9565369725482
 20
-233.2032140699264
 42
0.09935255147170376
  0
VERTEX
  8
0
  6
CONTINUOUS
 62
     7
 10
472.7715980621026
 20
-236.4006257478691
 42
0.1005839922554623
  0
VERTEX
  8
0
  6
CONTINUOUS
 62
     7
 10
472
 20
-240.1939392089844
 42
0.1005699380587107
  0
VERTEX
  8
0
  6
CONTINUOUS
 62
     7
 10
472.7713844715514
 20
-243.9867462680504
 42
0.09931486592915414
  0
VERTEX
  8
0
  6
CONTINUOUS
 62
     7
 10
474.955076428439
 20
-247.1832291798607
 42
0.0976248160412941
  0
VERTEX
  8
0
  6
CONTINUOUS
 62
     7
 10
478.1972352694488
 20
-249.3021509764597
 42
0.09645692972528502
  0
VERTEX
  8
0
  6
CONTINUOUS
 62
     7
 10
482.0000000000001
 20
-250.0420074462891
 42
0.09643659111140188
  0
VERTEX
  8
0
  6
CONTINUOUS
 62
     7
 10
485.8020116123553
 20
-249.3024558929906
 42
0.09759332041093086
  0
VERTEX
  8
0
  6
CONTINUOUS
 62
     7
 10
489.0434655186984
 20
-247.184654227393
 42
0.09935282727083017
  0
VERTEX
  8
0
  6
CONTINUOUS
 62
     7
 10
491.228404978167
 20
-243.9872430898802
 42
0.1005839080411599
  0
SEQEND
  8
0
  0
POLYLINE
  8
0
  6
CONTINUOUS
 62
     7
 66
     1
 10
0
 20
0
  0
VERTEX
  8
0
  6
CONTINUOUS
 62
     7
 10
489.5611857664142
 20
-254.4119760062571
 42
0.0827223678288774
  0
VERTEX
  8
0
  6
CONTINUOUS
 62
     7
 10
493.8481290591237
 20
-251.2106361046138
 42
0.08385233975505726
  0
VERTEX
  8
0
  6
CONTINUOUS
 62
     7
 10
496.8558320582371
 20
-246.7857026235498
 42
0.08471367521537272
  0
VERTEX
  8
0
  6
CONTINUOUS
 62
     7
 10
498.233887477933
 20
-241.6163470946175
 42
0.08490369651711585
  0
VERTEX
  8
0
  6
CONTINUOUS
 62
     7
 10
497.8166163650276
 20
-236.2840010264412
 42
0.0843694222467602
  0
VERTEX
  8
0
  6
CONTINUOUS
 62
     7
 10
495.6548351947911
 20
-231.3907605779168
 42
0.0833343721348147
  0
VERTEX
  8
0
  6
CONTINUOUS
 62
     7
 10
492.0050609719041
 20
-227.478493288339
 42
0.08226413423131256
  0
VERTEX
  8
0
  6
CONTINUOUS
 62
     7
 10
487.2826954435343
 20
-224.9614272622944
 42
0.08162574956691129
  0
VERTEX
  8
0
  6
CONTINUOUS
 62
     7
 10
482.0000000000001
 20
-224.0937194824219
 42
0.08158650840376171
  0
VERTEX
  8
0
  6
CONTINUOUS
 62
     7
 10
476.7197354797319
 20
-224.9606061108246
 42
0.08224715376029343
  0
VERTEX
  8
0
  6
CONTINUOUS
 62
     7
 10
471.9978242569082
 20
-227.4762812985028
 42
0.08333889666452253
  0
VERTEX
  8
0
  6
CONTINUOUS
 62
     7
 10
468.3469827574824
 20
-231.3880107092733
 42
0.08437833058092865
  0
VERTEX
  8
0
  6
CONTINUOUS
 62
     7
 10
466.1840454361296
 20
-236.2813817628122
 42
0.08490735270134867
  0
VERTEX
  8
0
  6
CONTINUOUS
 62
     7
 10
465.7658878158808
 20
-241.6138916030522
 42
0.08470985083973147
  0
VERTEX
  8
0
  6
CONTINUOUS
 62
     7
 10
467.1430337316721
 20
-246.7832245746506
 42
0.08383848543652528
  0
VERTEX
  8
0
  6
CONTINUOUS
 62
     7
 10
470.1493463048459
 20
-251.2080000839734
 42
0.08273753940026515
  0
VERTEX
  8
0
  6
CONTINUOUS
 62
     7
 10
474.4364054471687
 20
-254.4107317740767
 42
0
  0
SEQEND
  8
0
  0
POLYLINE
  8
0
  6
CONTINUOUS
 62
     7
 66
     1
 10
0
 20
0
  0
VERTEX
  8
0
  6
CONTINUOUS
 62
     7
 10
489.1332603191595
 20
-251.9743564777308
 42
0.2015076984914285
  0
VERTEX
  8
0
  6
CONTINUOUS
 62
     7
 10
488.4032581706355
 20
-251.465873363957
 42
0.03155975008872958
  0
VERTEX
  8
0
  6
CONTINUOUS
 62
     7
 10
487.5134301508132
 20
-251.2267890578251
 42
0.01542706588211876
  0
VERTEX
  8
0
  6
CONTINUOUS
 62
     7
 10
486.6057911907891
 20
-251.0674248853954
 42
0.01021038556979644
  0
VERTEX
  8
0
  6
CONTINUOUS
 62
     7
 10
485.6902663910664
 20
-250.9536179972523
 42
0.007829369652147202
  0
VERTEX
  8
0
  6
CONTINUOUS
 62
     7
 10
484.7711871820935
 20
-250.8725276591518
 42
0.006588841843298396
  0
VERTEX
  8
0
  6
CONTINUOUS
 62
     7
 10
483.8499531094733
 20
-250.8177815972155
 42
0.005931240783193887
  0
VERTEX
  8
0
  6
CONTINUOUS
 62
     7
 10
482.9275503578202
 20
-250.7860131639927
 42
0.005641422518607688
  0
VERTEX
  8
0
  6
CONTINUOUS
 62
     7
 10
482.0046232630151
 20
-250.775528213492
 42
0.005639346647680179
  0
VERTEX
  8
0
  6
CONTINUOUS
 62
     7
 10
481.0818049759009
 20
-250.7858018397665
 42
0.005918303440698085
  0
VERTEX
  8
0
  6
CONTINUOUS
 62
     7
 10
480.1606362144027
 20
-250.8172908188172
 42
0.006584504498054265
  0
VERTEX
  8
0
  6
CONTINUOUS
 62
     7
 10
479.2386261672904
 20
-250.8718129102681
 42
0.00781464185787418
  0
VERTEX
  8
0
  6
CONTINUOUS
 62
     7
 10
478.3191922657144
 20
-250.9526299557928
 42
0.01018500347509707
  0
VERTEX
  8
0
  6
CONTINUOUS
 62
     7
 10
477.4029296103723
 20
-251.0661507151344
 42
0.01540577831744655
  0
VERTEX
  8
0
  6
CONTINUOUS
 62
     7
 10
476.4926591108324
 20
-251.2255074736521
 42
0.03141754114053501
  0
VERTEX
  8
0
  6
CONTINUOUS
 62
     7
 10
475.6013789616463
 20
-251.464244134908
 42
0.1997028563456747
  0
VERTEX
  8
0
  6
CONTINUOUS
 62
     7
 10
474.8671490220363
 20
-251.9720759492946
 42
0
  0
SEQEND
  8
0
  0
POLYLINE
  8
0
  6
CONTINUOUS
 62
     7
 66
     1
 10
0
 20
0
  0
VERTEX
  8
0
  6
CONTINUOUS
 62
     7
 10
483.9993713131269
 20
-262.6873698960652
 42
0.001962846750297573
  0
VERTEX
  8
0
  6
CONTINUOUS
 62
     7
 10
484.516613781451
 20
-262.6705250646047
 42
0.002046129485019514
  0
VERTEX
  8
0
  6
CONTINUOUS
 62
     7
 10
485.0340499399182
 20
-262.649522493415
 42
0.002154580265338929
  0
VERTEX
  8
0
  6
CONTINUOUS
 62
     7
 10
485.5517058579225
 20
-262.6241567609449
 42
0.002294183481007472
  0
VERTEX
  8
0
  6
CONTINUOUS
 62
     7
 10
486.069609145987
 20
-262.5941621209572
 42
0.002473608768275465
  0
VERTEX
  8
0
  6
CONTINUOUS
 62
     7
 10
486.587789164516
 20
-262.5591966546402
 42
0.002692812671278474
  0
VERTEX
  8
0
  6
CONTINUOUS
 62
     7
 10
487.1039280819218
 20
-262.5190149075921
 42
0.002988808170523243
  0
VERTEX
  8
0
  6
CONTINUOUS
 62
     7
 10
487.6195884639756
 20
-262.4729803952998
 42
0.003382633101706557
  0
VERTEX
  8
0
  6
CONTINUOUS
 62
     7
 10
488.1346383269081
 20
-262.4203921762393
 42
0.003921218300359333
  0
VERTEX
  8
0
  6
CONTINUOUS
 62
     7
 10
488.6488935334614
 20
-262.3603058713832
 42
0.004686256924718304
  0
VERTEX
  8
0
  6
CONTINUOUS
 62
     7
 10
489.1620843734616
 20
-262.2914069970735
 42
0.005831687234667755
  0
VERTEX
  8
0
  6
CONTINUOUS
 62
     7
 10
489.6737904535248
 20
-262.2117814945102
 42
0.007680531325604335
  0
VERTEX
  8
0
  6
CONTINUOUS
 62
     7
 10
490.1832989680104
 20
-262.1184588828305
 42
0.0110236965972267
  0
VERTEX
  8
0
  6
CONTINUOUS
 62
     7
 10
490.6892431578302
 20
-262.0063735826031
 42
0.01832812394811472
  0
VERTEX
  8
0
  6
CONTINUOUS
 62
     7
 10
491.1884169359238
 20
-261.8654749932592
 42
0.04148853705551851
  0
VERTEX
  8
0
  6
CONTINUOUS
 62
     7
 10
491.668332895895
 20
-261.669941798179
 42
0.2504883582722244
  0
VERTEX
  8
0
  6
CONTINUOUS
 62
     7
 10
491.9998962745178
 20
-261.3048211863794
 42
0
  0
SEQEND
  8
0
  0
POLYLINE
  8
0
  6
CONTINUOUS
 62
     7
 66
     1
 10
0
 20
0
  0
VERTEX
  8
0
  6
CONTINUOUS
 62
     7
 10
409
 20
-265.6248168945312
 42
0.03135701495770758
  0
VERTEX
  8
0
  6
CONTINUOUS
 62
     7
 10
406.4440977113581
 20
-265.7848563515954
 42
0.03266753644684735
  0
VERTEX
  8
0
  6
CONTINUOUS
 62
     7
 10
403.9302007203129
 20
-266.2688377438311
 42
0.03551527093179525
  0
VERTEX
  8
0
  6
CONTINUOUS
 62
     7
 10
401.5040654281667
 20
-267.0892650807862
 42
0.04024455417791724
  0
VERTEX
  8
0
  6
CONTINUOUS
 62
     7
 10
399.2299419465651
 20
-268.2645278102534
 42
0.04746186626610626
  0
VERTEX
  8
0
  6
CONTINUOUS
 62
     7
 10
397.1953636846458
 20
-269.8163674436863
 42
0.05756889746719066
  0
VERTEX
  8
0
  6
CONTINUOUS
 62
     7
 10
395.5284829761874
 20
-271.7555014508187
 42
0.06954677899156569
  0
VERTEX
  8
0
  6
CONTINUOUS
 62
     7
 10
394.4030001448111
 20
-274.0486746830569
 42
0.07876915980416464
  0
VERTEX
  8
0
  6
CONTINUOUS
 62
     7
 10
394
 20
-276.5683288574219
 42
0.07874723886847301
  0
VERTEX
  8
0
  6
CONTINUOUS
 62
     7
 10
394.402778626254
 20
-279.087299869083
 42
0.06951277907296226
  0
VERTEX
  8
0
  6
CONTINUOUS
 62
     7
 10
395.5272387690246
 20
-281.3793021245885
 42
0.0575632249578651
  0
VERTEX
  8
0
  6
CONTINUOUS
 62
     7
 10
397.1931745268876
 20
-283.3182525919856
 42
0.04745917003794623
  0
VERTEX
  8
0
  6
CONTINUOUS
 62
     7
 10
399.2267782459902
 20
-284.8701480648521
 42
0.04025177150245948
  0
VERTEX
  8
0
  6
CONTINUOUS
 62
     7
 10
401.5005421819181
 20
-286.0459091912705
 42
0.03551232558920972
  0
VERTEX
  8
0
  6
CONTINUOUS
 62
     7
 10
403.9258653750974
 20
-286.8666835464601
 42
0.0326853783049971
  0
VERTEX
  8
0
  6
CONTINUOUS
 62
     7
 10
406.4408025852757
 20
-287.351385375768
 42
0.03136120886177428
  0
VERTEX
  8
0
  6
CONTINUOUS
 62
     7
 10
408.9969559061322
 20
-287.5118405918644
 42
0
  0
SEQEND
  8
0
  0
POLYLINE
  8
0
  6
CONTINUOUS
 62
     7
 66
     1
 10
0
 20
0
  0
VERTEX
  8
0
  6
CONTINUOUS
 62
     7
 10
311.0006393671596
 20
-283.9055569838429
 42
-0.1233251104115013
  0
VERTEX
  8
0
  6
CONTINUOUS
 62
     7
 10
318.6967753666272
 20
-294.4490885127564
 42
-0.09934983840136562
  0
VERTEX
  8
0
  6
CONTINUOUS
 62
     7
 10
321.0386679417946
 20
-307.3368013893214
 42
-0.03715489718517341
  0
VERTEX
  8
0
  6
CONTINUOUS
 62
     7
 10
319.6332206074335
 20
-320.4319214991736
 42
0.03225341402757771
  0
VERTEX
  8
0
  6
CONTINUOUS
 62
     7
 10
318.1914321987089
 20
-333.5278692387872
 42
0.0276913052627531
  0
VERTEX
  8
0
  6
CONTINUOUS
 62
     7
 10
318.4334680916145
 20
-346.702603718297
 42
0.01355056682892395
  0
VERTEX
  8
0
  6
CONTINUOUS
 62
     7
 10
319.7603056573005
 20
-359.8170388117233
 42
-0.006486340633975988
  0
VERTEX
  8
0
  6
CONTINUOUS
 62
     7
 10
321.3622916921924
 20
-372.9023653898346
 42
-0.1226281385641504
  0
VERTEX
  8
0
  6
CONTINUOUS
 62
     7
 10
319.937357835911
 20
-385.8731450962802
 42
-0.1481618987200163
  0
VERTEX
  8
0
  6
CONTINUOUS
 62
     7
 10
311.0015267855208
 20
-395.299845205835
 42
0
  0
SEQEND
  8
0
  0
POLYLINE
  8
0
  6
CONTINUOUS
 62
     7
 66
     1
 10
0
 20
0
  0
VERTEX
  8
0
  6
CONTINUOUS
 62
     7
 10
483.9994015906112
 20
-24.68476888993662
 42
0.01790621729351413
  0
VERTEX
  8
0
  6
CONTINUOUS
 62
     7
 10
484.7792006748995
 20
-24.51577474541475
 42
0.01817274388870471
  0
VERTEX
  8
0
  6
CONTINUOUS
 62
     7
 10
485.5447695510624
 20
-24.2910278706861
 42
0.01851592622366834
  0
VERTEX
  8
0
  6
CONTINUOUS
 62
     7
 10
486.2918221083863
 20
-24.01077623774618
 42
0.01893468903680771
  0
VERTEX
  8
0
  6
CONTINUOUS
 62
     7
 10
487.0158553576692
 20
-23.67540981426612
 42
0.01942677472684839
  0
VERTEX
  8
0
  6
CONTINUOUS
 62
     7
 10
487.7121163653242
 20
-23.28552425064799
 42
0.01998806672678022
  0
VERTEX
  8
0
  6
CONTINUOUS
 62
     7
 10
488.3755812148735
 20
-22.8419999488632
 42
0.02061176244937399
  0
VERTEX
  8
0
  6
CONTINUOUS
 62
     7
 10
489.0009516715606
 20
-22.34609677115364
 42
0.02128743462479192
  0
VERTEX
  8
0
  6
CONTINUOUS
 62
     7
 10
489.5826767455592
 20
-21.79956299958093
 42
0.02200007903271746
  0
VERTEX
  8
0
  6
CONTINUOUS
 62
     7
 10
490.1150074959886
 20
-21.20475445849057
 42
0.02272932986196201
  0
VERTEX
  8
0
  6
CONTINUOUS
 62
     7
 10
490.59209354628
 20
-20.56475585663561
 42
0.02344911830555418
  0
VERTEX
  8
0
  6
CONTINUOUS
 62
     7
 10
491.0081280093
 20
-19.88349162630065
 42
0.02412812042324953
  0
VERTEX
  8
0
  6
CONTINUOUS
 62
     7
 10
491.3575429155894
 20
-19.16580865553038
 42
0.02473132696368048
  0
VERTEX
  8
0
  6
CONTINUOUS
 62
     7
 10
491.6352492594564
 20
-18.41750991097734
 42
0.02522290304695682
  0
VERTEX
  8
0
  6
CONTINUOUS
 62
     7
 10
491.8369049464671
 20
-17.64531822993376
 42
0.02557015935632348
  0
VERTEX
  8
0
  6
CONTINUOUS
 62
     7
 10
491.9591824369914
 20
-16.85675560577683
 42
0.02573507531862113
  0
VERTEX
  8
0
  6
CONTINUOUS
 62
     7
 10
491.9999997060675
 20
-16.06033584396116
 42
0
  0
SEQEND
  8
0
  0
POLYLINE
  8
0
  6
CONTINUOUS
 62
     7
 66
     1
 10
0
 20
0
 70
     1
  0
VERTEX
  8
0
  6
CONTINUOUS
 62
     7
 10
482
 20
18.54306030273438
 42
0.0116244477298707
  0
VERTEX
  8
0
  6
CONTINUOUS
 62
     7
 10
478.5818890578076
 20
18.46457198069229
 42
0.01447191320538551
  0
VERTEX
  8
0
  6
CONTINUOUS
 62
     7
 10
475.1713787178543
 20
18.2110504581855
 42
0.02556016153305723
  0
VERTEX
  8
0
  6
CONTINUOUS
 62
     7
 10
471.7910432057278
 20
17.69888951763893
 42
0.1952857525117357
  0
VERTEX
  8
0
  6
CONTINUOUS
 62
     7
 10
468.850012171491
 20
16.257419372726
 42
0.1938970346386609
  0
VERTEX
  8
0
  6
CONTINUOUS
 62
     7
 10
471.7942842398572
 20
14.81963137715226
 42
0.02553159831797387
  0
VERTEX
  8
0
  6
CONTINUOUS
 62
     7
 10
475.1729277351981
 20
14.30799016434773
 42
0.01446609579013556
  0
VERTEX
  8
0
  6
CONTINUOUS
 62
     7
 10
478.5823432199282
 20
14.05460461769072
 42
0.01162307440157556
  0
VERTEX
  8
0
  6
CONTINUOUS
 62
     7
 10
482.0000000000001
 20
13.97613525390625
 42
0.01162476452189873
  0
VERTEX
  8
0
  6
CONTINUOUS
 62
     7
 10
485.4181108733727
 20
14.05462584218252
 42
0.01447217399078577
  0
VERTEX
  8
0
  6
CONTINUOUS
 62
     7
 10
488.8286207308518
 20
14.30815352615427
 42
0.02556038781702102
  0
VERTEX
  8
0
  6
CONTINUOUS
 62
     7
 10
492.2089547814194
 20
14.82032387123471
 42
0.1952839009470667
  0
VERTEX
  8
0
  6
CONTINUOUS
 62
     7
 10
495.14998785684
 20
16.26180157443643
 42
0.1938987691653336
  0
VERTEX
  8
0
  6
CONTINUOUS
 62
     7
 10
492.2057160399914
 20
17.69958237121103
 42
0.02553136055713815
  0
VERTEX
  8
0
  6
CONTINUOUS
 62
     7
 10
488.8270710707936
 20
18.2112140004591
 42
0.01446583242551513
  0
VERTEX
  8
0
  6
CONTINUOUS
 62
     7
 10
485.4176551051319
 20
18.46459328610109
 42
0.01162275125250209
  0
SEQEND
  8
0
  0
POLYLINE
  8
0
  6
CONTINUOUS
 62
     7
 66
     1
 10
0
 20
0
  0
VERTEX
  8
0
  6
CONTINUOUS
 62
     7
 10
471.0736999511719
 20
23.73446655273438
 42
0.0184352520258869
  0
VERTEX
  8
0
  6
CONTINUOUS
 62
     7
 10
470.0927266618542
 20
23.49464759677756
 42
0.005078825252425373
  0
VERTEX
  8
0
  6
CONTINUOUS
 62
     7
 10
469.1233124095504
 20
23.21158621913567
 42
0.02696868374645102
  0
VERTEX
  8
0
  6
CONTINUOUS
 62
     7
 10
468.1726062041068
 20
22.87171450223115
 42
0.05660729878814145
  0
VERTEX
  8
0
  6
CONTINUOUS
 62
     7
 10
467.2928084154179
 20
22.38011692116666
 42
0.06337965065018619
  0
VERTEX
  8
0
  6
CONTINUOUS
 62
     7
 10
466.5650117895957
 20
21.68345389992301
 42
0.06341675255996018
  0
VERTEX
  8
0
  6
CONTINUOUS
 62
     7
 10
466.0286680268244
 20
20.82944170461051
 42
0.07212843519057241
  0
VERTEX
  8
0
  6
CONTINUOUS
 62
     7
 10
465.743084688066
 20
19.86449108009942
 42
0.07237625315357391
  0
VERTEX
  8
0
  6
CONTINUOUS
 62
     7
 10
465.7431962530247
 20
18.85823907693761
 42
0.07211558853129864
  0
VERTEX
  8
0
  6
CONTINUOUS
 62
     7
 10
466.0289018735908
 20
17.89352942062845
 42
0.06331753536176714
  0
VERTEX
  8
0
  6
CONTINUOUS
 62
     7
 10
466.5643477569091
 20
17.04084049933002
 42
0.06336647317125955
  0
VERTEX
  8
0
  6
CONTINUOUS
 62
     7
 10
467.2919590361797
 20
16.34398607112149
 42
0.05663916181652877
  0
VERTEX
  8
0
  6
CONTINUOUS
 62
     7
 10
468.1716552988526
 20
15.85217534458114
 42
0.02700149179082537
  0
VERTEX
  8
0
  6
CONTINUOUS
 62
     7
 10
469.1225536645557
 20
15.51212743530362
 42
0.005084234218348789
  0
VERTEX
  8
0
  6
CONTINUOUS
 62
     7
 10
470.092485880493
 20
15.22889960433199
 42
0.01843767337789397
  0
VERTEX
  8
0
  6
CONTINUOUS
 62
     7
 10
471.0736999511719
 20
14.989013671875
 42
0
  0
SEQEND
  8
0
  0
POLYLINE
  8
0
  6
CONTINUOUS
 62
     7
 66
     1
 10
0
 20
0
  0
VERTEX
  8
0
  6
CONTINUOUS
 62
     7
 10
474.2619022221351
 20
14.41033957396377
 42
0.04188730367419468
  0
VERTEX
  8
0
  6
CONTINUOUS
 62
     7
 10
474.7020344841995
 20
13.18236542536926
 42
0.04165594837388065
  0
VERTEX
  8
0
  6
CONTINUOUS
 62
     7
 10
475.3402812820294
 20
12.04444242336546
 42
0.04136510392960657
  0
VERTEX
  8
0
  6
CONTINUOUS
 62
     7
 10
476.1577381641796
 20
11.02758908708277
 42
0.04106114708351543
  0
VERTEX
  8
0
  6
CONTINUOUS
 62
     7
 10
477.1310482054423
 20
10.1584533900783
 42
0.04077357732519264
  0
VERTEX
  8
0
  6
CONTINUOUS
 62
     7
 10
478.2331206473258
 20
9.459273924950857
 42
0.04052878174775312
  0
VERTEX
  8
0
  6
CONTINUOUS
 62
     7
 10
479.433979701734
 20
8.947525995676388
 42
0.04034729443313065
  0
VERTEX
  8
0
  6
CONTINUOUS
 62
     7
 10
480.7015544560752
 20
8.635714803091073
 42
0.04023511476118426
  0
VERTEX
  8
0
  6
CONTINUOUS
 62
     7
 10
482.0021778129697
 20
8.531250291927488
 42
0.04022823417034126
  0
VERTEX
  8
0
  6
CONTINUOUS
 62
     7
 10
483.3025196657524
 20
8.63637582771991
 42
0.04031551583044725
  0
VERTEX
  8
0
  6
CONTINUOUS
 62
     7
 10
484.5689486216773
 20
8.948503219220672
 42
0.04051141576206016
  0
VERTEX
  8
0
  6
CONTINUOUS
 62
     7
 10
485.7691032684893
 20
9.460443308366962
 42
0.04075983235446126
  0
VERTEX
  8
0
  6
CONTINUOUS
 62
     7
 10
486.8705931556671
 20
10.15969359184809
 42
0.04106008099384453
  0
VERTEX
  8
0
  6
CONTINUOUS
 62
     7
 10
487.8436447586855
 20
11.02904534710986
 42
0.04137779398201773
  0
VERTEX
  8
0
  6
CONTINUOUS
 62
     7
 10
488.6610580729467
 20
12.04642479715775
 42
0.04167556173286927
  0
VERTEX
  8
0
  6
CONTINUOUS
 62
     7
 10
489.2992052336398
 20
13.18508562490047
 42
0.04191649456148199
  0
VERTEX
  8
0
  6
CONTINUOUS
 62
     7
 10
489.7390962624776
 20
14.41409118214225
 42
0
  0
SEQEND
  8
0
  0
POLYLINE
  8
0
  6
CONTINUOUS
 62
     7
 66
     1
 10
0
 20
0
  0
VERTEX
  8
0
  6
CONTINUOUS
 62
     7
 10
492.9314048186172
 20
23.73315670942841
 42
0.01754289049009673
  0
VERTEX
  8
0
  6
CONTINUOUS
 62
     7
 10
491.5899376405221
 20
24.02630424979068
 42
0.01105009940150397
  0
VERTEX
  8
0
  6
CONTINUOUS
 62
     7
 10
490.2336500495025
 20
24.24436123602512
 42
0.008116854688467724
  0
VERTEX
  8
0
  6
CONTINUOUS
 62
     7
 10
488.8692760901946
 20
24.41104992198579
 42
0.006531317947613005
  0
VERTEX
  8
0
  6
CONTINUOUS
 62
     7
 10
487.5008438131126
 20
24.53798457209814
 42
0.005600275045165705
  0
VERTEX
  8
0
  6
CONTINUOUS
 62
     7
 10
486.1294654560662
 20
24.63186272217582
 42
0.005037413926392977
  0
VERTEX
  8
0
  6
CONTINUOUS
 62
     7
 10
484.7560753492153
 20
24.69665909071928
 42
0.004711555386592386
  0
VERTEX
  8
0
  6
CONTINUOUS
 62
     7
 10
483.381588415876
 20
24.73473752016795
 42
0.004561013391562547
  0
VERTEX
  8
0
  6
CONTINUOUS
 62
     7
 10
482.0066223565303
 20
24.74737519871923
 42
0.004559881310764499
  0
VERTEX
  8
0
  6
CONTINUOUS
 62
     7
 10
480.6317823707598
 20
24.73498161712509
 42
0.004705613664474164
  0
VERTEX
  8
0
  6
CONTINUOUS
 62
     7
 10
479.2583473279818
 20
24.69719445312633
 42
0.005034939061906787
  0
VERTEX
  8
0
  6
CONTINUOUS
 62
     7
 10
477.8843996955636
 20
24.63265759911415
 42
0.005594485682183613
  0
VERTEX
  8
0
  6
CONTINUOUS
 62
     7
 10
476.5126620799528
 20
24.53906307726233
 42
0.006523231575280375
  0
VERTEX
  8
0
  6
CONTINUOUS
 62
     7
 10
475.1434913345017
 20
24.41240636687936
 42
0.00810225152036168
  0
VERTEX
  8
0
  6
CONTINUOUS
 62
     7
 10
473.7783439213041
 20
24.24603172979407
 42
0.01103438258350845
  0
VERTEX
  8
0
  6
CONTINUOUS
 62
     7
 10
472.4199070089896
 20
24.0281243220813
 42
0.01751382852608012
  0
VERTEX
  8
0
  6
CONTINUOUS
 62
     7
 10
471.075787166276
 20
23.73502246522353
 42
0
  0
SEQEND
  8
0
  0
POLYLINE
  8
0
  6
CONTINUOUS
 62
     7
 66
     1
 10
0
 20
0
  0
VERTEX
  8
0
  6
CONTINUOUS
 62
     7
 10
492.9263000488281
 20
23.73446655273438
 42
-0.0184352520258869
  0
VERTEX
  8
0
  6
CONTINUOUS
 62
     7
 10
493.9072733381458
 20
23.49464759677756
 42
-0.005078825252425317
  0
VERTEX
  8
0
  6
CONTINUOUS
 62
     7
 10
494.8766875904496
 20
23.21158621913567
 42
-0.02696868374645107
  0
VERTEX
  8
0
  6
CONTINUOUS
 62
     7
 10
495.8273937958932
 20
22.87171450223115
 42
-0.05660729878814148
  0
VERTEX
  8
0
  6
CONTINUOUS
 62
     7
 10
496.7071915845821
 20
22.38011692116666
 42
-0.06337965065018616
  0
VERTEX
  8
0
  6
CONTINUOUS
 62
     7
 10
497.4349882104043
 20
21.68345389992301
 42
-0.06341675255996025
  0
VERTEX
  8
0
  6
CONTINUOUS
 62
     7
 10
497.9713319731756
 20
20.82944170461051
 42
-0.07212843519057237
  0
VERTEX
  8
0
  6
CONTINUOUS
 62
     7
 10
498.256915311934
 20
19.86449108009942
 42
-0.07237625315357388
  0
VERTEX
  8
0
  6
CONTINUOUS
 62
     7
 10
498.2568037469753
 20
18.85823907693761
 42
-0.07211558853129875
  0
VERTEX
  8
0
  6
CONTINUOUS
 62
     7
 10
497.9710981264092
 20
17.89352942062845
 42
-0.06331753536176714
  0
VERTEX
  8
0
  6
CONTINUOUS
 62
     7
 10
497.4356522430909
 20
17.04084049933002
 42
-0.06336647317125944
  0
VERTEX
  8
0
  6
CONTINUOUS
 62
     7
 10
496.7080409638203
 20
16.34398607112149
 42
-0.05663916181652899
  0
VERTEX
  8
0
  6
CONTINUOUS
 62
     7
 10
495.8283447011474
 20
15.85217534458114
 42
-0.02700149179082537
  0
VERTEX
  8
0
  6
CONTINUOUS
 62
     7
 10
494.8774463354443
 20
15.51212743530362
 42
-0.005084234218348567
  0
VERTEX
  8
0
  6
CONTINUOUS
 62
     7
 10
493.907514119507
 20
15.22889960433199
 42
-0.01843767337789419
  0
VERTEX
  8
0
  6
CONTINUOUS
 62
     7
 10
492.9263000488281
 20
14.989013671875
 42
0
  0
SEQEND
  8
0
  0
POLYLINE
  8
0
  6
CONTINUOUS
 62
     7
 66
     1
 10
0
 20
0
  0
VERTEX
  8
0
  6
CONTINUOUS
 62
     7
 10
399.4722590534791
 20
-24.19845086811288
 42
0.01765901575748749
  0
VERTEX
  8
0
  6
CONTINUOUS
 62
     7
 10
398.3149753859546
 20
-24.56044389207952
 42
0.0182234031143927
  0
VERTEX
  8
0
  6
CONTINUOUS
 62
     7
 10
397.1864872651452
 20
-25.00449063802899
 42
0.0189148592568709
  0
VERTEX
  8
0
  6
CONTINUOUS
 62
     7
 10
396.0938925701493
 20
-25.53108322694552
 42
0.01973751170502317
  0
VERTEX
  8
0
  6
CONTINUOUS
 62
     7
 10
395.0450499951423
 20
-26.14052558469205
 42
0.02069275852788447
  0
VERTEX
  8
0
  6
CONTINUOUS
 62
     7
 10
394.0486941755623
 20
-26.83274481079593
 42
0.02177667328017715
  0
VERTEX
  8
0
  6
CONTINUOUS
 62
     7
 10
393.1145193906514
 20
-27.60704003632441
 42
0.02297644156622875
  0
VERTEX
  8
0
  6
CONTINUOUS
 62
     7
 10
392.2532023555808
 20
-28.4617602981578
 42
0.0242659273471242
  0
VERTEX
  8
0
  6
CONTINUOUS
 62
     7
 10
391.4763219226154
 20
-29.39391243081331
 42
0.02560098904356984
  0
VERTEX
  8
0
  6
CONTINUOUS
 62
     7
 10
390.7961227399032
 20
-30.39871924269088
 42
0.02691602322999567
  0
VERTEX
  8
0
  6
CONTINUOUS
 62
     7
 10
390.2250689052379
 20
-31.46917942351075
 42
0.02812420058820694
  0
VERTEX
  8
0
  6
CONTINUOUS
 62
     7
 10
389.775154366326
 20
-32.59572040018465
 42
0.02912427002086117
  0
VERTEX
  8
0
  6
CONTINUOUS
 62
     7
 10
389.4569906550188
 20
-33.76606961165059
 42
0.02981550590265257
  0
VERTEX
  8
0
  6
CONTINUOUS
 62
     7
 10
389.2787785584031
 20
-34.96547205513392
 42
0.03010978321656694
  0
VERTEX
  8
0
  6
CONTINUOUS
 62
     7
 10
389.2453494437636
 20
-36.17696661972325
 42
0.02997816510368675
  0
VERTEX
  8
0
  6
CONTINUOUS
 62
     7
 10
389.35743013058
 20
-37.38309162345372
 42
0.02946356520991751
  0
VERTEX
  8
0
  6
CONTINUOUS
 62
     7
 10
389.611943169729
 20
-38.56785838280342
 42
0
  0
SEQEND
  8
0
  0
POLYLINE
  8
0
  6
CONTINUOUS
 62
     7
 66
     1
 10
0
 20
0
  0
VERTEX
  8
0
  6
CONTINUOUS
 62
     7
 10
409
 20
-40.7685546875
 42
0.0368407989692509
  0
VERTEX
  8
0
  6
CONTINUOUS
 62
     7
 10
406.3248367184182
 20
-40.96554174079775
 42
0.03800988254444369
  0
VERTEX
  8
0
  6
CONTINUOUS
 62
     7
 10
403.7095935045704
 20
-41.55814757855882
 42
0.04046194034414841
  0
VERTEX
  8
0
  6
CONTINUOUS
 62
     7
 10
401.2178879604813
 20
-42.55154319377121
 42
0.04428263077899097
  0
VERTEX
  8
0
  6
CONTINUOUS
 62
     7
 10
398.9285728562794
 20
-43.95009967740756
 42
0.04948575755566836
  0
VERTEX
  8
0
  6
CONTINUOUS
 62
     7
 10
396.9404003684083
 20
-45.74900296682015
 42
0.055781981672088
  0
VERTEX
  8
0
  6
CONTINUOUS
 62
     7
 10
395.3719350636136
 20
-47.92215788789615
 42
0.06202788485992598
  0
VERTEX
  8
0
  6
CONTINUOUS
 62
     7
 10
394.3545314946259
 20
-50.4001661260528
 42
0.06616808666149697
  0
VERTEX
  8
0
  6
CONTINUOUS
 62
     7
 10
393.9999999999999
 20
-53.05581665039062
 42
0.06611426508650353
  0
VERTEX
  8
0
  6
CONTINUOUS
 62
     7
 10
394.3539528209234
 20
-55.70932647181471
 42
0.06200341918037684
  0
VERTEX
  8
0
  6
CONTINUOUS
 62
     7
 10
395.3702140679354
 20
-58.18641431735757
 42
0.05578047937105105
  0
VERTEX
  8
0
  6
CONTINUOUS
 62
     7
 10
396.937700254185
 20
-60.35965004991252
 42
0.04948566312052002
  0
VERTEX
  8
0
  6
CONTINUOUS
 62
     7
 10
398.9249211736937
 20
-62.15883923864929
 42
0.04427678417677233
  0
VERTEX
  8
0
  6
CONTINUOUS
 62
     7
 10
401.2130549238815
 20
-63.55770853662668
 42
0.04047358604066564
  0
VERTEX
  8
0
  6
CONTINUOUS
 62
     7
 10
403.7047789628609
 20
-64.55202490228301
 42
0.03804199275583803
  0
VERTEX
  8
0
  6
CONTINUOUS
 62
     7
 10
406.3218926142898
 20
-65.14568361687813
 42
0.0368822947052846
  0
VERTEX
  8
0
  6
CONTINUOUS
 62
     7
 10
409
 20
-65.34310913085938
 42
0
  0
SEQEND
  8
0
  0
POLYLINE
  8
0
  6
CONTINUOUS
 62
     7
 66
     1
 10
0
 20
0
  0
VERTEX
  8
0
  6
CONTINUOUS
 62
     7
 10
311
 20
37.5
 42
-0.07695741215725121
  0
VERTEX
  8
0
  6
CONTINUOUS
 62
     7
 10
318.0627407498793
 20
29.83924770385899
 42
-0.1052605088511419
  0
VERTEX
  8
0
  6
CONTINUOUS
 62
     7
 10
321.8243167693483
 20
20.15910666826354
 42
-0.04166921241680492
  0
VERTEX
  8
0
  6
CONTINUOUS
 62
     7
 10
322.6049951619349
 20
9.739945039361256
 42
0.0007708047552635054
  0
VERTEX
  8
0
  6
CONTINUOUS
 62
     7
 10
322.6431427213932
 20
-0.7202371479093851
 42
0.02320511813310324
  0
VERTEX
  8
0
  6
CONTINUOUS
 62
     7
 10
323.2368902731446
 20
-11.16025582558066
 42
-0.05523476631569491
  0
VERTEX
  8
0
  6
CONTINUOUS
 62
     7
 10
323.402624824864
 20
-21.59701431057725
 42
-0.1547030917208919
  0
VERTEX
  8
0
  6
CONTINUOUS
 62
     7
 10
319.1058938237185
 20
-30.95889862332009
 42
-0.08214295233897309
  0
VERTEX
  8
0
  6
CONTINUOUS
 62
     7
 10
311.0021069318032
 20
-37.49877862983799
 42
0
  0
SEQEND
  8
0
  0
TEXT
  8
0
  6
CONTINUOUS
 62
     7
 10
-117.1428604125977
 20
-10
 40
20
 41
0.9853137791713822
  1
ERKV-NAC-750
  0
ENDSEC
  0
EOF
