  0
SECTION
  2
HEADER
  0
ENDSEC
  0
SECTION
  2
TABLES
  0
TABLE
  2
LTYPE
 70
    22
  0
LTYPE
  2
CONTINUOUS
 70
    64
  3
Solid line
 72
    65
 73
     0
 40
0.000000
  0
LTYPE
  2
DASHED
 70
    64
  3
__ __ __ __ __ __ __ __ __ __ __ __ __ __ __
 72
    65
 73
     2
 40
3.500000
 49
2.000000
 49
-1.500000
  0
LTYPE
  2
CENTER
 70
    64
  3
____ _ ____ _ ____ _ ____ _ ____ _ ____ _ ____
 72
    65
 73
     4
 40
17.500000
 49
13.000000
 49
-1.500000
 49
1.500000
 49
-1.500000
  0
LTYPE
  2
PHANTOM
 70
    64
  3
_____ _ _ _____ _ _ _____ _ _ _____ _ _ ____  
 72
    65
 73
     6
 40
15.500000
 49
8.000000
 49
-1.500000
 49
1.500000
 49
-1.500000
 49
1.500000
 49
-1.500000
  0
LTYPE
  2
DOT
 70
    64
  3
. . . . . . . . . . . . . . . . . . . . . . . .
 72
    65
 73
     2
 40
0.25
 49
0.0
 49
-0.25
  0
ENDTAB
  0
TABLE
  2
LAYER
 70
     1
  0
LAYER
  2
0
 70
     0
 62
     7
  6
CONTINUOUS
  0
ENDTAB
  0
TABLE
  2
STYLE
 70
     1
  0
STYLE
  2
STANDARD
 70
     0
 40
0.000000
 41
1.000000
 50
0.000000
 71
     0
 42
0.200000
  3
txt
  0
ENDTAB
  0
TABLE
  2
VIEW
 70
     0
  0
ENDTAB
  0
ENDSEC
  0
SECTION
  2
BLOCKS
  0
ENDSEC
  0
SECTION
  2
ENTITIES
  0
LINE
  8
0
  6
CONTINUOUS
 62
     7
 10
524
 20
-256.9144287109375
 11
524
 21
-442.5
  0
LINE
  8
0
  6
CONTINUOUS
 62
     7
 10
574
 20
-276.5
 11
574
 21
-423.5
  0
LINE
  8
0
  6
CONTINUOUS
 62
     7
 10
534
 20
-262.6873474121094
 11
534
 21
-297.8764038085938
  0
LINE
  8
0
  6
CONTINUOUS
 62
     7
 10
564
 20
-277.5
 11
564
 21
-422.5
  0
LINE
  8
0
  6
CONTINUOUS
 62
     7
 10
564
 20
-422.5
 11
574
 21
-422.5
  0
LINE
  8
0
  6
CONTINUOUS
 62
     7
 10
564
 20
-277.5
 11
574
 21
-277.5
  0
LINE
  8
0
  6
CONTINUOUS
 62
     7
 10
524
 20
-442.5
 11
542
 21
-442.5
  0
LINE
  8
0
  6
CONTINUOUS
 62
     7
 10
534
 20
-353
 11
564
 21
-353
  0
LINE
  8
0
  6
CONTINUOUS
 62
     7
 10
534
 20
-347
 11
564
 21
-347
  0
LINE
  8
0
  6
CONTINUOUS
 62
     7
 10
542
 20
-297.8764038085938
 11
542
 21
-327.0842895507812
  0
LINE
  8
0
  6
CONTINUOUS
 62
     7
 10
534.0000610351563
 20
-272.7673034667969
 11
564.0000610351562
 21
-290.1010131835937
  0
LINE
  8
0
  6
CONTINUOUS
 62
     7
 10
534
 20
-315.1968994140625
 11
534
 21
-384.8031005859375
  0
LINE
  8
0
  6
CONTINUOUS
 62
     7
 10
542
 20
-257.5
 11
542
 21
-277.3896179199219
  0
LINE
  8
0
  6
CONTINUOUS
 62
     7
 10
534
 20
-442.5
 11
534
 21
-402.1235961914062
  0
LINE
  8
0
  6
CONTINUOUS
 62
     7
 10
542
 20
-442.5
 11
542
 21
-422.6104125976563
  0
LINE
  8
0
  6
CONTINUOUS
 62
     7
 10
534
 20
-427.2327575683594
 11
563.9999389648438
 21
-409.8990478515625
  0
LINE
  8
0
  6
CONTINUOUS
 62
     7
 10
542
 20
-307.2402954101563
 11
564
 21
-307.2402954101563
  0
LINE
  8
0
  6
CONTINUOUS
 62
     7
 10
542
 20
-392.7596435546875
 11
564
 21
-392.7596435546875
  0
LINE
  8
0
  6
CONTINUOUS
 62
     7
 10
524.8668212890625
 20
-251.97412109375
 11
524.0000610351562
 21
-256.9144592285156
  0
LINE
  8
0
  6
CONTINUOUS
 62
     7
 10
532
 20
-250.0419921875
 11
537.5560302734375
 21
-251.23583984375
  0
LINE
  8
0
  6
CONTINUOUS
 62
     7
 10
531.9999389648437
 20
-250.0419921875
 11
526.44384765625
 21
-251.2358551025391
  0
LINE
  8
0
  6
CONTINUOUS
 62
     7
 10
539.13330078125
 20
-251.9740600585937
 11
539.9963989257813
 21
-256.8933715820313
  0
LINE
  8
0
  6
CONTINUOUS
 62
     7
 10
524
 20
-257.5
 11
542
 21
-257.5
  0
LINE
  8
0
  6
CONTINUOUS
 62
     7
 10
534
 20
-297.8764038085938
 11
542
 21
-297.8764038085938
  0
LINE
  8
0
  6
CONTINUOUS
 62
     7
 10
534
 20
-315.1968994140625
 11
542
 21
-315.1968994140625
  0
LINE
  8
0
  6
CONTINUOUS
 62
     7
 10
534
 20
-384.8031005859375
 11
542
 21
-384.8031005859375
  0
LINE
  8
0
  6
CONTINUOUS
 62
     7
 10
542
 20
-402.1235961914062
 11
542
 21
-372.9157104492188
  0
LINE
  8
0
  6
CONTINUOUS
 62
     7
 10
534
 20
-402.1235961914062
 11
542
 21
-402.1235961914062
  0
LINE
  8
0
  6
CONTINUOUS
 62
     7
 10
539.9962768554688
 20
-256.8933715820313
 11
539.9962768554688
 21
-257.5
  0
LINE
  8
0
  6
CONTINUOUS
 62
     7
 10
478
 20
-434.6587219238281
 11
520
 21
-434.6587219238281
  0
LINE
  8
0
  6
CONTINUOUS
 62
     7
 10
478
 20
-445
 11
520
 21
-445
  0
LINE
  8
0
  6
CONTINUOUS
 62
     7
 10
478
 20
-255
 11
520
 21
-255
  0
LINE
  8
0
  6
CONTINUOUS
 62
     7
 10
478.0001220703125
 20
-255.0001373291016
 11
474.0001220703125
 21
-259.0001220703125
  0
LINE
  8
0
  6
CONTINUOUS
 62
     7
 10
474.0000305175781
 20
-440.9999389648437
 11
478.0000610351563
 21
-444.9999389648437
  0
LINE
  8
0
  6
CONTINUOUS
 62
     7
 10
520.0000610351563
 20
-445.0000305175781
 11
524.0000610351562
 21
-441.0000305175781
  0
LINE
  8
0
  6
CONTINUOUS
 62
     7
 10
524
 20
-259
 11
520
 21
-255
  0
LINE
  8
0
  6
CONTINUOUS
 62
     7
 10
478
 20
-439.26123046875
 11
520
 21
-439.26123046875
  0
LINE
  8
0
  6
CONTINUOUS
 62
     7
 10
478
 20
-312.3461303710937
 11
520
 21
-312.3461303710937
  0
LINE
  8
0
  6
CONTINUOUS
 62
     7
 10
478
 20
-323.7876892089844
 11
520
 21
-323.7876892089844
  0
LINE
  8
0
  6
CONTINUOUS
 62
     7
 10
478
 20
-333.5312194824219
 11
520
 21
-333.5312194824219
  0
LINE
  8
0
  6
CONTINUOUS
 62
     7
 10
478
 20
-345.0005187988281
 11
520
 21
-345.0005187988281
  0
LINE
  8
0
  6
CONTINUOUS
 62
     7
 10
478
 20
-355.0001220703125
 11
520
 21
-355.0001220703125
  0
LINE
  8
0
  6
CONTINUOUS
 62
     7
 10
478
 20
-366.4694519042969
 11
520
 21
-366.4694519042969
  0
LINE
  8
0
  6
CONTINUOUS
 62
     7
 10
478
 20
-376.2124633789062
 11
520
 21
-376.2124633789062
  0
LINE
  8
0
  6
CONTINUOUS
 62
     7
 10
478
 20
-387.6537170410156
 11
520
 21
-387.6537170410156
  0
LINE
  8
0
  6
CONTINUOUS
 62
     7
 10
478
 20
-406.7067260742187
 11
520
 21
-406.7067260742187
  0
LINE
  8
0
  6
CONTINUOUS
 62
     7
 10
478
 20
-415.9718017578125
 11
520
 21
-415.9718017578125
  0
LINE
  8
0
  6
CONTINUOUS
 62
     7
 10
478
 20
-422.7931823730469
 11
520
 21
-422.7931823730469
  0
LINE
  8
0
  6
CONTINUOUS
 62
     7
 10
478
 20
-429.6584777832031
 11
520
 21
-429.6584777832031
  0
LINE
  8
0
  6
CONTINUOUS
 62
     7
 10
574
 20
-276.5
 11
596.5
 21
-276.5
  0
LINE
  8
0
  6
CONTINUOUS
 62
     7
 10
596.5
 20
-276.5
 11
596.5
 21
-423.5
  0
LINE
  8
0
  6
CONTINUOUS
 62
     7
 10
574
 20
-423.5
 11
596.5
 21
-423.5
  0
LINE
  8
0
  6
CONTINUOUS
 62
     7
 10
365
 20
-225
 11
365
 21
-288.0472106933594
  0
LINE
  8
0
  6
CONTINUOUS
 62
     7
 10
365
 20
-225
 11
383
 21
-225
  0
LINE
  8
0
  6
CONTINUOUS
 62
     7
 10
383
 20
-225
 11
383
 21
-475
  0
LINE
  8
0
  6
CONTINUOUS
 62
     7
 10
474
 20
-257.5
 11
474
 21
-442.5
  0
LINE
  8
0
  6
CONTINUOUS
 62
     7
 10
459
 20
-257.5
 11
459
 21
-265.6248168945312
  0
LINE
  8
0
  6
CONTINUOUS
 62
     7
 10
459
 20
-257.5
 11
474
 21
-257.5
  0
LINE
  8
0
  6
CONTINUOUS
 62
     7
 10
365
 20
-475
 11
383
 21
-475
  0
LINE
  8
0
  6
CONTINUOUS
 62
     7
 10
459
 20
-442.5
 11
474
 21
-442.5
  0
LINE
  8
0
  6
CONTINUOUS
 62
     3
 10
285
 20
-350
 11
661.032470703125
 21
-350
  0
LINE
  8
0
  6
CONTINUOUS
 62
     7
 10
383
 20
-427.3218078613281
 11
459
 21
-411.9439086914063
  0
LINE
  8
0
  6
CONTINUOUS
 62
     7
 10
383
 20
-434.1417846679687
 11
458.9999694824219
 21
-418.763916015625
  0
LINE
  8
0
  6
CONTINUOUS
 62
     7
 10
383
 20
-310.1224365234375
 11
449.4738159179687
 21
-310.1224365234375
  0
LINE
  8
0
  6
CONTINUOUS
 62
     7
 10
383
 20
-389.8775634765625
 11
449.4737854003906
 21
-389.8775634765625
  0
LINE
  8
0
  6
CONTINUOUS
 62
     7
 10
449.4738159179687
 20
-310.1224060058594
 11
459
 21
-304.6224670410156
  0
LINE
  8
0
  6
CONTINUOUS
 62
     7
 10
449.4737854003906
 20
-389.8775939941406
 11
458.9999694824219
 21
-395.3775329589844
  0
LINE
  8
0
  6
CONTINUOUS
 62
     7
 10
300
 20
-324
 11
300
 21
-372.5
  0
LINE
  8
0
  6
CONTINUOUS
 62
     7
 10
361
 20
-260
 11
361
 21
-283.905029296875
  0
LINE
  8
0
  6
CONTINUOUS
 62
     7
 10
361
 20
-260
 11
365
 21
-260
  0
LINE
  8
0
  6
CONTINUOUS
 62
     7
 10
361
 20
-440
 11
365
 21
-440
  0
LINE
  8
0
  6
CONTINUOUS
 62
     7
 10
300
 20
-372.5
 11
365
 21
-372.5
  0
LINE
  8
0
  6
CONTINUOUS
 62
     7
 10
300
 20
-327.5
 11
365
 21
-327.5
  0
LINE
  8
0
  6
CONTINUOUS
 62
     7
 10
365
 20
-392.3465270996094
 11
365
 21
-475
  0
LINE
  8
0
  6
CONTINUOUS
 62
     7
 10
361
 20
-395.3009643554687
 11
361
 21
-440
  0
LINE
  8
0
  6
CONTINUOUS
 62
     7
 10
365
 20
-322.5
 11
365
 21
-377.5
  0
LINE
  8
0
  6
CONTINUOUS
 62
     7
 10
365
 20
-377.5
 11
371.5388793945312
 21
-377.5
  0
LINE
  8
0
  6
CONTINUOUS
 62
     7
 10
365
 20
-322.5
 11
369.3119506835938
 21
-322.5
  0
LINE
  8
0
  6
CONTINUOUS
 62
     7
 10
300
 20
-324
 11
350
 21
-324
  0
LINE
  8
0
  6
CONTINUOUS
 62
     7
 10
350
 20
-324
 11
350
 21
-327.5
  0
LINE
  8
0
  6
CONTINUOUS
 62
     7
 10
383
 20
-273.1717834472656
 11
443.9999694824219
 21
-287.5118713378906
  0
LINE
  8
0
  6
CONTINUOUS
 62
     7
 10
383
 20
-265.8582153320313
 11
440.4972839355469
 21
-279.3748779296875
  0
LINE
  8
0
  6
CONTINUOUS
 62
     7
 10
459
 20
-287.5118408203125
 11
444
 21
-287.5118408203125
  0
LINE
  8
0
  6
CONTINUOUS
 62
     7
 10
459
 20
-287.5118408203125
 11
459
 21
-442.5
  0
LINE
  8
0
  6
CONTINUOUS
 62
     7
 10
442.8227233886719
 20
-278.1431274414062
 11
444.5532531738281
 21
-273.6235961914062
  0
LINE
  8
0
  6
CONTINUOUS
 62
     7
 10
524
 20
92.49996948242188
 11
524
 21
24.276123046875
  0
LINE
  8
0
  6
CONTINUOUS
 62
     7
 10
574
 20
73.49996948242188
 11
574
 21
-73.5
  0
LINE
  8
0
  6
CONTINUOUS
 62
     7
 10
534
 20
92.49996948242188
 11
534
 21
84.63784790039063
  0
LINE
  8
0
  6
CONTINUOUS
 62
     7
 10
564
 20
72.49996948242187
 11
564
 21
-72.5
  0
LINE
  8
0
  6
CONTINUOUS
 62
     7
 10
564
 20
-72.5
 11
574
 21
-72.5
  0
LINE
  8
0
  6
CONTINUOUS
 62
     7
 10
564
 20
72.49996948242187
 11
574
 21
72.49996948242187
  0
LINE
  8
0
  6
CONTINUOUS
 62
     7
 10
524
 20
-92.5
 11
534
 21
-92.5
  0
LINE
  8
0
  6
CONTINUOUS
 62
     7
 10
524
 20
92.49996948242188
 11
534
 21
92.49996948242188
  0
LINE
  8
0
  6
CONTINUOUS
 62
     7
 10
542
 20
14.7767333984375
 11
542
 21
-16.06246948242188
  0
LINE
  8
0
  6
CONTINUOUS
 62
     7
 10
542
 20
84.63784790039063
 11
542
 21
43.65377807617188
  0
LINE
  8
0
  6
CONTINUOUS
 62
     7
 10
534
 20
84.63784790039063
 11
542
 21
84.63784790039063
  0
LINE
  8
0
  6
CONTINUOUS
 62
     7
 10
534
 20
74.63790893554688
 11
542
 21
74.63790893554688
  0
LINE
  8
0
  6
CONTINUOUS
 62
     7
 10
534
 20
74.63790893554688
 11
534
 21
24.72079467773438
  0
LINE
  8
0
  6
CONTINUOUS
 62
     7
 10
534
 20
46.32244491577148
 11
564
 21
36.3148193359375
  0
LINE
  8
0
  6
CONTINUOUS
 62
     7
 10
534
 20
-46.32244491577148
 11
564
 21
-36.3148193359375
  0
LINE
  8
0
  6
CONTINUOUS
 62
     7
 10
534
 20
-74.63787841796875
 11
534
 21
-24.68450927734375
  0
LINE
  8
0
  6
CONTINUOUS
 62
     7
 10
542
 20
-84.63784790039063
 11
542
 21
-43.65377807617188
  0
LINE
  8
0
  6
CONTINUOUS
 62
     7
 10
534
 20
-74.63787841796875
 11
542
 21
-74.63787841796875
  0
LINE
  8
0
  6
CONTINUOUS
 62
     7
 10
534
 20
-84.63784790039063
 11
542
 21
-84.63784790039063
  0
LINE
  8
0
  6
CONTINUOUS
 62
     7
 10
534
 20
-92.5
 11
534
 21
-84.63784790039063
  0
LINE
  8
0
  6
CONTINUOUS
 62
     7
 10
542
 20
-52.5
 11
564
 21
-52.5
  0
LINE
  8
0
  6
CONTINUOUS
 62
     7
 10
542
 20
52.5
 11
564
 21
52.5
  0
LINE
  8
0
  6
CONTINUOUS
 62
     7
 10
547.3359375
 20
21.80056762695313
 11
564
 21
21.80056762695313
  0
LINE
  8
0
  6
CONTINUOUS
 62
     7
 10
539.582275390625
 20
-21.800537109375
 11
564
 21
-21.800537109375
  0
LINE
  8
0
  6
CONTINUOUS
 62
     7
 10
524
 20
14.44729614257812
 11
524
 21
-92.5
  0
LINE
  8
0
  6
CONTINUOUS
 62
     7
 10
542
 20
-82.07961273193359
 11
564
 21
-67.31463623046875
  0
LINE
  8
0
  6
CONTINUOUS
 62
     7
 10
542.0000610351562
 20
82.07957458496094
 11
564
 21
67.31462097167969
  0
LINE
  8
0
  6
CONTINUOUS
 62
     7
 10
477.9999694824219
 20
11.00006103515625
 11
520.0001220703125
 21
11.00006103515625
  0
LINE
  8
0
  6
CONTINUOUS
 62
     7
 10
478
 20
-95
 11
520
 21
-95
  0
LINE
  8
0
  6
CONTINUOUS
 62
     7
 10
478
 20
94.99996948242188
 11
520
 21
94.99996948242188
  0
LINE
  8
0
  6
CONTINUOUS
 62
     7
 10
478.0001525878906
 20
94.99988555908203
 11
474.0001525878906
 21
90.99988555908203
  0
LINE
  8
0
  6
CONTINUOUS
 62
     7
 10
473.9999694824219
 20
-90.99992370605469
 11
477.9999694824219
 21
-94.99993133544922
  0
LINE
  8
0
  6
CONTINUOUS
 62
     7
 10
520.0000610351563
 20
-95.00008392333984
 11
524.0000610351562
 21
-91.00007629394531
  0
LINE
  8
0
  6
CONTINUOUS
 62
     7
 10
524
 20
91.00001525878906
 11
520
 21
95.00001525878906
  0
LINE
  8
0
  6
CONTINUOUS
 62
     7
 10
477.9999694824219
 20
-87.21929931640625
 11
520.0001220703125
 21
-87.21929931640625
  0
LINE
  8
0
  6
CONTINUOUS
 62
     7
 10
477.9999694824219
 20
87.21896362304687
 11
520.0001220703125
 21
87.21896362304687
  0
LINE
  8
0
  6
CONTINUOUS
 62
     7
 10
477.9999694824219
 20
76.21878051757812
 11
520.0001220703125
 21
76.21878051757812
  0
LINE
  8
0
  6
CONTINUOUS
 62
     7
 10
477.9999694824219
 20
68.35665893554687
 11
520.0001220703125
 21
68.35665893554687
  0
LINE
  8
0
  6
CONTINUOUS
 62
     7
 10
477.9999694824219
 20
61.04364013671875
 11
520.0001220703125
 21
61.04364013671875
  0
LINE
  8
0
  6
CONTINUOUS
 62
     7
 10
477.9999694824219
 20
51.76449584960938
 11
520.0001220703125
 21
51.76449584960938
  0
LINE
  8
0
  6
CONTINUOUS
 62
     7
 10
477.9999694824219
 20
43.10443115234375
 11
520.0001220703125
 21
43.10443115234375
  0
LINE
  8
0
  6
CONTINUOUS
 62
     7
 10
477.9999694824219
 20
32.51864624023438
 11
520.0001220703125
 21
32.51864624023438
  0
LINE
  8
0
  6
CONTINUOUS
 62
     7
 10
477.9999694824219
 20
22.95574951171875
 11
519.1585693359375
 21
22.95574951171875
  0
LINE
  8
0
  6
CONTINUOUS
 62
     7
 10
574
 20
73.49996948242188
 11
596.5
 21
73.49996948242188
  0
LINE
  8
0
  6
CONTINUOUS
 62
     7
 10
596.5
 20
73.49996948242188
 11
596.5
 21
-73.5
  0
LINE
  8
0
  6
CONTINUOUS
 62
     7
 10
574
 20
-73.5
 11
596.5
 21
-73.5
  0
LINE
  8
0
  6
CONTINUOUS
 62
     7
 10
365
 20
-125
 11
365
 21
-34.81515502929687
  0
LINE
  8
0
  6
CONTINUOUS
 62
     7
 10
365
 20
-125
 11
383
 21
-125
  0
LINE
  8
0
  6
CONTINUOUS
 62
     7
 10
383
 20
-125
 11
383
 21
125.0000305175781
  0
LINE
  8
0
  6
CONTINUOUS
 62
     7
 10
474
 20
-92.5
 11
474
 21
92.50003051757812
  0
LINE
  8
0
  6
CONTINUOUS
 62
     7
 10
459
 20
-92.5
 11
459
 21
-65.34310913085938
  0
LINE
  8
0
  6
CONTINUOUS
 62
     7
 10
459
 20
-92.5
 11
474
 21
-92.5
  0
LINE
  8
0
  6
CONTINUOUS
 62
     7
 10
365
 20
125.0000305175781
 11
383
 21
125.0000305175781
  0
LINE
  8
0
  6
CONTINUOUS
 62
     7
 10
459
 20
92.50003051757812
 11
474
 21
92.50003051757812
  0
LINE
  8
0
  6
CONTINUOUS
 62
     3
 10
285
 20
0
 11
659.8008422851562
 21
0
  0
LINE
  8
0
  6
CONTINUOUS
 62
     7
 10
459
 20
-40.7685546875
 11
459
 21
92.50003051757812
  0
LINE
  8
0
  6
CONTINUOUS
 62
     7
 10
439.6109008789063
 20
-38.56398010253906
 11
444.3708801269531
 21
-55.77128601074219
  0
LINE
  8
0
  6
CONTINUOUS
 62
     7
 10
388
 20
40.11474609375
 11
454
 21
40.11474609375
  0
LINE
  8
0
  6
CONTINUOUS
 62
     7
 10
388
 20
13.4346923828125
 11
454
 21
13.4346923828125
  0
LINE
  8
0
  6
CONTINUOUS
 62
     7
 10
383.0000305175781
 20
78.94040679931641
 11
459
 21
64.60031127929688
  0
LINE
  8
0
  6
CONTINUOUS
 62
     7
 10
383
 20
71.62687683105469
 11
459
 21
57.28676986694336
  0
LINE
  8
0
  6
CONTINUOUS
 62
     7
 10
444.9172973632813
 20
-57.28677368164062
 11
444
 21
-57.28677368164062
  0
LINE
  8
0
  6
CONTINUOUS
 62
     7
 10
453.862060546875
 20
-64.60031127929688
 11
444
 21
-64.60031127929688
  0
LINE
  8
0
  6
CONTINUOUS
 62
     7
 10
383
 20
-71.62686157226562
 11
444
 21
-57.2867546081543
  0
LINE
  8
0
  6
CONTINUOUS
 62
     7
 10
383
 20
-78.94042205810547
 11
444
 21
-64.60031127929688
  0
LINE
  8
0
  6
CONTINUOUS
 62
     7
 10
383
 20
-36.42343139648437
 11
439.2564697265625
 21
-36.42343139648437
  0
LINE
  8
0
  6
CONTINUOUS
 62
     7
 10
300
 20
-22.5
 11
300
 21
22.5
  0
LINE
  8
0
  6
CONTINUOUS
 62
     7
 10
361
 20
-90
 11
361
 21
-37.5
  0
LINE
  8
0
  6
CONTINUOUS
 62
     7
 10
361
 20
-90
 11
365
 21
-90
  0
LINE
  8
0
  6
CONTINUOUS
 62
     7
 10
361
 20
90.00003051757813
 11
365
 21
90.00003051757813
  0
LINE
  8
0
  6
CONTINUOUS
 62
     7
 10
300
 20
22.5
 11
365
 21
22.5
  0
LINE
  8
0
  6
CONTINUOUS
 62
     7
 10
300
 20
-22.5
 11
365
 21
-22.5
  0
LINE
  8
0
  6
CONTINUOUS
 62
     7
 10
361
 20
37.5
 11
361
 21
90.00003051757813
  0
LINE
  8
0
  6
CONTINUOUS
 62
     7
 10
365
 20
33.75238037109375
 11
365
 21
125.0000305175781
  0
LINE
  8
0
  6
CONTINUOUS
 62
     7
 10
300
 20
7
 11
353
 21
7
  0
LINE
  8
0
  6
CONTINUOUS
 62
     7
 10
300
 20
-7
 11
353
 21
-7
  0
LINE
  8
0
  6
CONTINUOUS
 62
     7
 10
365
 20
-27.5
 11
365
 21
27.5
  0
LINE
  8
0
  6
CONTINUOUS
 62
     7
 10
365
 20
27.5
 11
369.4265747070313
 21
27.5
  0
LINE
  8
0
  6
CONTINUOUS
 62
     7
 10
365
 20
-27.5
 11
371.527587890625
 21
-27.5
  0
LINE
  8
0
  6
CONTINUOUS
 62
     7
 10
350
 20
-7
 11
350
 21
7
  0
LINE
  8
0
  6
CONTINUOUS
 62
     7
 10
449.4732055664062
 20
-24.19818878173828
 11
459
 21
-25.75515365600586
  0
LINE
  8
0
  6
CONTINUOUS
 62
     3
 10
-136.5771942138672
 20
-350
 11
138.6436462402344
 21
-350
  0
LINE
  8
0
  6
CONTINUOUS
 62
     3
 10
0
 20
-209.0888977050781
 11
0
 21
-494.9201049804688
  0
LINE
  8
0
  6
CONTINUOUS
 62
     7
 10
-7
 20
-333
 11
-7
 21
-324
  0
LINE
  8
0
  6
CONTINUOUS
 62
     7
 10
7
 20
-333
 11
7
 21
-324
  0
LINE
  8
0
  6
CONTINUOUS
 62
     7
 10
-7
 20
-324
 11
7
 21
-324
  0
LINE
  8
0
  6
CONTINUOUS
 62
     7
 10
-7
 20
-333
 11
7
 21
-333
  0
LINE
  8
0
  6
CONTINUOUS
 62
     7
 10
596.5
 20
-422.5
 11
596.5
 21
-277.5
  0
LINE
  8
0
  6
CONTINUOUS
 62
     7
 10
611.5
 20
-422.5
 11
611.5
 21
-277.5
  0
LINE
  8
0
  6
CONTINUOUS
 62
     7
 10
646.5
 20
-270
 11
646.5
 21
-430
  0
LINE
  8
0
  6
CONTINUOUS
 62
     7
 10
634.5
 20
-270
 11
646.5
 21
-270
  0
LINE
  8
0
  6
CONTINUOUS
 62
     7
 10
634.5
 20
-270
 11
634.5
 21
-430
  0
LINE
  8
0
  6
CONTINUOUS
 62
     7
 10
616.5
 20
-312
 11
629.5
 21
-312
  0
LINE
  8
0
  6
CONTINUOUS
 62
     7
 10
634.5
 20
-430
 11
646.5
 21
-430
  0
LINE
  8
0
  6
CONTINUOUS
 62
     7
 10
616.5
 20
-388
 11
629.5
 21
-388
  0
LINE
  8
0
  6
CONTINUOUS
 62
     7
 10
611.5
 20
-406
 11
634.5
 21
-406
  0
LINE
  8
0
  6
CONTINUOUS
 62
     7
 10
611.5
 20
-294
 11
634.5
 21
-294
  0
LINE
  8
0
  6
CONTINUOUS
 62
     7
 10
596.5
 20
-422.5
 11
611.5
 21
-422.5
  0
LINE
  8
0
  6
CONTINUOUS
 62
     7
 10
611.5
 20
-355
 11
634.5
 21
-355
  0
LINE
  8
0
  6
CONTINUOUS
 62
     7
 10
611.5
 20
-345
 11
634.5
 21
-345
  0
LINE
  8
0
  6
CONTINUOUS
 62
     7
 10
596.5
 20
-277.5
 11
611.5
 21
-277.5
  0
LINE
  8
0
  6
CONTINUOUS
 62
     7
 10
596.5
 20
72.5
 11
611.5
 21
72.5
  0
LINE
  8
0
  6
CONTINUOUS
 62
     7
 10
611.5
 20
5
 11
634.5
 21
5
  0
LINE
  8
0
  6
CONTINUOUS
 62
     7
 10
611.5
 20
-5
 11
634.5
 21
-5
  0
LINE
  8
0
  6
CONTINUOUS
 62
     7
 10
596.5
 20
-72.5
 11
611.5
 21
-72.5
  0
LINE
  8
0
  6
CONTINUOUS
 62
     7
 10
611.5
 20
56
 11
634.5
 21
56
  0
LINE
  8
0
  6
CONTINUOUS
 62
     7
 10
611.5
 20
-56
 11
634.5
 21
-56
  0
LINE
  8
0
  6
CONTINUOUS
 62
     7
 10
616.5
 20
-38
 11
629.5
 21
-38
  0
LINE
  8
0
  6
CONTINUOUS
 62
     7
 10
634.5
 20
-80
 11
646.5
 21
-80
  0
LINE
  8
0
  6
CONTINUOUS
 62
     7
 10
616.5
 20
38
 11
629.5
 21
38
  0
LINE
  8
0
  6
CONTINUOUS
 62
     7
 10
634.5
 20
80
 11
634.5
 21
-80
  0
LINE
  8
0
  6
CONTINUOUS
 62
     7
 10
634.5
 20
80
 11
646.5
 21
80
  0
LINE
  8
0
  6
CONTINUOUS
 62
     7
 10
646.5
 20
80
 11
646.5
 21
-80
  0
LINE
  8
0
  6
CONTINUOUS
 62
     7
 10
611.5
 20
-72.5
 11
611.5
 21
0
  0
LINE
  8
0
  6
CONTINUOUS
 62
     7
 10
596.5
 20
-72.5
 11
596.5
 21
0
  0
LINE
  8
0
  6
CONTINUOUS
 62
     7
 10
596.5
 20
0
 11
596.5
 21
72.5
  0
LINE
  8
0
  6
CONTINUOUS
 62
     7
 10
611.5
 20
0
 11
611.5
 21
72.5
  0
LINE
  8
0
  6
CONTINUOUS
 62
     7
 10
511.1389465332031
 20
-240.1939392089844
 11
552.9019775390625
 21
-240.1939392089844
  0
LINE
  8
0
  6
CONTINUOUS
 62
     7
 10
532
 20
-220.7068481445312
 11
532
 21
-261.3486938476563
  0
ARC
  8
0
  6
CONTINUOUS
 62
     7
 10
545
 20
-327.0842895507812
 40
3.000000000000034
 50
179.9999913485775
 51
246.9539861971382
  0
ARC
  8
0
  6
CONTINUOUS
 62
     7
 10
545
 20
-372.9157104492188
 40
3.000000000000039
 50
119.3085286481107
 51
180.0000050089558
  0
ARC
  8
0
  6
CONTINUOUS
 62
     7
 10
440.9549560546875
 20
-277.4279479980469
 40
2.000000000000016
 50
256.7709046204473
 51
339.0482547021078
  0
ARC
  8
0
  6
CONTINUOUS
 62
     7
 10
454
 20
45.11474609375
 40
4.999999999999997
 50
269.9999974955215
 51
0
  0
ARC
  8
0
  6
CONTINUOUS
 62
     7
 10
454
 20
18.4346923828125
 40
4.999999999999999
 50
269.9999974955215
 51
0
  0
ARC
  8
0
  6
CONTINUOUS
 62
     7
 10
388
 20
45.11474609375
 40
5
 50
179.999991348578
 51
270.0000006832456
  0
ARC
  8
0
  6
CONTINUOUS
 62
     7
 10
388
 20
18.4346923828125
 40
5
 50
179.999991348578
 51
270.0000006832456
  0
ARC
  8
0
  6
CONTINUOUS
 62
     7
 10
353
 20
0
 40
7.000000000000001
 50
270.0000179860895
 51
89.99998201391051
  0
ARC
  8
0
  6
CONTINUOUS
 62
     7
 10
-21.64520263671875
 20
-227.2437133789062
 40
3.150000095367436
 50
15.66049678562634
 51
184.3394700754754
  0
CIRCLE
  8
0
  6
CONTINUOUS
 62
     7
 10
0
 20
-350
 40
125
  0
ARC
  8
0
  6
CONTINUOUS
 62
     7
 10
0
 20
-350
 40
22.49999999999998
 50
108.1262180710465
 51
71.87379012563336
  0
CIRCLE
  8
0
  6
CONTINUOUS
 62
     7
 10
0
 20
-350
 40
90
  0
CIRCLE
  8
0
  6
CONTINUOUS
 62
     7
 10
0
 20
-350
 40
85
  0
ARC
  8
0
  6
CONTINUOUS
 62
     3
 10
0
 20
-350
 40
107.5
 50
354.626130104439
 51
5.271826869360981
  0
CIRCLE
  8
0
  6
CONTINUOUS
 62
     7
 10
107.5
 20
-350
 40
7.5
  0
CIRCLE
  8
0
  6
CONTINUOUS
 62
     7
 10
0
 20
-242.5
 40
7.5
  0
ARC
  8
0
  6
CONTINUOUS
 62
     3
 10
0
 20
-350
 40
107.5
 50
84.62611211834968
 51
95.27184303421748
  0
CIRCLE
  8
0
  6
CONTINUOUS
 62
     7
 10
-107.5
 20
-350
 40
7.5
  0
ARC
  8
0
  6
CONTINUOUS
 62
     3
 10
0
 20
-350
 40
107.5
 50
174.6261077926387
 51
185.2718318783173
  0
CIRCLE
  8
0
  6
CONTINUOUS
 62
     7
 10
0
 20
-457.5
 40
7.5
  0
ARC
  8
0
  6
CONTINUOUS
 62
     3
 10
0
 20
-350
 40
107.5
 50
264.62613443015
 51
275.271831195072
  0
ARC
  8
0
  6
CONTINUOUS
 62
     7
 10
629.5
 20
-393
 40
5
 50
0
 51
90.00000250447782
  0
ARC
  8
0
  6
CONTINUOUS
 62
     7
 10
629.5
 20
-307
 40
5.000000000000004
 50
269.9999974955222
 51
0
  0
ARC
  8
0
  6
CONTINUOUS
 62
     7
 10
616.5
 20
-307
 40
4.999999999999943
 50
179.999991348578
 51
270.0000006832456
  0
ARC
  8
0
  6
CONTINUOUS
 62
     7
 10
616.5
 20
-393
 40
5.000000000000004
 50
90.00000250447782
 51
180.0000050089563
  0
ARC
  8
0
  6
CONTINUOUS
 62
     7
 10
616.5
 20
-43
 40
4.999999999999997
 50
90.00000250447782
 51
180.0000050089563
  0
ARC
  8
0
  6
CONTINUOUS
 62
     7
 10
616.5
 20
43
 40
4.999999999999943
 50
179.999991348578
 51
270.0000006832456
  0
ARC
  8
0
  6
CONTINUOUS
 62
     7
 10
629.5
 20
43
 40
4.999999999999997
 50
269.9999974955222
 51
0
  0
ARC
  8
0
  6
CONTINUOUS
 62
     7
 10
629.5
 20
-43
 40
5
 50
0
 51
90.00000250447782
  0
POLYLINE
  8
0
  6
CONTINUOUS
 62
     7
 66
     1
 10
0
 20
0
 70
     1
  0
VERTEX
  8
0
  6
CONTINUOUS
 62
     7
 10
542
 20
-240.1939392089844
 42
0.1005697614596649
  0
VERTEX
  8
0
  6
CONTINUOUS
 62
     7
 10
541.2286164258951
 20
-236.4011318614867
 42
0.09931459426855101
  0
VERTEX
  8
0
  6
CONTINUOUS
 62
     7
 10
539.0449283026197
 20
-233.2046461797426
 42
0.09762475566247034
  0
VERTEX
  8
0
  6
CONTINUOUS
 62
     7
 10
535.8027735203134
 20
-231.0857180907259
 42
0.09645742494749682
  0
VERTEX
  8
0
  6
CONTINUOUS
 62
     7
 10
532
 20
-230.3458557128906
 42
0.09643683433006475
  0
VERTEX
  8
0
  6
CONTINUOUS
 62
     7
 10
528.1979889324393
 20
-231.0854093936061
 42
0.09759325526351129
  0
VERTEX
  8
0
  6
CONTINUOUS
 62
     7
 10
524.9565369725482
 20
-233.2032140699264
 42
0.09935255147165623
  0
VERTEX
  8
0
  6
CONTINUOUS
 62
     7
 10
522.7715980621025
 20
-236.4006257478691
 42
0.1005839922553924
  0
VERTEX
  8
0
  6
CONTINUOUS
 62
     7
 10
522
 20
-240.1939392089844
 42
0.1005699380586578
  0
VERTEX
  8
0
  6
CONTINUOUS
 62
     7
 10
522.7713844715514
 20
-243.9867462680504
 42
0.09931486592914306
  0
VERTEX
  8
0
  6
CONTINUOUS
 62
     7
 10
524.955076428439
 20
-247.1832291798607
 42
0.09762481604129757
  0
VERTEX
  8
0
  6
CONTINUOUS
 62
     7
 10
528.1972352694487
 20
-249.3021509764597
 42
0.09645692972528928
  0
VERTEX
  8
0
  6
CONTINUOUS
 62
     7
 10
532
 20
-250.0420074462891
 42
0.09643659111139088
  0
VERTEX
  8
0
  6
CONTINUOUS
 62
     7
 10
535.8020116123553
 20
-249.3024558929907
 42
0.09759332041093444
  0
VERTEX
  8
0
  6
CONTINUOUS
 62
     7
 10
539.0434655186983
 20
-247.184654227393
 42
0.09935282727085439
  0
VERTEX
  8
0
  6
CONTINUOUS
 62
     7
 10
541.2284049781671
 20
-243.9872430898803
 42
0.1005839080411196
  0
SEQEND
  8
0
  0
POLYLINE
  8
0
  6
CONTINUOUS
 62
     7
 66
     1
 10
0
 20
0
  0
VERTEX
  8
0
  6
CONTINUOUS
 62
     7
 10
539.5611857664142
 20
-254.4119760062571
 42
0.08272236782885796
  0
VERTEX
  8
0
  6
CONTINUOUS
 62
     7
 10
543.8481290591237
 20
-251.2106361046139
 42
0.0838523397550642
  0
VERTEX
  8
0
  6
CONTINUOUS
 62
     7
 10
546.855832058237
 20
-246.7857026235499
 42
0.08471367521537988
  0
VERTEX
  8
0
  6
CONTINUOUS
 62
     7
 10
548.233887477933
 20
-241.6163470946175
 42
0.08490369651714251
  0
VERTEX
  8
0
  6
CONTINUOUS
 62
     7
 10
547.8166163650277
 20
-236.2840010264413
 42
0.0843694222467892
  0
VERTEX
  8
0
  6
CONTINUOUS
 62
     7
 10
545.6548351947911
 20
-231.3907605779168
 42
0.08333437213482052
  0
VERTEX
  8
0
  6
CONTINUOUS
 62
     7
 10
542.0050609719042
 20
-227.4784932883391
 42
0.08226413423131765
  0
VERTEX
  8
0
  6
CONTINUOUS
 62
     7
 10
537.2826954435343
 20
-224.9614272622944
 42
0.08162574956692152
  0
VERTEX
  8
0
  6
CONTINUOUS
 62
     7
 10
532
 20
-224.0937194824219
 42
0.08158650840375696
  0
VERTEX
  8
0
  6
CONTINUOUS
 62
     7
 10
526.7197354797319
 20
-224.9606061108246
 42
0.08224715376029873
  0
VERTEX
  8
0
  6
CONTINUOUS
 62
     7
 10
521.9978242569082
 20
-227.4762812985028
 42
0.08333889666455371
  0
VERTEX
  8
0
  6
CONTINUOUS
 62
     7
 10
518.3469827574825
 20
-231.3880107092733
 42
0.08437833058093346
  0
VERTEX
  8
0
  6
CONTINUOUS
 62
     7
 10
516.1840454361296
 20
-236.2813817628122
 42
0.08490735270133803
  0
VERTEX
  8
0
  6
CONTINUOUS
 62
     7
 10
515.7658878158809
 20
-241.6138916030523
 42
0.0847098508397536
  0
VERTEX
  8
0
  6
CONTINUOUS
 62
     7
 10
517.1430337316722
 20
-246.7832245746507
 42
0.08383848543650951
  0
VERTEX
  8
0
  6
CONTINUOUS
 62
     7
 10
520.1493463048459
 20
-251.2080000839734
 42
0.08273753940027331
  0
VERTEX
  8
0
  6
CONTINUOUS
 62
     7
 10
524.4364054471688
 20
-254.4107317740767
 42
0
  0
SEQEND
  8
0
  0
POLYLINE
  8
0
  6
CONTINUOUS
 62
     7
 66
     1
 10
0
 20
0
  0
VERTEX
  8
0
  6
CONTINUOUS
 62
     7
 10
539.1332298322491
 20
-251.9743564638634
 42
0.2015085962224163
  0
VERTEX
  8
0
  6
CONTINUOUS
 62
     7
 10
538.4032324969438
 20
-251.4658728729357
 42
0.03156001471002394
  0
VERTEX
  8
0
  6
CONTINUOUS
 62
     7
 10
537.5134083477251
 20
-251.2267882755112
 42
0.01542718050808124
  0
VERTEX
  8
0
  6
CONTINUOUS
 62
     7
 10
536.6057731176514
 20
-251.067424116401
 42
0.01021045033113269
  0
VERTEX
  8
0
  6
CONTINUOUS
 62
     7
 10
535.6902519766136
 20
-250.9536173697904
 42
0.007829408308067332
  0
VERTEX
  8
0
  6
CONTINUOUS
 62
     7
 10
534.771176428825
 20
-250.8725272310921
 42
0.006588863012440213
  0
VERTEX
  8
0
  6
CONTINUOUS
 62
     7
 10
533.8499459798956
 20
-250.8177813707205
 42
0.005931246263630328
  0
VERTEX
  8
0
  6
CONTINUOUS
 62
     7
 10
532.9275468620691
 20
-250.786013098064
 42
0.005641410810202085
  0
VERTEX
  8
0
  6
CONTINUOUS
 62
     7
 10
532.0046233999303
 20
-250.7755282135074
 42
0.005639334720579939
  0
VERTEX
  8
0
  6
CONTINUOUS
 62
     7
 10
531.0818087417471
 20
-250.7858017681834
 42
0.005918309343948512
  0
VERTEX
  8
0
  6
CONTINUOUS
 62
     7
 10
530.1606434963788
 20
-250.8172905855252
 42
0.00658452577081376
  0
VERTEX
  8
0
  6
CONTINUOUS
 62
     7
 10
529.2386370182512
 20
-250.8718124745016
 42
0.007814680414985677
  0
VERTEX
  8
0
  6
CONTINUOUS
 62
     7
 10
528.3192067410756
 20
-250.952629319913
 42
0.01018506789880963
  0
VERTEX
  8
0
  6
CONTINUOUS
 62
     7
 10
527.4029477226513
 20
-251.0661499361894
 42
0.01540589328469131
  0
VERTEX
  8
0
  6
CONTINUOUS
 62
     7
 10
526.4926809046589
 20
-251.2255066873063
 42
0.03141780540691565
  0
VERTEX
  8
0
  6
CONTINUOUS
 62
     7
 10
525.6014046015223
 20
-251.4642436451509
 42
0.199703783360031
  0
VERTEX
  8
0
  6
CONTINUOUS
 62
     7
 10
524.8671794988738
 20
-251.9720759683002
 42
0
  0
SEQEND
  8
0
  0
POLYLINE
  8
0
  6
CONTINUOUS
 62
     7
 66
     1
 10
0
 20
0
  0
VERTEX
  8
0
  6
CONTINUOUS
 62
     7
 10
533.9993713131269
 20
-262.6873698960652
 42
0.001962846750416368
  0
VERTEX
  8
0
  6
CONTINUOUS
 62
     7
 10
534.516613781451
 20
-262.6705250646046
 42
0.002046129485242671
  0
VERTEX
  8
0
  6
CONTINUOUS
 62
     7
 10
535.0340499399183
 20
-262.6495224934149
 42
0.002154580265661562
  0
VERTEX
  8
0
  6
CONTINUOUS
 62
     7
 10
535.5517058579227
 20
-262.6241567609449
 42
0.002294183480782761
  0
VERTEX
  8
0
  6
CONTINUOUS
 62
     7
 10
536.0696091459871
 20
-262.5941621209572
 42
0.002473608768276131
  0
VERTEX
  8
0
  6
CONTINUOUS
 62
     7
 10
536.5877891645162
 20
-262.5591966546402
 42
0.002692812671286023
  0
VERTEX
  8
0
  6
CONTINUOUS
 62
     7
 10
537.1039280819218
 20
-262.5190149075921
 42
0.002988808170553219
  0
VERTEX
  8
0
  6
CONTINUOUS
 62
     7
 10
537.6195884639757
 20
-262.4729803952998
 42
0.003382633102055615
  0
VERTEX
  8
0
  6
CONTINUOUS
 62
     7
 10
538.1346383269082
 20
-262.4203921762392
 42
0.003921218300506772
  0
VERTEX
  8
0
  6
CONTINUOUS
 62
     7
 10
538.6488935334615
 20
-262.3603058713832
 42
0.004686256924887728
  0
VERTEX
  8
0
  6
CONTINUOUS
 62
     7
 10
539.1620843734617
 20
-262.2914069970734
 42
0.005831687234759463
  0
VERTEX
  8
0
  6
CONTINUOUS
 62
     7
 10
539.6737904535249
 20
-262.2117814945102
 42
0.0076805313256221
  0
VERTEX
  8
0
  6
CONTINUOUS
 62
     7
 10
540.1832989680106
 20
-262.1184588828305
 42
0.01102369659701573
  0
VERTEX
  8
0
  6
CONTINUOUS
 62
     7
 10
540.6892431578302
 20
-262.0063735826031
 42
0.01832812394796279
  0
VERTEX
  8
0
  6
CONTINUOUS
 62
     7
 10
541.1884169359239
 20
-261.8654749932592
 42
0.04148853705574828
  0
VERTEX
  8
0
  6
CONTINUOUS
 62
     7
 10
541.668332895895
 20
-261.669941798179
 42
0.2504883582726088
  0
VERTEX
  8
0
  6
CONTINUOUS
 62
     7
 10
541.9998962745178
 20
-261.3048211863793
 42
0
  0
SEQEND
  8
0
  0
POLYLINE
  8
0
  6
CONTINUOUS
 62
     7
 66
     1
 10
0
 20
0
  0
VERTEX
  8
0
  6
CONTINUOUS
 62
     7
 10
459
 20
-265.6248168945312
 42
0.03135701495770758
  0
VERTEX
  8
0
  6
CONTINUOUS
 62
     7
 10
456.4440977113581
 20
-265.7848563515954
 42
0.03266753644683374
  0
VERTEX
  8
0
  6
CONTINUOUS
 62
     7
 10
453.9302007203129
 20
-266.2688377438311
 42
0.03551527093178897
  0
VERTEX
  8
0
  6
CONTINUOUS
 62
     7
 10
451.5040654281667
 20
-267.0892650807862
 42
0.04024455417789889
  0
VERTEX
  8
0
  6
CONTINUOUS
 62
     7
 10
449.2299419465651
 20
-268.2645278102534
 42
0.04746186626610704
  0
VERTEX
  8
0
  6
CONTINUOUS
 62
     7
 10
447.1953636846458
 20
-269.8163674436863
 42
0.05756889746721137
  0
VERTEX
  8
0
  6
CONTINUOUS
 62
     7
 10
445.5284829761874
 20
-271.7555014508186
 42
0.06954677899155341
  0
VERTEX
  8
0
  6
CONTINUOUS
 62
     7
 10
444.4030001448111
 20
-274.0486746830569
 42
0.07876915980420966
  0
VERTEX
  8
0
  6
CONTINUOUS
 62
     7
 10
444
 20
-276.5683288574219
 42
0.0787472388685186
  0
VERTEX
  8
0
  6
CONTINUOUS
 62
     7
 10
444.402778626254
 20
-279.087299869083
 42
0.06951277907290247
  0
VERTEX
  8
0
  6
CONTINUOUS
 62
     7
 10
445.5272387690246
 20
-281.3793021245885
 42
0.0575632249578397
  0
VERTEX
  8
0
  6
CONTINUOUS
 62
     7
 10
447.1931745268876
 20
-283.3182525919856
 42
0.04745917003794468
  0
VERTEX
  8
0
  6
CONTINUOUS
 62
     7
 10
449.2267782459903
 20
-284.8701480648521
 42
0.04025177150244013
  0
VERTEX
  8
0
  6
CONTINUOUS
 62
     7
 10
451.500542181918
 20
-286.0459091912705
 42
0.03551232558923707
  0
VERTEX
  8
0
  6
CONTINUOUS
 62
     7
 10
453.9258653750974
 20
-286.8666835464601
 42
0.03268537830500932
  0
VERTEX
  8
0
  6
CONTINUOUS
 62
     7
 10
456.4408025852756
 20
-287.351385375768
 42
0.03136120886175561
  0
VERTEX
  8
0
  6
CONTINUOUS
 62
     7
 10
458.9969559061322
 20
-287.5118405918644
 42
0
  0
SEQEND
  8
0
  0
POLYLINE
  8
0
  6
CONTINUOUS
 62
     7
 66
     1
 10
0
 20
0
  0
VERTEX
  8
0
  6
CONTINUOUS
 62
     7
 10
361.0006393671596
 20
-283.9055569838429
 42
-0.1233251104115
  0
VERTEX
  8
0
  6
CONTINUOUS
 62
     7
 10
368.6967753666272
 20
-294.4490885127564
 42
-0.09934983840136649
  0
VERTEX
  8
0
  6
CONTINUOUS
 62
     7
 10
371.0386679417946
 20
-307.3368013893214
 42
-0.03715489718517341
  0
VERTEX
  8
0
  6
CONTINUOUS
 62
     7
 10
369.6332206074335
 20
-320.4319214991736
 42
0.03225341402757748
  0
VERTEX
  8
0
  6
CONTINUOUS
 62
     7
 10
368.1914321987089
 20
-333.5278692387872
 42
0.02769130526275355
  0
VERTEX
  8
0
  6
CONTINUOUS
 62
     7
 10
368.4334680916145
 20
-346.702603718297
 42
0.01355056682892395
  0
VERTEX
  8
0
  6
CONTINUOUS
 62
     7
 10
369.7603056573005
 20
-359.8170388117233
 42
-0.006486340633975967
  0
VERTEX
  8
0
  6
CONTINUOUS
 62
     7
 10
371.3622916921924
 20
-372.9023653898346
 42
-0.1226281385641649
  0
VERTEX
  8
0
  6
CONTINUOUS
 62
     7
 10
369.937357835911
 20
-385.8731450962802
 42
-0.1481618987200163
  0
VERTEX
  8
0
  6
CONTINUOUS
 62
     7
 10
361.0015267855208
 20
-395.299845205835
 42
0
  0
SEQEND
  8
0
  0
POLYLINE
  8
0
  6
CONTINUOUS
 62
     7
 66
     1
 10
0
 20
0
  0
VERTEX
  8
0
  6
CONTINUOUS
 62
     7
 10
533.9994015906111
 20
-24.68476888993662
 42
0.01790621729355211
  0
VERTEX
  8
0
  6
CONTINUOUS
 62
     7
 10
534.7792006748995
 20
-24.51577474541476
 42
0.01817274388875047
  0
VERTEX
  8
0
  6
CONTINUOUS
 62
     7
 10
535.5447695510624
 20
-24.29102787068611
 42
0.01851592622363658
  0
VERTEX
  8
0
  6
CONTINUOUS
 62
     7
 10
536.2918221083863
 20
-24.01077623774619
 42
0.01893468903681593
  0
VERTEX
  8
0
  6
CONTINUOUS
 62
     7
 10
537.0158553576691
 20
-23.67540981426613
 42
0.01942677472680574
  0
VERTEX
  8
0
  6
CONTINUOUS
 62
     7
 10
537.7121163653242
 20
-23.285524250648
 42
0.01998806672670447
  0
VERTEX
  8
0
  6
CONTINUOUS
 62
     7
 10
538.3755812148735
 20
-22.84199994886322
 42
0.0206117624492878
  0
VERTEX
  8
0
  6
CONTINUOUS
 62
     7
 10
539.0009516715606
 20
-22.34609677115366
 42
0.02128743462473572
  0
VERTEX
  8
0
  6
CONTINUOUS
 62
     7
 10
539.5826767455592
 20
-21.79956299958095
 42
0.02200007903277277
  0
VERTEX
  8
0
  6
CONTINUOUS
 62
     7
 10
540.1150074959886
 20
-21.20475445849059
 42
0.0227293298618476
  0
VERTEX
  8
0
  6
CONTINUOUS
 62
     7
 10
540.59209354628
 20
-20.56475585663563
 42
0.02344911830573636
  0
VERTEX
  8
0
  6
CONTINUOUS
 62
     7
 10
541.0081280093
 20
-19.88349162630068
 42
0.02412812042317287
  0
VERTEX
  8
0
  6
CONTINUOUS
 62
     7
 10
541.3575429155894
 20
-19.16580865553041
 42
0.02473132696367693
  0
VERTEX
  8
0
  6
CONTINUOUS
 62
     7
 10
541.6352492594564
 20
-18.41750991097737
 42
0.02522290304688372
  0
VERTEX
  8
0
  6
CONTINUOUS
 62
     7
 10
541.8369049464671
 20
-17.64531822993379
 42
0.02557015935604175
  0
VERTEX
  8
0
  6
CONTINUOUS
 62
     7
 10
541.9591824369915
 20
-16.85675560577686
 42
0.02573507531847737
  0
VERTEX
  8
0
  6
CONTINUOUS
 62
     7
 10
541.9999997060676
 20
-16.06033584396118
 42
0
  0
SEQEND
  8
0
  0
POLYLINE
  8
0
  6
CONTINUOUS
 62
     7
 66
     1
 10
0
 20
0
 70
     1
  0
VERTEX
  8
0
  6
CONTINUOUS
 62
     7
 10
532
 20
18.54306030273438
 42
0.01162445077693621
  0
VERTEX
  8
0
  6
CONTINUOUS
 62
     7
 10
528.5818818039243
 20
18.46457174770792
 42
0.014471880248645
  0
VERTEX
  8
0
  6
CONTINUOUS
 62
     7
 10
525.171364227012
 20
18.21104982458293
 42
0.02556006349068548
  0
VERTEX
  8
0
  6
CONTINUOUS
 62
     7
 10
521.7910213865529
 20
17.69888875699491
 42
0.1952851143760417
  0
VERTEX
  8
0
  6
CONTINUOUS
 62
     7
 10
518.8499816538441
 20
16.25741939129388
 42
0.1938964099643976
  0
VERTEX
  8
0
  6
CONTINUOUS
 62
     7
 10
521.794262397439
 20
14.81963214456613
 42
0.02553150075104439
  0
VERTEX
  8
0
  6
CONTINUOUS
 62
     7
 10
525.1729132474557
 20
14.30799079782541
 42
0.01446606298056957
  0
VERTEX
  8
0
  6
CONTINUOUS
 62
     7
 10
528.5823360042871
 20
14.054604848888
 42
0.01162307731432092
  0
VERTEX
  8
0
  6
CONTINUOUS
 62
     7
 10
532
 20
13.97613525390625
 42
0.0116247675689476
  0
VERTEX
  8
0
  6
CONTINUOUS
 62
     7
 10
535.4181181272559
 20
14.05462607517324
 42
0.01447214103314454
  0
VERTEX
  8
0
  6
CONTINUOUS
 62
     7
 10
538.8286352216938
 20
14.30815415977101
 42
0.02556028977332728
  0
VERTEX
  8
0
  6
CONTINUOUS
 62
     7
 10
542.208976600597
 20
14.82032463189272
 42
0.1952832628231269
  0
VERTEX
  8
0
  6
CONTINUOUS
 62
     7
 10
545.1500183744866
 20
16.26180155588978
 42
0.1938981444798899
  0
VERTEX
  8
0
  6
CONTINUOUS
 62
     7
 10
542.205737882406
 20
17.69958160381053
 42
0.02553126299160148
  0
VERTEX
  8
0
  6
CONTINUOUS
 62
     7
 10
538.8270855585351
 20
18.2112133669955
 42
0.01446579961686919
  0
VERTEX
  8
0
  6
CONTINUOUS
 62
     7
 10
535.4176623207719
 20
18.46459305491019
 42
0.01162275416528435
  0
SEQEND
  8
0
  0
POLYLINE
  8
0
  6
CONTINUOUS
 62
     7
 66
     1
 10
0
 20
0
  0
VERTEX
  8
0
  6
CONTINUOUS
 62
     7
 10
521.07373046875
 20
23.73446655273438
 42
0.01843308694322204
  0
VERTEX
  8
0
  6
CONTINUOUS
 62
     7
 10
520.0927510246677
 20
23.49465197784833
 42
0.005081083676008372
  0
VERTEX
  8
0
  6
CONTINUOUS
 62
     7
 10
519.1233308309135
 20
23.21159188607425
 42
0.02696835340136704
  0
VERTEX
  8
0
  6
CONTINUOUS
 62
     7
 10
518.1726194415047
 20
22.8717202031689
 42
0.05660717128261315
  0
VERTEX
  8
0
  6
CONTINUOUS
 62
     7
 10
517.2928163701555
 20
22.38012277503112
 42
0.06337968577856198
  0
VERTEX
  8
0
  6
CONTINUOUS
 62
     7
 10
516.5649982527439
 20
21.6834745860481
 42
0.06342262857623029
  0
VERTEX
  8
0
  6
CONTINUOUS
 62
     7
 10
516.0286680731846
 20
20.8294513139029
 42
0.07212482236775325
  0
VERTEX
  8
0
  6
CONTINUOUS
 62
     7
 10
515.7430852647383
 20
19.86449505635938
 42
0.07237671464443265
  0
VERTEX
  8
0
  6
CONTINUOUS
 62
     7
 10
515.7431966024687
 20
18.85823667109594
 42
0.07211209626734147
  0
VERTEX
  8
0
  6
CONTINUOUS
 62
     7
 10
516.0289020465223
 20
17.89351951046453
 42
0.06332343872537534
  0
VERTEX
  8
0
  6
CONTINUOUS
 62
     7
 10
516.5643349347133
 20
17.0408189320753
 42
0.06336658856636319
  0
VERTEX
  8
0
  6
CONTINUOUS
 62
     7
 10
517.2919678641263
 20
16.34397957048594
 42
0.05663901138082095
  0
VERTEX
  8
0
  6
CONTINUOUS
 62
     7
 10
518.1716698310179
 20
15.85216908311274
 42
0.0270011234516386
  0
VERTEX
  8
0
  6
CONTINUOUS
 62
     7
 10
519.1225734717268
 20
15.5121213411262
 42
0.005086479450872376
  0
VERTEX
  8
0
  6
CONTINUOUS
 62
     7
 10
520.0925105941528
 20
15.22889512363597
 42
0.01843552242977492
  0
VERTEX
  8
0
  6
CONTINUOUS
 62
     7
 10
521.07373046875
 20
14.989013671875
 42
0
  0
SEQEND
  8
0
  0
POLYLINE
  8
0
  6
CONTINUOUS
 62
     7
 66
     1
 10
0
 20
0
  0
VERTEX
  8
0
  6
CONTINUOUS
 62
     7
 10
524.2619022221351
 20
14.41033957396379
 42
0.04188730367407
  0
VERTEX
  8
0
  6
CONTINUOUS
 62
     7
 10
524.7020344841994
 20
13.18236542536928
 42
0.04165594837395561
  0
VERTEX
  8
0
  6
CONTINUOUS
 62
     7
 10
525.3402812820294
 20
12.04444242336548
 42
0.04136510392960691
  0
VERTEX
  8
0
  6
CONTINUOUS
 62
     7
 10
526.1577381641795
 20
11.02758908708278
 42
0.04106114708353812
  0
VERTEX
  8
0
  6
CONTINUOUS
 62
     7
 10
527.1310482054422
 20
10.15845339007831
 42
0.04077357732516439
  0
VERTEX
  8
0
  6
CONTINUOUS
 62
     7
 10
528.2331206473258
 20
9.45927392495086
 42
0.04052878174779293
  0
VERTEX
  8
0
  6
CONTINUOUS
 62
     7
 10
529.4339797017338
 20
8.947525995676388
 42
0.04034729443308817
  0
VERTEX
  8
0
  6
CONTINUOUS
 62
     7
 10
530.7015544560752
 20
8.635714803091071
 42
0.04023511476118493
  0
VERTEX
  8
0
  6
CONTINUOUS
 62
     7
 10
532.0021778129696
 20
8.531250291927488
 42
0.04022823417035127
  0
VERTEX
  8
0
  6
CONTINUOUS
 62
     7
 10
533.3025196657524
 20
8.636375827719911
 42
0.04031551583043747
  0
VERTEX
  8
0
  6
CONTINUOUS
 62
     7
 10
534.5689486216772
 20
8.948503219220672
 42
0.04051141576209286
  0
VERTEX
  8
0
  6
CONTINUOUS
 62
     7
 10
535.7691032684894
 20
9.46044330836696
 42
0.0407598323543694
  0
VERTEX
  8
0
  6
CONTINUOUS
 62
     7
 10
536.8705931556672
 20
10.15969359184808
 42
0.04106008099372532
  0
VERTEX
  8
0
  6
CONTINUOUS
 62
     7
 10
537.8436447586855
 20
11.02904534710985
 42
0.04137779398198437
  0
VERTEX
  8
0
  6
CONTINUOUS
 62
     7
 10
538.6610580729467
 20
12.04642479715774
 42
0.04167556173278875
  0
VERTEX
  8
0
  6
CONTINUOUS
 62
     7
 10
539.2992052336399
 20
13.18508562490045
 42
0.041916494561486
  0
VERTEX
  8
0
  6
CONTINUOUS
 62
     7
 10
539.7390962624776
 20
14.41409118214222
 42
0
  0
SEQEND
  8
0
  0
POLYLINE
  8
0
  6
CONTINUOUS
 62
     7
 66
     1
 10
0
 20
0
  0
VERTEX
  8
0
  6
CONTINUOUS
 62
     7
 10
542.9314256612979
 20
23.73315671493844
 42
0.01754279038524272
  0
VERTEX
  8
0
  6
CONTINUOUS
 62
     7
 10
541.5899557286436
 20
24.02630389827627
 42
0.01105004662993947
  0
VERTEX
  8
0
  6
CONTINUOUS
 62
     7
 10
540.233665475319
 20
24.24436077240895
 42
0.008116822026746129
  0
VERTEX
  8
0
  6
CONTINUOUS
 62
     7
 10
538.86928890321
 20
24.411049471883
 42
0.006531296723030774
  0
VERTEX
  8
0
  6
CONTINUOUS
 62
     7
 10
537.5008539988366
 20
24.53798420785833
 42
0.005600263161208162
  0
VERTEX
  8
0
  6
CONTINUOUS
 62
     7
 10
536.1294725608419
 20
24.63186250138939
 42
0.005037406203460503
  0
VERTEX
  8
0
  6
CONTINUOUS
 62
     7
 10
534.7560798729595
 20
24.69665897812457
 42
0.004711553618672744
  0
VERTEX
  8
0
  6
CONTINUOUS
 62
     7
 10
533.3815903553657
 20
24.73473749174776
 42
0.004561018119787574
  0
VERTEX
  8
0
  6
CONTINUOUS
 62
     7
 10
532.0066217193838
 20
24.74737519877495
 42
0.004559886187771726
  0
VERTEX
  8
0
  6
CONTINUOUS
 62
     7
 10
530.6317791538836
 20
24.73498156564362
 42
0.004705612038999722
  0
VERTEX
  8
0
  6
CONTINUOUS
 62
     7
 10
529.2583415688455
 20
24.69719429485652
 42
0.005034931491976553
  0
VERTEX
  8
0
  6
CONTINUOUS
 62
     7
 10
527.884391433832
 20
24.63265731174999
 42
0.005594472330722756
  0
VERTEX
  8
0
  6
CONTINUOUS
 62
     7
 10
526.5126512412985
 20
24.53906265995234
 42
0.006523210775310869
  0
VERTEX
  8
0
  6
CONTINUOUS
 62
     7
 10
525.1434779149824
 20
24.4124058503672
 42
0.008102219807639716
  0
VERTEX
  8
0
  6
CONTINUOUS
 62
     7
 10
523.7783279085353
 20
24.24603118097832
 42
0.01103433141799869
  0
VERTEX
  8
0
  6
CONTINUOUS
 62
     7
 10
522.4198883717744
 20
24.02812386404261
 42
0.01751373227382192
  0
VERTEX
  8
0
  6
CONTINUOUS
 62
     7
 10
521.0757658179101
 20
23.73502233270057
 42
0
  0
SEQEND
  8
0
  0
POLYLINE
  8
0
  6
CONTINUOUS
 62
     7
 66
     1
 10
0
 20
0
  0
VERTEX
  8
0
  6
CONTINUOUS
 62
     7
 10
542.92626953125
 20
23.73446655273438
 42
-0.01843308694322204
  0
VERTEX
  8
0
  6
CONTINUOUS
 62
     7
 10
543.9072489753323
 20
23.49465197784833
 42
-0.005081083676007761
  0
VERTEX
  8
0
  6
CONTINUOUS
 62
     7
 10
544.8766691690865
 20
23.21159188607425
 42
-0.02696835340136398
  0
VERTEX
  8
0
  6
CONTINUOUS
 62
     7
 10
545.8273805584953
 20
22.8717202031689
 42
-0.05660717128261317
  0
VERTEX
  8
0
  6
CONTINUOUS
 62
     7
 10
546.7071836298445
 20
22.38012277503112
 42
-0.06337968577856196
  0
VERTEX
  8
0
  6
CONTINUOUS
 62
     7
 10
547.4350017472561
 20
21.6834745860481
 42
-0.06342262857623036
  0
VERTEX
  8
0
  6
CONTINUOUS
 62
     7
 10
547.9713319268154
 20
20.8294513139029
 42
-0.07212482236775566
  0
VERTEX
  8
0
  6
CONTINUOUS
 62
     7
 10
548.2569147352617
 20
19.86449505635938
 42
-0.07237671464443268
  0
VERTEX
  8
0
  6
CONTINUOUS
 62
     7
 10
548.2568033975313
 20
18.85823667109594
 42
-0.07211209626734158
  0
VERTEX
  8
0
  6
CONTINUOUS
 62
     7
 10
547.9710979534777
 20
17.89351951046453
 42
-0.06332343872537534
  0
VERTEX
  8
0
  6
CONTINUOUS
 62
     7
 10
547.4356650652867
 20
17.0408189320753
 42
-0.06336658856636319
  0
VERTEX
  8
0
  6
CONTINUOUS
 62
     7
 10
546.7080321358737
 20
16.34397957048594
 42
-0.05663901138082095
  0
VERTEX
  8
0
  6
CONTINUOUS
 62
     7
 10
545.8283301689821
 20
15.85216908311274
 42
-0.02700112345164148
  0
VERTEX
  8
0
  6
CONTINUOUS
 62
     7
 10
544.8774265282732
 20
15.5121213411262
 42
-0.005086479450873487
  0
VERTEX
  8
0
  6
CONTINUOUS
 62
     7
 10
543.9074894058472
 20
15.22889512363597
 42
-0.0184355224297727
  0
VERTEX
  8
0
  6
CONTINUOUS
 62
     7
 10
542.92626953125
 20
14.989013671875
 42
0
  0
SEQEND
  8
0
  0
POLYLINE
  8
0
  6
CONTINUOUS
 62
     7
 66
     1
 10
0
 20
0
  0
VERTEX
  8
0
  6
CONTINUOUS
 62
     7
 10
449.4722590534792
 20
-24.19845086811286
 42
0.01765901575754934
  0
VERTEX
  8
0
  6
CONTINUOUS
 62
     7
 10
448.3149753859547
 20
-24.56044389207949
 42
0.0182234031144128
  0
VERTEX
  8
0
  6
CONTINUOUS
 62
     7
 10
447.1864872651452
 20
-25.00449063802896
 42
0.01891485925688794
  0
VERTEX
  8
0
  6
CONTINUOUS
 62
     7
 10
446.0938925701494
 20
-25.53108322694548
 42
0.01973751170504317
  0
VERTEX
  8
0
  6
CONTINUOUS
 62
     7
 10
445.0450499951424
 20
-26.140525584692
 42
0.02069275852779606
  0
VERTEX
  8
0
  6
CONTINUOUS
 62
     7
 10
444.0486941755623
 20
-26.83274481079587
 42
0.02177667328020536
  0
VERTEX
  8
0
  6
CONTINUOUS
 62
     7
 10
443.1145193906515
 20
-27.60704003632436
 42
0.02297644156626307
  0
VERTEX
  8
0
  6
CONTINUOUS
 62
     7
 10
442.2532023555808
 20
-28.46176029815773
 42
0.02426592734716785
  0
VERTEX
  8
0
  6
CONTINUOUS
 62
     7
 10
441.4763219226155
 20
-29.39391243081324
 42
0.02560098904365172
  0
VERTEX
  8
0
  6
CONTINUOUS
 62
     7
 10
440.7961227399033
 20
-30.39871924269081
 42
0.02691602322991279
  0
VERTEX
  8
0
  6
CONTINUOUS
 62
     7
 10
440.2250689052379
 20
-31.46917942351067
 42
0.0281242005880735
  0
VERTEX
  8
0
  6
CONTINUOUS
 62
     7
 10
439.775154366326
 20
-32.59572040018457
 42
0.02912427002085784
  0
VERTEX
  8
0
  6
CONTINUOUS
 62
     7
 10
439.4569906550188
 20
-33.76606961165051
 42
0.02981550590256178
  0
VERTEX
  8
0
  6
CONTINUOUS
 62
     7
 10
439.278778558403
 20
-34.96547205513383
 42
0.03010978321656672
  0
VERTEX
  8
0
  6
CONTINUOUS
 62
     7
 10
439.2453494437636
 20
-36.17696661972317
 42
0.02997816510368576
  0
VERTEX
  8
0
  6
CONTINUOUS
 62
     7
 10
439.35743013058
 20
-37.38309162345364
 42
0.02946356521004929
  0
VERTEX
  8
0
  6
CONTINUOUS
 62
     7
 10
439.6119431697291
 20
-38.56785838280335
 42
0
  0
SEQEND
  8
0
  0
POLYLINE
  8
0
  6
CONTINUOUS
 62
     7
 66
     1
 10
0
 20
0
  0
VERTEX
  8
0
  6
CONTINUOUS
 62
     7
 10
459
 20
-40.7685546875
 42
0.03684079896925323
  0
VERTEX
  8
0
  6
CONTINUOUS
 62
     7
 10
456.3248367184182
 20
-40.96554174079775
 42
0.03800988254445281
  0
VERTEX
  8
0
  6
CONTINUOUS
 62
     7
 10
453.7095935045704
 20
-41.55814757855882
 42
0.04046194034417715
  0
VERTEX
  8
0
  6
CONTINUOUS
 62
     7
 10
451.2178879604814
 20
-42.55154319377122
 42
0.04428263077901343
  0
VERTEX
  8
0
  6
CONTINUOUS
 62
     7
 10
448.9285728562794
 20
-43.95009967740756
 42
0.04948575755563331
  0
VERTEX
  8
0
  6
CONTINUOUS
 62
     7
 10
446.9404003684083
 20
-45.74900296682016
 42
0.05578198167203433
  0
VERTEX
  8
0
  6
CONTINUOUS
 62
     7
 10
445.3719350636135
 20
-47.92215788789615
 42
0.06202788485992833
  0
VERTEX
  8
0
  6
CONTINUOUS
 62
     7
 10
444.3545314946259
 20
-50.40016612605281
 42
0.06616808666149675
  0
VERTEX
  8
0
  6
CONTINUOUS
 62
     7
 10
444
 20
-53.05581665039062
 42
0.0661142650865052
  0
VERTEX
  8
0
  6
CONTINUOUS
 62
     7
 10
444.3539528209233
 20
-55.70932647181471
 42
0.06200341918034095
  0
VERTEX
  8
0
  6
CONTINUOUS
 62
     7
 10
445.3702140679353
 20
-58.18641431735757
 42
0.05578047937095249
  0
VERTEX
  8
0
  6
CONTINUOUS
 62
     7
 10
446.937700254185
 20
-60.3596500499125
 42
0.04948566312045546
  0
VERTEX
  8
0
  6
CONTINUOUS
 62
     7
 10
448.9249211736936
 20
-62.15883923864929
 42
0.04427678417677255
  0
VERTEX
  8
0
  6
CONTINUOUS
 62
     7
 10
451.2130549238815
 20
-63.55770853662668
 42
0.04047358604066564
  0
VERTEX
  8
0
  6
CONTINUOUS
 62
     7
 10
453.7047789628609
 20
-64.55202490228301
 42
0.0380419927558338
  0
VERTEX
  8
0
  6
CONTINUOUS
 62
     7
 10
456.3218926142898
 20
-65.14568361687813
 42
0.03688229470528438
  0
VERTEX
  8
0
  6
CONTINUOUS
 62
     7
 10
459
 20
-65.34310913085938
 42
0
  0
SEQEND
  8
0
  0
POLYLINE
  8
0
  6
CONTINUOUS
 62
     7
 66
     1
 10
0
 20
0
  0
VERTEX
  8
0
  6
CONTINUOUS
 62
     7
 10
361
 20
37.5
 42
-0.07695741215725121
  0
VERTEX
  8
0
  6
CONTINUOUS
 62
     7
 10
368.0627407498793
 20
29.83924770385899
 42
-0.1052605088511416
  0
VERTEX
  8
0
  6
CONTINUOUS
 62
     7
 10
371.8243167693483
 20
20.15910666826354
 42
-0.04166921241680492
  0
VERTEX
  8
0
  6
CONTINUOUS
 62
     7
 10
372.6049951619349
 20
9.739945039361256
 42
0.0007708047552635054
  0
VERTEX
  8
0
  6
CONTINUOUS
 62
     7
 10
372.6431427213932
 20
-0.7202371479093851
 42
0.02320511813310324
  0
VERTEX
  8
0
  6
CONTINUOUS
 62
     7
 10
373.2368902731446
 20
-11.16025582558066
 42
-0.05523476631569491
  0
VERTEX
  8
0
  6
CONTINUOUS
 62
     7
 10
373.402624824864
 20
-21.59701431057725
 42
-0.1547030917208919
  0
VERTEX
  8
0
  6
CONTINUOUS
 62
     7
 10
369.1058938237185
 20
-30.95889862332009
 42
-0.08214295233897309
  0
VERTEX
  8
0
  6
CONTINUOUS
 62
     7
 10
361.0021069318032
 20
-37.49877862983799
 42
0
  0
SEQEND
  8
0
  0
TEXT
  8
0
  6
CONTINUOUS
 62
     7
 10
-117.1428604125977
 20
-10
 40
20
 41
0.9993229798231079
  1
ERKV-NAC-200
  0
ENDSEC
  0
EOF
