  0
SECTION
  2
HEADER
  0
ENDSEC
  0
SECTION
  2
TABLES
  0
TABLE
  2
LTYPE
 70
    22
  0
LTYPE
  2
CONTINUOUS
 70
    64
  3
Solid line
 72
    65
 73
     0
 40
0.000000
  0
LTYPE
  2
DASHED
 70
    64
  3
__ __ __ __ __ __ __ __ __ __ __ __ __ __ __
 72
    65
 73
     2
 40
3.500000
 49
2.000000
 49
-1.500000
  0
LTYPE
  2
CENTER
 70
    64
  3
____ _ ____ _ ____ _ ____ _ ____ _ ____ _ ____
 72
    65
 73
     4
 40
17.500000
 49
13.000000
 49
-1.500000
 49
1.500000
 49
-1.500000
  0
LTYPE
  2
PHANTOM
 70
    64
  3
_____ _ _ _____ _ _ _____ _ _ _____ _ _ ____  
 72
    65
 73
     6
 40
15.500000
 49
8.000000
 49
-1.500000
 49
1.500000
 49
-1.500000
 49
1.500000
 49
-1.500000
  0
LTYPE
  2
DOT
 70
    64
  3
. . . . . . . . . . . . . . . . . . . . . . . .
 72
    65
 73
     2
 40
0.25
 49
0.0
 49
-0.25
  0
ENDTAB
  0
TABLE
  2
LAYER
 70
     1
  0
LAYER
  2
0
 70
     0
 62
     7
  6
CONTINUOUS
  0
ENDTAB
  0
TABLE
  2
STYLE
 70
     1
  0
STYLE
  2
STANDARD
 70
     0
 40
0.000000
 41
1.000000
 50
0.000000
 71
     0
 42
0.200000
  3
txt
  0
ENDTAB
  0
TABLE
  2
VIEW
 70
     0
  0
ENDTAB
  0
ENDSEC
  0
SECTION
  2
BLOCKS
  0
ENDSEC
  0
SECTION
  2
ENTITIES
  0
LINE
  8
0
  6
CONTINUOUS
 62
     7
 10
-344.2911987304688
 20
135.1773071289062
 11
-343.47509765625
 21
130.549072265625
  0
LINE
  8
0
  6
CONTINUOUS
 62
     7
 10
-350.4954528808594
 20
134.0833129882813
 11
-349.6793823242187
 21
129.4550628662109
  0
LINE
  8
0
  6
CONTINUOUS
 62
     3
 10
-443.2299499511719
 20
31.57015991210938
 11
-214.2210388183594
 21
31.57015991210938
  0
LINE
  8
0
  6
CONTINUOUS
 62
     3
 10
-329.2210998535156
 20
146.5701599121094
 11
-329.2210998535156
 21
-83.42984008789062
  0
LINE
  8
0
  6
CONTINUOUS
 62
     7
 10
-334.2210998535156
 20
52.07016372680664
 11
-334.2210998535156
 21
44.07015991210937
  0
LINE
  8
0
  6
CONTINUOUS
 62
     7
 10
-324.2210998535156
 20
52.07016372680664
 11
-324.2210998535156
 21
44.07015991210937
  0
LINE
  8
0
  6
CONTINUOUS
 62
     7
 10
-334.2210998535156
 20
44.07015991210937
 11
-324.2210998535156
 21
44.07015991210937
  0
LINE
  8
0
  6
CONTINUOUS
 62
     7
 10
-334.2210998535156
 20
52.07016372680664
 11
-324.2210998535156
 21
52.07016372680664
  0
LINE
  8
0
  6
CONTINUOUS
 62
     3
 10
-94.22109222412109
 20
31.57015991210938
 11
229.4409790039062
 21
31.57015991210938
  0
LINE
  8
0
  6
CONTINUOUS
 62
     7
 10
98.77890777587891
 20
104.9594802856445
 11
98.77890777587891
 21
-40.92984008789063
  0
LINE
  8
0
  6
CONTINUOUS
 62
     7
 10
98.77890777587891
 20
-40.92984008789063
 11
113.7789077758789
 21
-40.92984008789063
  0
LINE
  8
0
  6
CONTINUOUS
 62
     7
 10
143.7789001464844
 20
105.0701599121094
 11
143.7789001464844
 21
-41.92982482910156
  0
LINE
  8
0
  6
CONTINUOUS
 62
     7
 10
113.7789077758789
 20
104.0701599121094
 11
113.7789077758789
 21
89.07015991210937
  0
LINE
  8
0
  6
CONTINUOUS
 62
     7
 10
133.7789001464844
 20
104.0701599121094
 11
133.7789001464844
 21
-40.92984008789063
  0
LINE
  8
0
  6
CONTINUOUS
 62
     7
 10
133.7789001464844
 20
104.0701599121094
 11
143.7789001464844
 21
104.0701599121094
  0
LINE
  8
0
  6
CONTINUOUS
 62
     7
 10
133.7789001464844
 20
-40.92984008789063
 11
143.7789001464844
 21
-40.92984008789063
  0
LINE
  8
0
  6
CONTINUOUS
 62
     7
 10
113.7789077758789
 20
84.07015991210937
 11
128.7789001464844
 21
84.07015991210937
  0
LINE
  8
0
  6
CONTINUOUS
 62
     7
 10
113.7789077758789
 20
-20.92984008789062
 11
128.7789001464844
 21
-20.92984008789062
  0
LINE
  8
0
  6
CONTINUOUS
 62
     7
 10
108.7789077758789
 20
101.1435241699219
 11
108.7789077758789
 21
-38.00320434570313
  0
LINE
  8
0
  6
CONTINUOUS
 62
     7
 10
113.7789077758789
 20
-25.92984008789062
 11
113.7789077758789
 21
-40.92984008789063
  0
LINE
  8
0
  6
CONTINUOUS
 62
     7
 10
108.7789077758789
 20
101.1435241699219
 11
113.7789077758789
 21
101.1435241699219
  0
LINE
  8
0
  6
CONTINUOUS
 62
     7
 10
108.7789077758789
 20
-38.00320434570313
 11
113.7789077758789
 21
-38.00320434570313
  0
LINE
  8
0
  6
CONTINUOUS
 62
     7
 10
98.77890777587891
 20
104.0701599121094
 11
114.7789077758789
 21
104.0701599121094
  0
LINE
  8
0
  6
CONTINUOUS
 62
     7
 10
99.64572143554687
 20
109.8999557495117
 11
98.77892303466797
 21
104.9595031738281
  0
LINE
  8
0
  6
CONTINUOUS
 62
     7
 10
113.9121398925781
 20
109.8999786376953
 11
114.778938293457
 21
104.9595031738281
  0
LINE
  8
0
  6
CONTINUOUS
 62
     7
 10
106.778938293457
 20
111.8320159912109
 11
101.222770690918
 21
110.6381378173828
  0
LINE
  8
0
  6
CONTINUOUS
 62
     7
 10
106.7789077758789
 20
111.8320007324219
 11
112.3349609375
 21
110.6381530761719
  0
LINE
  8
0
  6
CONTINUOUS
 62
     7
 10
114.7789077758789
 20
104.9594802856445
 11
114.7789077758789
 21
104.0701599121094
  0
LINE
  8
0
  6
CONTINUOUS
 62
     7
 10
62.2789306640625
 20
-43.42984008789063
 11
95.27890777587891
 21
-43.42984008789063
  0
LINE
  8
0
  6
CONTINUOUS
 62
     7
 10
62.27890396118164
 20
106.5701599121094
 11
95.27890777587891
 21
106.5701599121094
  0
LINE
  8
0
  6
CONTINUOUS
 62
     7
 10
62.27891540527344
 20
106.5701675415039
 11
58.7789192199707
 21
102.4092864990234
  0
LINE
  8
0
  6
CONTINUOUS
 62
     7
 10
95.27890014648438
 20
106.5701522827148
 11
98.77890014648437
 21
102.4092636108398
  0
LINE
  8
0
  6
CONTINUOUS
 62
     7
 10
62.27890777587891
 20
-43.42978286743164
 11
58.77890777587891
 21
-39.26889038085937
  0
LINE
  8
0
  6
CONTINUOUS
 62
     7
 10
95.27890777587891
 20
-43.4298210144043
 11
98.77890014648437
 21
-39.26893997192383
  0
LINE
  8
0
  6
CONTINUOUS
 62
     7
 10
62.27890396118164
 20
61.00485992431641
 11
95.27890777587891
 21
61.00485992431641
  0
LINE
  8
0
  6
CONTINUOUS
 62
     7
 10
62.27890396118164
 20
52.31487655639648
 11
95.27890777587891
 21
52.31487655639648
  0
LINE
  8
0
  6
CONTINUOUS
 62
     7
 10
62.27890396118164
 20
44.51992416381836
 11
95.27890777587891
 21
44.51992416381836
  0
LINE
  8
0
  6
CONTINUOUS
 62
     7
 10
62.27890396118164
 20
35.57009887695313
 11
95.27890777587891
 21
35.57009887695313
  0
LINE
  8
0
  6
CONTINUOUS
 62
     7
 10
62.27890396118164
 20
27.570068359375
 11
95.27890777587891
 21
27.570068359375
  0
LINE
  8
0
  6
CONTINUOUS
 62
     7
 10
62.27890396118164
 20
18.62024116516113
 11
95.27890777587891
 21
18.62024116516113
  0
LINE
  8
0
  6
CONTINUOUS
 62
     7
 10
62.27890396118164
 20
10.82530212402344
 11
95.27890777587891
 21
10.82530212402344
  0
LINE
  8
0
  6
CONTINUOUS
 62
     7
 10
62.27890396118164
 20
2.135370969772339
 11
95.27890777587891
 21
2.135370969772339
  0
LINE
  8
0
  6
CONTINUOUS
 62
     7
 10
62.27890396118164
 20
-13.45308399200439
 11
95.27890777587891
 21
-13.45308399200439
  0
LINE
  8
0
  6
CONTINUOUS
 62
     7
 10
62.27890396118164
 20
-20.47528076171875
 11
95.27890777587891
 21
-20.47528076171875
  0
LINE
  8
0
  6
CONTINUOUS
 62
     7
 10
62.27890396118164
 20
-25.93126487731934
 11
95.27890777587891
 21
-25.93126487731934
  0
LINE
  8
0
  6
CONTINUOUS
 62
     7
 10
62.27890396118164
 20
-31.28926086425781
 11
95.27890777587891
 21
-31.28926086425781
  0
LINE
  8
0
  6
CONTINUOUS
 62
     7
 10
62.27890396118164
 20
-35.28927612304687
 11
95.27890777587891
 21
-35.28927612304687
  0
LINE
  8
0
  6
CONTINUOUS
 62
     7
 10
62.27890396118164
 20
-38.88111877441406
 11
95.27890777587891
 21
-38.88111877441406
  0
LINE
  8
0
  6
CONTINUOUS
 62
     7
 10
143.7789001464844
 20
-41.92982482910156
 11
166.2789001464844
 21
-41.92982482910156
  0
LINE
  8
0
  6
CONTINUOUS
 62
     7
 10
143.7789001464844
 20
105.0701599121094
 11
166.2789001464844
 21
105.0701599121094
  0
LINE
  8
0
  6
CONTINUOUS
 62
     7
 10
-29.22109413146973
 20
131.5701446533203
 11
-29.22109413146973
 21
76.496826171875
  0
LINE
  8
0
  6
CONTINUOUS
 62
     7
 10
58.77890777587891
 20
104.0701599121094
 11
58.77890777587891
 21
-40.92984008789063
  0
LINE
  8
0
  6
CONTINUOUS
 62
     7
 10
-29.22109413146973
 20
131.5701446533203
 11
-15.22109508514404
 21
131.5701446533203
  0
LINE
  8
0
  6
CONTINUOUS
 62
     7
 10
-29.22109413146973
 20
-68.42984008789063
 11
-15.22109508514404
 21
-68.42984008789063
  0
LINE
  8
0
  6
CONTINUOUS
 62
     7
 10
-15.22109508514404
 20
131.5701446533203
 11
-15.22109508514404
 21
-68.42984008789063
  0
LINE
  8
0
  6
CONTINUOUS
 62
     7
 10
46.77890777587891
 20
104.0701599121094
 11
46.77890777587891
 21
99.56230926513672
  0
LINE
  8
0
  6
CONTINUOUS
 62
     7
 10
46.77890777587891
 20
104.0701599121094
 11
58.77890777587891
 21
104.0701599121094
  0
LINE
  8
0
  6
CONTINUOUS
 62
     7
 10
46.77890777587891
 20
-40.92984008789063
 11
58.77890777587891
 21
-40.92984008789063
  0
LINE
  8
0
  6
CONTINUOUS
 62
     7
 10
-33.22109603881836
 20
96.57015991210937
 11
-33.22109603881836
 21
81.4189453125
  0
LINE
  8
0
  6
CONTINUOUS
 62
     7
 10
-33.22109603881836
 20
-33.42984008789062
 11
-29.22109413146973
 21
-33.42984008789062
  0
LINE
  8
0
  6
CONTINUOUS
 62
     7
 10
-33.22109603881836
 20
96.57015991210937
 11
-29.22109413146973
 21
96.57015991210937
  0
LINE
  8
0
  6
CONTINUOUS
 62
     7
 10
-33.22109603881836
 20
-5.929840087890625
 11
-33.22109603881836
 21
-33.42984008789062
  0
LINE
  8
0
  6
CONTINUOUS
 62
     7
 10
-29.22109413146973
 20
-3.06378173828125
 11
-29.22109413146973
 21
-68.42984008789063
  0
LINE
  8
0
  6
CONTINUOUS
 62
     7
 10
-79.22109222412109
 20
52.07016372680664
 11
-79.22109222412109
 21
14.07015991210938
  0
LINE
  8
0
  6
CONTINUOUS
 62
     7
 10
-79.22109222412109
 20
14.07015991210938
 11
-29.22109413146973
 21
14.07015991210938
  0
LINE
  8
0
  6
CONTINUOUS
 62
     7
 10
-79.22109222412109
 20
49.07015991210937
 11
-29.22109413146973
 21
49.07015991210937
  0
LINE
  8
0
  6
CONTINUOUS
 62
     7
 10
-29.22109413146973
 20
54.07015991210937
 11
-29.22109413146973
 21
9.070159912109375
  0
LINE
  8
0
  6
CONTINUOUS
 62
     7
 10
-29.22109413146973
 20
54.07015991210937
 11
-26.36660194396973
 21
54.07015991210937
  0
LINE
  8
0
  6
CONTINUOUS
 62
     7
 10
-29.22109413146973
 20
9.070159912109375
 11
-24.67037391662598
 21
9.070159912109375
  0
LINE
  8
0
  6
CONTINUOUS
 62
     7
 10
-79.22109222412109
 20
52.07016372680664
 11
-39.22109222412109
 21
52.07016372680664
  0
LINE
  8
0
  6
CONTINUOUS
 62
     7
 10
-39.22109222412109
 20
52.07016372680664
 11
-39.22109222412109
 21
49.07015991210937
  0
LINE
  8
0
  6
CONTINUOUS
 62
     7
 10
-15.22107791900635
 20
-29.99445343017578
 11
46.77892303466797
 21
-16.81295585632324
  0
LINE
  8
0
  6
CONTINUOUS
 62
     7
 10
46.77894973754883
 20
-22.26899147033691
 11
-15.22105503082275
 21
-35.45048904418945
  0
LINE
  8
0
  6
CONTINUOUS
 62
     7
 10
-15.22109508514404
 20
-0.64129638671875
 11
46.77890777587891
 21
-0.64129638671875
  0
LINE
  8
0
  6
CONTINUOUS
 62
     7
 10
-15.22109508514404
 20
63.7816162109375
 11
46.77890777587891
 21
63.7816162109375
  0
LINE
  8
0
  6
CONTINUOUS
 62
     7
 10
46.77890777587891
 20
79.95327758789063
 11
28.77890777587891
 21
79.95327758789063
  0
LINE
  8
0
  6
CONTINUOUS
 62
     7
 10
-15.22108554840088
 20
98.59077453613281
 11
25.11883163452148
 21
86.50576019287109
  0
LINE
  8
0
  6
CONTINUOUS
 62
     7
 10
-15.22110748291016
 20
93.13475036621094
 11
28.77890014648438
 21
79.95325469970703
  0
LINE
  8
0
  6
CONTINUOUS
 62
     7
 10
43.77890777587891
 20
99.56230926513672
 11
46.77890777587891
 21
99.56230926513672
  0
LINE
  8
0
  6
CONTINUOUS
 62
     7
 10
46.77890777587891
 20
79.95327758789063
 11
46.77890777587891
 21
-40.92984008789063
  0
LINE
  8
0
  6
CONTINUOUS
 62
     7
 10
27.56471252441406
 20
87.71747589111328
 11
29.21271324157715
 21
92.09867095947266
  0
LINE
  8
0
  6
CONTINUOUS
 62
     7
 10
166.2789001464844
 20
105.0701599121094
 11
166.2789001464844
 21
-41.92982482910156
  0
LINE
  8
0
  6
CONTINUOUS
 62
     3
 10
-94.22109222412109
 20
331.5701599121094
 11
229.4409790039062
 21
331.5701599121094
  0
LINE
  8
0
  6
CONTINUOUS
 62
     7
 10
166.2789001464844
 20
405.0701599121094
 11
166.2789001464844
 21
258.0701599121094
  0
LINE
  8
0
  6
CONTINUOUS
 62
     7
 10
98.77890777587891
 20
404.0701599121094
 11
98.77890777587891
 21
352.3733215332031
  0
LINE
  8
0
  6
CONTINUOUS
 62
     7
 10
98.77890777587891
 20
259.0701599121094
 11
108.7789077758789
 21
259.0701599121094
  0
LINE
  8
0
  6
CONTINUOUS
 62
     7
 10
98.77890777587891
 20
404.0701599121094
 11
108.7789077758789
 21
404.0701599121094
  0
LINE
  8
0
  6
CONTINUOUS
 62
     7
 10
143.7789001464844
 20
405.0701599121094
 11
143.7789001464844
 21
258.0701599121094
  0
LINE
  8
0
  6
CONTINUOUS
 62
     7
 10
133.7789001464844
 20
404.0701599121094
 11
133.7789001464844
 21
259.0701599121094
  0
LINE
  8
0
  6
CONTINUOUS
 62
     7
 10
133.7789001464844
 20
404.0701599121094
 11
143.7789001464844
 21
404.0701599121094
  0
LINE
  8
0
  6
CONTINUOUS
 62
     7
 10
133.7789001464844
 20
259.0701599121094
 11
143.7789001464844
 21
259.0701599121094
  0
LINE
  8
0
  6
CONTINUOUS
 62
     7
 10
113.7789077758789
 20
384.0701599121094
 11
128.7789001464844
 21
384.0701599121094
  0
LINE
  8
0
  6
CONTINUOUS
 62
     7
 10
113.7789077758789
 20
279.0701599121094
 11
128.7789001464844
 21
279.0701599121094
  0
LINE
  8
0
  6
CONTINUOUS
 62
     7
 10
108.7789077758789
 20
404.0701599121094
 11
108.7789077758789
 21
352.8179931640625
  0
LINE
  8
0
  6
CONTINUOUS
 62
     7
 10
113.7789077758789
 20
340.6937255859375
 11
113.7789077758789
 21
311.1791076660156
  0
LINE
  8
0
  6
CONTINUOUS
 62
     7
 10
108.7789077758789
 20
311.1791076660156
 11
113.7789077758789
 21
311.1791076660156
  0
LINE
  8
0
  6
CONTINUOUS
 62
     7
 10
108.7789077758789
 20
311.1791076660156
 11
108.7789077758789
 21
259.0701599121094
  0
LINE
  8
0
  6
CONTINUOUS
 62
     7
 10
98.77890777587891
 20
342.5444946289062
 11
98.77890777587891
 21
259.0701599121094
  0
LINE
  8
0
  6
CONTINUOUS
 62
     7
 10
62.27890396118164
 20
406.5701599121094
 11
95.27890777587891
 21
406.5701599121094
  0
LINE
  8
0
  6
CONTINUOUS
 62
     7
 10
62.27887344360352
 20
406.5701599121094
 11
58.77886581420898
 21
402.4092407226562
  0
LINE
  8
0
  6
CONTINUOUS
 62
     7
 10
95.27890777587891
 20
406.5701599121094
 11
98.77891540527344
 21
402.4092712402344
  0
LINE
  8
0
  6
CONTINUOUS
 62
     7
 10
95.27889251708984
 20
256.5701599121094
 11
98.77890014648437
 21
260.7310791015625
  0
LINE
  8
0
  6
CONTINUOUS
 62
     7
 10
62.27890396118164
 20
256.5701599121094
 11
95.27890777587891
 21
256.5701599121094
  0
LINE
  8
0
  6
CONTINUOUS
 62
     7
 10
62.27890396118164
 20
256.5701904296875
 11
58.7789192199707
 21
260.7310485839844
  0
LINE
  8
0
  6
CONTINUOUS
 62
     7
 10
62.27890396118164
 20
403.6440734863281
 11
95.27890777587891
 21
403.6440734863281
  0
LINE
  8
0
  6
CONTINUOUS
 62
     7
 10
62.27890396118164
 20
400.5526733398437
 11
95.27890777587891
 21
400.5526733398437
  0
LINE
  8
0
  6
CONTINUOUS
 62
     7
 10
62.27890396118164
 20
391.5526428222656
 11
95.27890777587891
 21
391.5526428222656
  0
LINE
  8
0
  6
CONTINUOUS
 62
     7
 10
62.27890396118164
 20
385.5727233886719
 11
95.27890777587891
 21
385.5727233886719
  0
LINE
  8
0
  6
CONTINUOUS
 62
     7
 10
62.27890396118164
 20
372.48095703125
 11
95.27890777587891
 21
372.48095703125
  0
LINE
  8
0
  6
CONTINUOUS
 62
     7
 10
62.27890396118164
 20
379.7218627929687
 11
95.27890777587891
 21
379.7218627929687
  0
LINE
  8
0
  6
CONTINUOUS
 62
     7
 10
62.27890396118164
 20
365.552734375
 11
95.27890777587891
 21
365.552734375
  0
LINE
  8
0
  6
CONTINUOUS
 62
     7
 10
62.27890396118164
 20
357.2921142578125
 11
95.27890777587891
 21
357.2921142578125
  0
LINE
  8
0
  6
CONTINUOUS
 62
     7
 10
62.27890396118164
 20
349.6416625976562
 11
91.23507690429687
 21
349.6416625976562
  0
LINE
  8
0
  6
CONTINUOUS
 62
     7
 10
62.27890396118164
 20
340.5702209472656
 11
95.27890777587891
 21
340.5702209472656
  0
LINE
  8
0
  6
CONTINUOUS
 62
     7
 10
62.27890396118164
 20
262.5875549316406
 11
95.27890777587891
 21
262.5875549316406
  0
LINE
  8
0
  6
CONTINUOUS
 62
     7
 10
62.27890396118164
 20
259.4962158203125
 11
95.27890777587891
 21
259.4962158203125
  0
LINE
  8
0
  6
CONTINUOUS
 62
     7
 10
143.7789001464844
 20
405.0701599121094
 11
166.2789001464844
 21
405.0701599121094
  0
LINE
  8
0
  6
CONTINUOUS
 62
     7
 10
143.7789001464844
 20
258.0701599121094
 11
166.2789001464844
 21
258.0701599121094
  0
LINE
  8
0
  6
CONTINUOUS
 62
     7
 10
-29.22109413146973
 20
231.5701599121094
 11
-29.22109413146973
 21
296.9123840332031
  0
LINE
  8
0
  6
CONTINUOUS
 62
     7
 10
58.77890777587891
 20
259.0701599121094
 11
58.77890777587891
 21
404.0701599121094
  0
LINE
  8
0
  6
CONTINUOUS
 62
     7
 10
-29.22109413146973
 20
231.5701599121094
 11
-15.22109508514404
 21
231.5701599121094
  0
LINE
  8
0
  6
CONTINUOUS
 62
     7
 10
-29.22109413146973
 20
431.5701599121094
 11
-15.22109508514404
 21
431.5701599121094
  0
LINE
  8
0
  6
CONTINUOUS
 62
     7
 10
-15.22109508514404
 20
231.5701599121094
 11
-15.22109508514404
 21
431.5701599121094
  0
LINE
  8
0
  6
CONTINUOUS
 62
     7
 10
46.77890777587891
 20
259.0701599121094
 11
58.77890777587891
 21
259.0701599121094
  0
LINE
  8
0
  6
CONTINUOUS
 62
     7
 10
46.77890777587891
 20
404.0701599121094
 11
58.77890777587891
 21
404.0701599121094
  0
LINE
  8
0
  6
CONTINUOUS
 62
     7
 10
46.77890777587891
 20
259.0701599121094
 11
46.77890777587891
 21
277.6985778808594
  0
LINE
  8
0
  6
CONTINUOUS
 62
     7
 10
-33.22109603881836
 20
266.5701599121094
 11
-33.22109603881836
 21
294.0701599121094
  0
LINE
  8
0
  6
CONTINUOUS
 62
     7
 10
-33.22109603881836
 20
396.5701599121094
 11
-29.22109413146973
 21
396.5701599121094
  0
LINE
  8
0
  6
CONTINUOUS
 62
     7
 10
-33.22109603881836
 20
266.5701599121094
 11
-29.22109413146973
 21
266.5701599121094
  0
LINE
  8
0
  6
CONTINUOUS
 62
     7
 10
-33.22109603881836
 20
369.0701599121094
 11
-33.22109603881836
 21
396.5701599121094
  0
LINE
  8
0
  6
CONTINUOUS
 62
     7
 10
-29.22109413146973
 20
366.7726745605469
 11
-29.22109413146973
 21
431.5701599121094
  0
LINE
  8
0
  6
CONTINUOUS
 62
     7
 10
-79.22109222412109
 20
314.0701599121094
 11
-79.22109222412109
 21
349.0701599121094
  0
LINE
  8
0
  6
CONTINUOUS
 62
     7
 10
-79.22109222412109
 20
349.0701599121094
 11
-29.22109413146973
 21
349.0701599121094
  0
LINE
  8
0
  6
CONTINUOUS
 62
     7
 10
-79.22109222412109
 20
314.0701599121094
 11
-29.22109413146973
 21
314.0701599121094
  0
LINE
  8
0
  6
CONTINUOUS
 62
     7
 10
-79.22109222412109
 20
336.5701599121094
 11
-36.22109603881836
 21
336.5701599121094
  0
LINE
  8
0
  6
CONTINUOUS
 62
     7
 10
-79.22109222412109
 20
326.5701599121094
 11
-36.22109603881836
 21
326.5701599121094
  0
LINE
  8
0
  6
CONTINUOUS
 62
     7
 10
-29.22109413146973
 20
309.0701599121094
 11
-29.22109413146973
 21
354.0701599121094
  0
LINE
  8
0
  6
CONTINUOUS
 62
     7
 10
-29.22109413146973
 20
309.0701599121094
 11
-23.74801063537598
 21
309.0701599121094
  0
LINE
  8
0
  6
CONTINUOUS
 62
     7
 10
-29.22109413146973
 20
354.0701599121094
 11
-22.4122257232666
 21
354.0701599121094
  0
LINE
  8
0
  6
CONTINUOUS
 62
     7
 10
-39.22109222412109
 20
336.5701599121094
 11
-39.22109222412109
 21
326.5701599121094
  0
LINE
  8
0
  6
CONTINUOUS
 62
     7
 10
-15.22109889984131
 20
394.4493408203125
 11
46.77888870239258
 21
382.1574096679688
  0
LINE
  8
0
  6
CONTINUOUS
 62
     7
 10
-15.22112464904785
 20
388.5985717773437
 11
46.77889251708984
 21
376.306640625
  0
LINE
  8
0
  6
CONTINUOUS
 62
     7
 10
-5.221094608306885
 20
302.1047668457031
 11
25.28314399719238
 21
302.1047668457031
  0
LINE
  8
0
  6
CONTINUOUS
 62
     7
 10
29.28109931945801
 20
286.8337097167969
 11
28.77890777587891
 21
286.8337097167969
  0
LINE
  8
0
  6
CONTINUOUS
 62
     7
 10
33.57101821899414
 20
280.9828796386719
 11
28.77890777587891
 21
280.9828796386719
  0
LINE
  8
0
  6
CONTINUOUS
 62
     7
 10
-15.22109508514404
 20
274.5417785644531
 11
28.7789249420166
 21
286.8337097167969
  0
LINE
  8
0
  6
CONTINUOUS
 62
     7
 10
-15.22107982635498
 20
268.69091796875
 11
28.77891159057617
 21
280.9828491210938
  0
LINE
  8
0
  6
CONTINUOUS
 62
     7
 10
-10.22109508514404
 20
364.6808776855469
 11
41.77890777587891
 21
364.6808776855469
  0
LINE
  8
0
  6
CONTINUOUS
 62
     7
 10
-10.22109508514404
 20
340.6708068847656
 11
41.77890777587891
 21
340.6708068847656
  0
LINE
  8
0
  6
CONTINUOUS
 62
     7
 10
40.25235366821289
 20
315.1786193847656
 11
46.77890777587891
 21
315.1786193847656
  0
LINE
  8
0
  6
CONTINUOUS
 62
     7
 10
43.77890777587891
 20
302.2731628417969
 11
46.77890777587891
 21
302.2731628417969
  0
LINE
  8
0
  6
CONTINUOUS
 62
     7
 10
43.77890777587891
 20
277.6985778808594
 11
46.77890777587891
 21
277.6985778808594
  0
LINE
  8
0
  6
CONTINUOUS
 62
     7
 10
25.61454582214355
 20
300.2073974609375
 11
29.14107704162598
 21
287.3019104003906
  0
LINE
  8
0
  6
CONTINUOUS
 62
     7
 10
46.77890777587891
 20
302.2731628417969
 11
46.77890777587891
 21
404.0701599121094
  0
LINE
  8
0
  6
CONTINUOUS
 62
     7
 10
166.2789001464844
 20
104.0701599121094
 11
181.2789001464844
 21
104.0701599121094
  0
LINE
  8
0
  6
CONTINUOUS
 62
     7
 10
166.2789001464844
 20
-40.92984008789063
 11
166.2789001464844
 21
104.0701599121094
  0
LINE
  8
0
  6
CONTINUOUS
 62
     7
 10
181.2789001464844
 20
-40.92984008789063
 11
181.2789001464844
 21
104.0701599121094
  0
LINE
  8
0
  6
CONTINUOUS
 62
     7
 10
166.2789001464844
 20
-40.92984008789063
 11
181.2789001464844
 21
-40.92984008789063
  0
LINE
  8
0
  6
CONTINUOUS
 62
     7
 10
216.2789001464844
 20
111.5701599121094
 11
216.2789001464844
 21
-48.42984008789063
  0
LINE
  8
0
  6
CONTINUOUS
 62
     7
 10
204.2789001464844
 20
111.5701599121094
 11
216.2789001464844
 21
111.5701599121094
  0
LINE
  8
0
  6
CONTINUOUS
 62
     7
 10
204.2789001464844
 20
111.5701599121094
 11
204.2789001464844
 21
-48.42984008789063
  0
LINE
  8
0
  6
CONTINUOUS
 62
     7
 10
186.2789001464844
 20
69.57015991210938
 11
199.2789001464844
 21
69.57015991210938
  0
LINE
  8
0
  6
CONTINUOUS
 62
     7
 10
181.2789001464844
 20
87.57015991210938
 11
204.2789001464844
 21
87.57015991210938
  0
LINE
  8
0
  6
CONTINUOUS
 62
     7
 10
204.2789001464844
 20
-48.42984008789063
 11
216.2789001464844
 21
-48.42984008789063
  0
LINE
  8
0
  6
CONTINUOUS
 62
     7
 10
186.2789001464844
 20
-6.429840087890625
 11
199.2789001464844
 21
-6.429840087890625
  0
LINE
  8
0
  6
CONTINUOUS
 62
     7
 10
181.2789001464844
 20
-24.42984008789063
 11
204.2789001464844
 21
-24.42984008789063
  0
LINE
  8
0
  6
CONTINUOUS
 62
     7
 10
181.2789001464844
 20
26.57015991210938
 11
204.2789001464844
 21
26.57015991210938
  0
LINE
  8
0
  6
CONTINUOUS
 62
     7
 10
181.2789001464844
 20
36.57015991210938
 11
204.2789001464844
 21
36.57015991210938
  0
LINE
  8
0
  6
CONTINUOUS
 62
     7
 10
181.2789001464844
 20
336.5701599121094
 11
204.2789001464844
 21
336.5701599121094
  0
LINE
  8
0
  6
CONTINUOUS
 62
     7
 10
181.2789001464844
 20
326.5701599121094
 11
204.2789001464844
 21
326.5701599121094
  0
LINE
  8
0
  6
CONTINUOUS
 62
     7
 10
181.2789001464844
 20
275.5701599121094
 11
204.2789001464844
 21
275.5701599121094
  0
LINE
  8
0
  6
CONTINUOUS
 62
     7
 10
186.2789001464844
 20
293.5701599121094
 11
199.2789001464844
 21
293.5701599121094
  0
LINE
  8
0
  6
CONTINUOUS
 62
     7
 10
166.2789001464844
 20
331.5701599121094
 11
166.2789001464844
 21
404.0701599121094
  0
LINE
  8
0
  6
CONTINUOUS
 62
     7
 10
216.2789001464844
 20
411.5701599121094
 11
216.2789001464844
 21
251.5701599121094
  0
LINE
  8
0
  6
CONTINUOUS
 62
     7
 10
204.2789001464844
 20
411.5701599121094
 11
216.2789001464844
 21
411.5701599121094
  0
LINE
  8
0
  6
CONTINUOUS
 62
     7
 10
204.2789001464844
 20
411.5701599121094
 11
204.2789001464844
 21
251.5701599121094
  0
LINE
  8
0
  6
CONTINUOUS
 62
     7
 10
186.2789001464844
 20
369.5701599121094
 11
199.2789001464844
 21
369.5701599121094
  0
LINE
  8
0
  6
CONTINUOUS
 62
     7
 10
181.2789001464844
 20
387.5701599121094
 11
204.2789001464844
 21
387.5701599121094
  0
LINE
  8
0
  6
CONTINUOUS
 62
     7
 10
204.2789001464844
 20
251.5701599121094
 11
216.2789001464844
 21
251.5701599121094
  0
LINE
  8
0
  6
CONTINUOUS
 62
     7
 10
181.2789001464844
 20
331.5701599121094
 11
181.2789001464844
 21
404.0701599121094
  0
LINE
  8
0
  6
CONTINUOUS
 62
     7
 10
166.2789001464844
 20
404.0701599121094
 11
181.2789001464844
 21
404.0701599121094
  0
LINE
  8
0
  6
CONTINUOUS
 62
     7
 10
166.2789001464844
 20
259.0701599121094
 11
181.2789001464844
 21
259.0701599121094
  0
LINE
  8
0
  6
CONTINUOUS
 62
     7
 10
181.2789001464844
 20
259.0701599121094
 11
181.2789001464844
 21
331.5701599121094
  0
LINE
  8
0
  6
CONTINUOUS
 62
     7
 10
166.2789001464844
 20
259.0701599121094
 11
166.2789001464844
 21
331.5701599121094
  0
LINE
  8
0
  6
CONTINUOUS
 62
     7
 10
106.7789001464844
 20
142.4378509521484
 11
106.7789001464844
 21
101.5539016723633
  0
LINE
  8
0
  6
CONTINUOUS
 62
     7
 10
86.24241638183594
 20
121.6800765991211
 11
127.1263732910156
 21
121.6800765991211
  0
LINE
  8
0
  6
CONTINUOUS
 62
     7
 10
-348.8739624023438
 20
143.0274047851562
 11
-346.5772399902344
 21
130.0020599365234
  0
ARC
  8
0
  6
CONTINUOUS
 62
     7
 10
-347.393310546875
 20
134.6302947998047
 40
3.150000095367405
 50
10.0000005628667
 51
189.9999756897453
  0
CIRCLE
  8
0
  6
CONTINUOUS
 62
     7
 10
-329.2210083007813
 20
31.57015991210938
 40
100
  0
ARC
  8
0
  6
CONTINUOUS
 62
     3
 10
-329.2210998535156
 20
31.57009696960449
 40
82.5
 50
349.5243638463539
 51
10.47572323855794
  0
CIRCLE
  8
0
  6
CONTINUOUS
 62
     7
 10
-329.2210998535156
 20
31.57015991210938
 40
60
  0
CIRCLE
  8
0
  6
CONTINUOUS
 62
     7
 10
-329.2210998535156
 20
31.57015991210938
 40
65
  0
ARC
  8
0
  6
CONTINUOUS
 62
     7
 10
-329.2210998535156
 20
31.57015991210938
 40
17.5
 50
106.6015764143271
 51
73.39842495216367
  0
CIRCLE
  8
0
  6
CONTINUOUS
 62
     7
 10
-246.7210998535156
 20
31.57015991210938
 40
6
  0
CIRCLE
  8
0
  6
CONTINUOUS
 62
     7
 10
-329.2210998535156
 20
114.0701599121094
 40
6
  0
ARC
  8
0
  6
CONTINUOUS
 62
     3
 10
-329.2210083007813
 20
31.57015991210938
 40
82.5
 50
79.5243637895112
 51
100.4757231817152
  0
CIRCLE
  8
0
  6
CONTINUOUS
 62
     7
 10
-411.7210998535156
 20
31.57015991210938
 40
6
  0
ARC
  8
0
  6
CONTINUOUS
 62
     3
 10
-329.2210998535156
 20
31.57022285461426
 40
82.49999999999997
 50
169.5243662939893
 51
190.4757256861934
  0
CIRCLE
  8
0
  6
CONTINUOUS
 62
     7
 10
-329.2210998535156
 20
-50.92984008789063
 40
6
  0
ARC
  8
0
  6
CONTINUOUS
 62
     3
 10
-329.2211608886719
 20
31.57015991210938
 40
82.5
 50
259.5243587805548
 51
280.475725002948
  0
ARC
  8
0
  6
CONTINUOUS
 62
     7
 10
118.7789077758789
 20
89.07015991210937
 40
4.999999999999996
 50
179.9999776881996
 51
270.0000280040019
  0
ARC
  8
0
  6
CONTINUOUS
 62
     7
 10
113.7789077758789
 20
89.07015991210937
 40
4.999999999999996
 50
179.9999776881996
 51
270.0000280040019
  0
ARC
  8
0
  6
CONTINUOUS
 62
     7
 10
113.7789077758789
 20
-25.92984008789062
 40
5.000000000000001
 50
89.99992054220812
 51
179.9999776881997
  0
ARC
  8
0
  6
CONTINUOUS
 62
     7
 10
118.7789077758789
 20
-25.92984008789062
 40
5.000000000000001
 50
89.99992054220812
 51
179.9999776881997
  0
ARC
  8
0
  6
CONTINUOUS
 62
     7
 10
128.7789001464844
 20
89.07015991210937
 40
5.000000000000004
 50
269.9999974955218
 51
2.504477984065464E-06
  0
ARC
  8
0
  6
CONTINUOUS
 62
     7
 10
128.7789001464844
 20
-25.92984008789062
 40
5.000000000000004
 50
2.504478065487664E-06
 51
90.00000250447815
  0
ARC
  8
0
  6
CONTINUOUS
 62
     7
 10
25.69278526306152
 20
88.42163848876953
 40
2.000000000000004
 50
253.3228612028851
 51
339.3860468301527
  0
ARC
  8
0
  6
CONTINUOUS
 62
     7
 10
113.7789077758789
 20
274.0701599121094
 40
5.000000000000014
 50
89.99997518372147
 51
179.9999776881996
  0
ARC
  8
0
  6
CONTINUOUS
 62
     7
 10
113.7789077758789
 20
389.0701599121094
 40
4.999999999999996
 50
179.9999776881996
 51
270.0000280040019
  0
ARC
  8
0
  6
CONTINUOUS
 62
     7
 10
128.7789001464844
 20
274.0701599121094
 40
5.000000000000004
 50
2.504477821221064E-06
 51
90.00000250447815
  0
ARC
  8
0
  6
CONTINUOUS
 62
     7
 10
128.7789001464844
 20
389.0701599121094
 40
5.000000000000004
 50
269.9999974955218
 51
2.504477821221064E-06
  0
ARC
  8
0
  6
CONTINUOUS
 62
     7
 10
-36.22109603881836
 20
331.5701599121094
 40
5.000000000000019
 50
270.0000179860893
 51
89.99997518372147
  0
ARC
  8
0
  6
CONTINUOUS
 62
     7
 10
-10.22109508514404
 20
369.6808776855469
 40
5
 50
179.999991348578
 51
270.0000006832453
  0
ARC
  8
0
  6
CONTINUOUS
 62
     7
 10
41.77890777587891
 20
369.6808776855469
 40
5.000000000000004
 50
269.9999974955218
 51
2.504477821221068E-06
  0
ARC
  8
0
  6
CONTINUOUS
 62
     7
 10
-10.22109508514404
 20
345.6708068847656
 40
5
 50
179.999991348578
 51
270.0000006832453
  0
ARC
  8
0
  6
CONTINUOUS
 62
     7
 10
41.77890777587891
 20
345.6708068847656
 40
5.000000000000004
 50
269.9999974955218
 51
2.504477821221068E-06
  0
ARC
  8
0
  6
CONTINUOUS
 62
     7
 10
-5.221094608306885
 20
292.1047668457031
 40
10.00000000000002
 50
90.00000933466734
 51
180.0000050089563
  0
ARC
  8
0
  6
CONTINUOUS
 62
     7
 10
186.2789001464844
 20
74.57015991210938
 40
5
 50
179.999991348578
 51
270.0000006832453
  0
ARC
  8
0
  6
CONTINUOUS
 62
     7
 10
186.2789001464844
 20
-11.42984008789063
 40
5
 50
90.00000250447815
 51
180.0000050089563
  0
ARC
  8
0
  6
CONTINUOUS
 62
     7
 10
199.2789001464844
 20
-11.42984008789063
 40
5
 50
0
 51
90.00000250447815
  0
ARC
  8
0
  6
CONTINUOUS
 62
     7
 10
199.2789001464844
 20
74.57015991210938
 40
5.000000000000004
 50
269.9999974955218
 51
0
  0
ARC
  8
0
  6
CONTINUOUS
 62
     7
 10
199.2789001464844
 20
374.5701599121094
 40
5.000000000000004
 50
269.9999974955218
 51
0
  0
ARC
  8
0
  6
CONTINUOUS
 62
     7
 10
199.2789001464844
 20
288.5701599121094
 40
5
 50
0
 51
90.00000250447815
  0
ARC
  8
0
  6
CONTINUOUS
 62
     7
 10
186.2789001464844
 20
374.5701599121094
 40
5
 50
179.999991348578
 51
270.0000006832453
  0
ARC
  8
0
  6
CONTINUOUS
 62
     7
 10
186.2789001464844
 20
288.5701599121094
 40
5.000000000000004
 50
90.00000250447815
 51
180.0000050089563
  0
POLYLINE
  8
0
  6
CONTINUOUS
 62
     7
 66
     1
 10
0
 20
0
  0
VERTEX
  8
0
  6
CONTINUOUS
 62
     7
 10
114.3400876256286
 20
107.4620119325373
 42
0.08272218689259785
  0
VERTEX
  8
0
  6
CONTINUOUS
 62
     7
 10
118.6270289041819
 20
110.6633611741677
 42
0.08385195210366898
  0
VERTEX
  8
0
  6
CONTINUOUS
 62
     7
 10
121.6347323855594
 20
115.0882993367155
 42
0.08471345107415423
  0
VERTEX
  8
0
  6
CONTINUOUS
 62
     7
 10
123.0127934991255
 20
120.2576575388601
 42
0.0849038357452726
  0
VERTEX
  8
0
  6
CONTINUOUS
 62
     7
 10
122.5955273309289
 20
125.590007827719
 42
0.08436950449425049
  0
VERTEX
  8
0
  6
CONTINUOUS
 62
     7
 10
120.4337471922465
 20
130.4832529415202
 42
0.08333438831003971
  0
VERTEX
  8
0
  6
CONTINUOUS
 62
     7
 10
116.78397163988
 20
134.3955243147792
 42
0.08226412406730131
  0
VERTEX
  8
0
  6
CONTINUOUS
 62
     7
 10
112.0616035094943
 20
136.9125937919171
 42
0.08162583832055412
  0
VERTEX
  8
0
  6
CONTINUOUS
 62
     7
 10
106.7789001464844
 20
137.7803039550781
 42
0.08158656855488937
  0
VERTEX
  8
0
  6
CONTINUOUS
 62
     7
 10
101.4986318978983
 20
136.913416067595
 42
0.08224721519762258
  0
VERTEX
  8
0
  6
CONTINUOUS
 62
     7
 10
96.77671816165744
 20
134.3977373548124
 42
0.08333896003169794
  0
VERTEX
  8
0
  6
CONTINUOUS
 62
     7
 10
93.12587639600667
 20
130.4860028863528
 42
0.08437839476832364
  0
VERTEX
  8
0
  6
CONTINUOUS
 62
     7
 10
90.96294172787098
 20
125.5926264238868
 42
0.08490740795817851
  0
VERTEX
  8
0
  6
CONTINUOUS
 62
     7
 10
90.54478971134131
 20
120.2601122758381
 42
0.08470957564677364
  0
VERTEX
  8
0
  6
CONTINUOUS
 62
     7
 10
91.92194044758379
 20
115.090776324381
 42
0.08383811696001529
  0
VERTEX
  8
0
  6
CONTINUOUS
 62
     7
 10
94.92825243871894
 20
110.6659954646123
 42
0.08273742614742036
  0
VERTEX
  8
0
  6
CONTINUOUS
 62
     7
 10
99.21530943172631
 20
107.4632541881222
 42
0
  0
SEQEND
  8
0
  0
POLYLINE
  8
0
  6
CONTINUOUS
 62
     7
 66
     1
 10
0
 20
0
 70
     1
  0
VERTEX
  8
0
  6
CONTINUOUS
 62
     7
 10
116.7789001464844
 20
121.6800765991211
 42
0.1005698542379811
  0
VERTEX
  8
0
  6
CONTINUOUS
 62
     7
 10
116.0075160821047
 20
125.472883772264
 42
0.0993147258644656
  0
VERTEX
  8
0
  6
CONTINUOUS
 62
     7
 10
113.8238260156672
 20
128.6693680284332
 42
0.09762478064495669
  0
VERTEX
  8
0
  6
CONTINUOUS
 62
     7
 10
110.5816692386937
 20
130.7882929936399
 42
0.0964571817365856
  0
VERTEX
  8
0
  6
CONTINUOUS
 62
     7
 10
106.7789001464844
 20
131.5281524658203
 42
0.0964367171386961
  0
VERTEX
  8
0
  6
CONTINUOUS
 62
     7
 10
102.9768888391298
 20
130.7885998002265
 42
0.09759328260459121
  0
VERTEX
  8
0
  6
CONTINUOUS
 62
     7
 10
99.73543594165676
 20
128.6707966074309
 42
0.09935268515563299
  0
VERTEX
  8
0
  6
CONTINUOUS
 62
     7
 10
97.55049672986269
 20
125.4733852396294
 42
0.1005839546174121
  0
VERTEX
  8
0
  6
CONTINUOUS
 62
     7
 10
96.77890014648437
 20
121.6800765991211
 42
0.1005698542379705
  0
VERTEX
  8
0
  6
CONTINUOUS
 62
     7
 10
97.55028421086404
 20
117.8872694259782
 42
0.09931472586446209
  0
VERTEX
  8
0
  6
CONTINUOUS
 62
     7
 10
99.73397427730154
 20
114.6907851698089
 42
0.097624780644969
  0
VERTEX
  8
0
  6
CONTINUOUS
 62
     7
 10
102.9761310542751
 20
112.5718602046023
 42
0.09645718173660128
  0
VERTEX
  8
0
  6
CONTINUOUS
 62
     7
 10
106.7789001464844
 20
111.8320007324219
 42
0.09643671713869011
  0
VERTEX
  8
0
  6
CONTINUOUS
 62
     7
 10
110.5809114538389
 20
112.5715533980157
 42
0.09759328260459608
  0
VERTEX
  8
0
  6
CONTINUOUS
 62
     7
 10
113.822364351312
 20
114.6893565908113
 42
0.09935268515562402
  0
VERTEX
  8
0
  6
CONTINUOUS
 62
     7
 10
116.0073035631061
 20
117.8867679586128
 42
0.1005839546174113
  0
SEQEND
  8
0
  0
POLYLINE
  8
0
  6
CONTINUOUS
 62
     7
 66
     1
 10
0
 20
0
  0
VERTEX
  8
0
  6
CONTINUOUS
 62
     7
 10
113.9121680874577
 20
109.8996516887475
 42
0.2015077848297474
  0
VERTEX
  8
0
  6
CONTINUOUS
 62
     7
 10
113.1821650191676
 20
110.4081330324565
 42
0.03155963290863868
  0
VERTEX
  8
0
  6
CONTINUOUS
 62
     7
 10
112.2923367303043
 20
110.6472156116922
 42
0.01542697894101861
  0
VERTEX
  8
0
  6
CONTINUOUS
 62
     7
 10
111.3846977199852
 20
110.8065784034452
 42
0.01021031028324467
  0
VERTEX
  8
0
  6
CONTINUOUS
 62
     7
 10
110.4691729779385
 20
110.9203842029065
 42
0.007829298687480874
  0
VERTEX
  8
0
  6
CONTINUOUS
 62
     7
 10
109.5500938869664
 20
111.0014737227812
 42
0.006588770937852935
  0
VERTEX
  8
0
  6
CONTINUOUS
 62
     7
 10
108.6288599755094
 20
111.0562192303515
 42
0.005931166794584022
  0
VERTEX
  8
0
  6
CONTINUOUS
 62
     7
 10
107.7064574066552
 20
111.0879873799805
 42
0.005641342829733793
  0
VERTEX
  8
0
  6
CONTINUOUS
 62
     7
 10
106.7835304176903
 20
111.0984723350413
 42
0.005639269559034383
  0
VERTEX
  8
0
  6
CONTINUOUS
 62
     7
 10
105.8607123203094
 20
111.0881990131492
 42
0.005918238324982616
  0
VERTEX
  8
0
  6
CONTINUOUS
 62
     7
 10
104.9395437239167
 20
111.056710603107
 42
0.006584447748123848
  0
VERTEX
  8
0
  6
CONTINUOUS
 62
     7
 10
104.01753381762
 20
111.0021893100834
 42
0.007814591633808802
  0
VERTEX
  8
0
  6
CONTINUOUS
 62
     7
 10
103.0981000221375
 20
110.9213732630013
 42
0.0101849592974167
  0
VERTEX
  8
0
  6
CONTINUOUS
 62
     7
 10
102.1818374149923
 20
110.8078536785741
 42
0.01540574373225481
  0
VERTEX
  8
0
  6
CONTINUOUS
 62
     7
 10
101.2715668768842
 20
110.6484982416972
 42
0.03141754463769456
  0
VERTEX
  8
0
  6
CONTINUOUS
 62
     7
 10
100.3802865569477
 20
110.4097629620001
 42
0.1997036741610977
  0
VERTEX
  8
0
  6
CONTINUOUS
 62
     7
 10
99.64605671059597
 20
109.9019317980253
 42
0
  0
SEQEND
  8
0
  0
POLYLINE
  8
0
  6
CONTINUOUS
 62
     7
 66
     1
 10
0
 20
0
  0
VERTEX
  8
0
  6
CONTINUOUS
 62
     7
 10
43.77890777587891
 20
99.56230926513672
 42
0.02700918558533091
  0
VERTEX
  8
0
  6
CONTINUOUS
 62
     7
 10
41.32171591535375
 20
99.42986435168554
 42
0.02829822032738375
  0
VERTEX
  8
0
  6
CONTINUOUS
 62
     7
 10
38.89477418424447
 20
99.02800748540135
 42
0.03115747717260122
  0
VERTEX
  8
0
  6
CONTINUOUS
 62
     7
 10
36.53169434100212
 20
98.34202847593522
 42
0.03614903951850854
  0
VERTEX
  8
0
  6
CONTINUOUS
 62
     7
 10
34.28204599384837
 20
97.34698136671813
 42
0.04437693770211171
  0
VERTEX
  8
0
  6
CONTINUOUS
 62
     7
 10
32.2204274917836
 20
96.00680919838834
 42
0.05742347103197785
  0
VERTEX
  8
0
  6
CONTINUOUS
 62
     7
 10
30.47109977364527
 20
94.28169210456542
 42
0.07586185818252028
  0
VERTEX
  8
0
  6
CONTINUOUS
 62
     7
 10
29.23689104479539
 20
92.16204585512959
 42
0.09296670677761497
  0
VERTEX
  8
0
  6
CONTINUOUS
 62
     7
 10
28.7789077758789
 20
89.75779724121094
 42
0.09295321090972863
  0
VERTEX
  8
0
  6
CONTINUOUS
 62
     7
 10
29.23675459722514
 20
87.3539022671854
 42
0.07584143999287953
  0
VERTEX
  8
0
  6
CONTINUOUS
 62
     7
 10
30.47030916497318
 20
85.23489953694506
 42
0.05741683925512697
  0
VERTEX
  8
0
  6
CONTINUOUS
 62
     7
 10
32.21884187882814
 20
83.51004476589546
 42
0.04437739713884396
  0
VERTEX
  8
0
  6
CONTINUOUS
 62
     7
 10
34.27981061381324
 20
82.16981753152622
 42
0.03615272297262199
  0
VERTEX
  8
0
  6
CONTINUOUS
 62
     7
 10
36.52910629204056
 20
81.1745112739451
 42
0.03115785574470296
  0
VERTEX
  8
0
  6
CONTINUOUS
 62
     7
 10
38.8917826391535
 20
80.48827412192465
 42
0.02831178020402334
  0
VERTEX
  8
0
  6
CONTINUOUS
 62
     7
 10
41.31966943722914
 20
80.08596714367717
 42
0.02703206732637287
  0
VERTEX
  8
0
  6
CONTINUOUS
 62
     7
 10
43.77890777587891
 20
79.95330047607423
 42
0
  0
SEQEND
  8
0
  0
POLYLINE
  8
0
  6
CONTINUOUS
 62
     7
 66
     1
 10
0
 20
0
  0
VERTEX
  8
0
  6
CONTINUOUS
 62
     7
 10
-33.22073657496638
 20
81.41859774255087
 42
-0.09539175231872542
  0
VERTEX
  8
0
  6
CONTINUOUS
 62
     7
 10
-27.36353982177026
 20
72.98994810748502
 42
-0.1133276566256032
  0
VERTEX
  8
0
  6
CONTINUOUS
 62
     7
 10
-26.0030635690283
 20
62.84332905686423
 42
0.02518054601803397
  0
VERTEX
  8
0
  6
CONTINUOUS
 62
     7
 10
-26.3264208297121
 20
52.5268667284649
 42
0.01984299870497635
  0
VERTEX
  8
0
  6
CONTINUOUS
 62
     7
 10
-25.38590853557996
 20
42.24590035480725
 42
-0.02129191659553466
  0
VERTEX
  8
0
  6
CONTINUOUS
 62
     7
 10
-24.46717532654965
 20
31.96358283212667
 42
-0.0184454093800549
  0
VERTEX
  8
0
  6
CONTINUOUS
 62
     7
 10
-24.67573081629709
 20
21.64173892549512
 42
0.02372721688521498
  0
VERTEX
  8
0
  6
CONTINUOUS
 62
     7
 10
-24.74345715019217
 20
11.31958276185903
 42
-0.1202227877433699
  0
VERTEX
  8
0
  6
CONTINUOUS
 62
     7
 10
-25.93011965726955
 20
1.170042749839303
 42
-0.1467773312735992
  0
VERTEX
  8
0
  6
CONTINUOUS
 62
     7
 10
-33.22109603881836
 20
-5.929840087890625
 42
0
  0
SEQEND
  8
0
  0
POLYLINE
  8
0
  6
CONTINUOUS
 62
     7
 66
     1
 10
0
 20
0
  0
VERTEX
  8
0
  6
CONTINUOUS
 62
     7
 10
43.77890777587891
 20
302.2731628417969
 42
0.03684100915018198
  0
VERTEX
  8
0
  6
CONTINUOUS
 62
     7
 10
41.10374341612302
 20
302.0761745320627
 42
0.03801003109665835
  0
VERTEX
  8
0
  6
CONTINUOUS
 62
     7
 10
38.48849977232937
 20
301.4835654150789
 42
0.04046201344886722
  0
VERTEX
  8
0
  6
CONTINUOUS
 62
     7
 10
35.99679477591989
 20
300.4901653870439
 42
0.04428261258130163
  0
VERTEX
  8
0
  6
CONTINUOUS
 62
     7
 10
33.70748109467621
 20
299.0916043733741
 42
0.04948563610761925
  0
VERTEX
  8
0
  6
CONTINUOUS
 62
     7
 10
31.71931031939242
 20
297.2926974260436
 42
0.05578176975688658
  0
VERTEX
  8
0
  6
CONTINUOUS
 62
     7
 10
30.15084597432528
 20
295.1195403259991
 42
0.06202765774139232
  0
VERTEX
  8
0
  6
CONTINUOUS
 62
     7
 10
29.13344160250573
 20
292.6415311056816
 42
0.06616822561190991
  0
VERTEX
  8
0
  6
CONTINUOUS
 62
     7
 10
28.77890777587891
 20
289.9858703613281
 42
0.06611429329774474
  0
VERTEX
  8
0
  6
CONTINUOUS
 62
     7
 10
29.13286090056447
 20
287.3323594148777
 42
0.06200344252646087
  0
VERTEX
  8
0
  6
CONTINUOUS
 62
     7
 10
30.14912298464419
 20
284.8552706607334
 42
0.05578049654465125
  0
VERTEX
  8
0
  6
CONTINUOUS
 62
     7
 10
31.71661037358181
 20
282.6820343647749
 42
0.04948567580067732
  0
VERTEX
  8
0
  6
CONTINUOUS
 62
     7
 10
33.70383269591672
 20
280.8828449907929
 42
0.04427679459801958
  0
VERTEX
  8
0
  6
CONTINUOUS
 62
     7
 10
35.99196792081826
 20
279.4839758773981
 42
0.04047359625085688
  0
VERTEX
  8
0
  6
CONTINUOUS
 62
     7
 10
38.48369342502125
 20
278.4896600428946
 42
0.03804200425318813
  0
VERTEX
  8
0
  6
CONTINUOUS
 62
     7
 10
41.10080846613344
 20
277.896002194428
 42
0.03688218119180252
  0
VERTEX
  8
0
  6
CONTINUOUS
 62
     7
 10
43.77890777587891
 20
277.6985778808594
 42
0
  0
SEQEND
  8
0
  0
POLYLINE
  8
0
  6
CONTINUOUS
 62
     7
 66
     1
 10
0
 20
0
  0
VERTEX
  8
0
  6
CONTINUOUS
 62
     7
 10
99.0408094573432
 20
342.5075380559622
 42
0.04188726954692535
  0
VERTEX
  8
0
  6
CONTINUOUS
 62
     7
 10
99.48094102819245
 20
341.2795636463526
 42
0.04165595078011753
  0
VERTEX
  8
0
  6
CONTINUOUS
 62
     7
 10
100.1191871095367
 20
340.1416402430929
 42
0.04136513948116037
  0
VERTEX
  8
0
  6
CONTINUOUS
 62
     7
 10
100.9366434299122
 20
339.1247864561503
 42
0.04106120697173213
  0
VERTEX
  8
0
  6
CONTINUOUS
 62
     7
 10
101.9099531572153
 20
338.2556504118881
 42
0.04077364921542432
  0
VERTEX
  8
0
  6
CONTINUOUS
 62
     7
 10
103.0120255294322
 20
337.5564708483768
 42
0.04052885129310708
  0
VERTEX
  8
0
  6
CONTINUOUS
 62
     7
 10
104.2128846749234
 20
337.0447231553907
 42
0.04034734666519282
  0
VERTEX
  8
0
  6
CONTINUOUS
 62
     7
 10
105.4804595578695
 20
336.7329125236888
 42
0.04023512093686253
  0
VERTEX
  8
0
  6
CONTINUOUS
 62
     7
 10
106.7810825070137
 20
336.6284487794761
 42
0.04022821340727104
  0
VERTEX
  8
0
  6
CONTINUOUS
 62
     7
 10
108.0814243046101
 20
336.7335750067896
 42
0.04031546358744828
  0
VERTEX
  8
0
  6
CONTINUOUS
 62
     7
 10
109.3478531520077
 20
337.04570288535
 42
0.04051134593592083
  0
VERTEX
  8
0
  6
CONTINUOUS
 62
     7
 10
110.5480077315909
 20
337.5576431373385
 42
0.04075976032411231
  0
VERTEX
  8
0
  6
CONTINUOUS
 62
     7
 10
111.6494977282191
 20
338.256893255476
 42
0.04106002112523381
  0
VERTEX
  8
0
  6
CONTINUOUS
 62
     7
 10
112.6225496997613
 20
339.12624460736
 42
0.04137775855779866
  0
VERTEX
  8
0
  6
CONTINUOUS
 62
     7
 10
113.4399636406938
 20
340.1436235628693
 42
0.04167555946004503
  0
VERTEX
  8
0
  6
CONTINUOUS
 62
     7
 10
114.0781115880669
 20
341.2822839559295
 42
0.041916529185104
  0
VERTEX
  8
0
  6
CONTINUOUS
 62
     7
 10
114.5180033845375
 20
342.5112892399036
 42
0
  0
SEQEND
  8
0
  0
POLYLINE
  8
0
  6
CONTINUOUS
 62
     7
 66
     1
 10
0
 20
0
  0
VERTEX
  8
0
  6
CONTINUOUS
 62
     7
 10
117.7103101861099
 20
351.830345540769
 42
0.01754277136957729
  0
VERTEX
  8
0
  6
CONTINUOUS
 62
     7
 10
116.3688423035031
 20
352.1234883205674
 42
0.01104998550226463
  0
VERTEX
  8
0
  6
CONTINUOUS
 62
     7
 10
115.012554374752
 20
352.3415411450063
 42
0.008116744391365354
  0
VERTEX
  8
0
  6
CONTINUOUS
 62
     7
 10
113.6481803096531
 20
352.5082262675579
 42
0.006531208114876928
  0
VERTEX
  8
0
  6
CONTINUOUS
 62
     7
 10
112.2797480840571
 20
352.6351579547958
 42
0.005600162762957689
  0
VERTEX
  8
0
  6
CONTINUOUS
 62
     7
 10
110.9083698474117
 20
352.7290337546765
 42
0.005037295870215488
  0
VERTEX
  8
0
  6
CONTINUOUS
 62
     7
 10
109.5349799877582
 20
352.793828404957
 42
0.004711428549650256
  0
VERTEX
  8
0
  6
CONTINUOUS
 62
     7
 10
108.160493352979
 20
352.8319057931692
 42
0.004560874080480641
  0
VERTEX
  8
0
  6
CONTINUOUS
 62
     7
 10
106.7855275667798
 20
352.8445431670356
 42
0.004559743058212377
  0
VERTEX
  8
0
  6
CONTINUOUS
 62
     7
 10
105.4106879045236
 20
352.8321500649686
 42
0.004705490687515336
  0
VERTEX
  8
0
  6
CONTINUOUS
 62
     7
 10
104.0372531508554
 20
352.7943641018824
 42
0.005034827260317318
  0
VERTEX
  8
0
  6
CONTINUOUS
 62
     7
 10
102.6633057405289
 20
352.7298290988628
 42
0.005594382272348719
  0
VERTEX
  8
0
  6
CONTINUOUS
 62
     7
 10
101.2915682866089
 20
352.6362370224562
 42
0.006523134640466147
  0
VERTEX
  8
0
  6
CONTINUOUS
 62
     7
 10
99.92239759236303
 20
352.5095833088933
 42
0.008102160399176862
  0
VERTEX
  8
0
  6
CONTINUOUS
 62
     7
 10
98.55725007899143
 20
352.3432121826729
 42
0.01103430002726641
  0
VERTEX
  8
0
  6
CONTINUOUS
 62
     7
 10
97.19881285345093
 20
352.1253087541464
 42
0.01751377241195078
  0
VERTEX
  8
0
  6
CONTINUOUS
 62
     7
 10
95.85469239142283
 20
351.8322112371144
 42
0
  0
SEQEND
  8
0
  0
POLYLINE
  8
0
  6
CONTINUOUS
 62
     7
 66
     1
 10
0
 20
0
 70
     1
  0
VERTEX
  8
0
  6
CONTINUOUS
 62
     7
 10
106.7789001464844
 20
346.6402587890625
 42
0.01162477030156414
  0
VERTEX
  8
0
  6
CONTINUOUS
 62
     7
 10
103.360789273519
 20
346.5617681742846
 42
0.01447219414951352
  0
VERTEX
  8
0
  6
CONTINUOUS
 62
     7
 10
99.95027942351378
 20
346.3082402937982
 42
0.0255604564055924
  0
VERTEX
  8
0
  6
CONTINUOUS
 62
     7
 10
96.56994548329342
 20
345.7960692204987
 42
0.1952857941626106
  0
VERTEX
  8
0
  6
CONTINUOUS
 62
     7
 10
93.62891994883331
 20
344.3545870754644
 42
0.1938972421766254
  0
VERTEX
  8
0
  6
CONTINUOUS
 62
     7
 10
96.57319663159362
 20
342.9168099701637
 42
0.02553134666549821
  0
VERTEX
  8
0
  6
CONTINUOUS
 62
     7
 10
99.95184169761313
 20
342.4051789348221
 42
0.01446583357766264
  0
VERTEX
  8
0
  6
CONTINUOUS
 62
     7
 10
103.3612577041515
 20
342.1518001915725
 42
0.01162271062346032
  0
VERTEX
  8
0
  6
CONTINUOUS
 62
     7
 10
106.7789001464844
 20
342.0733337402344
 42
0.01162444195034896
  0
VERTEX
  8
0
  6
CONTINUOUS
 62
     7
 10
110.1970110890842
 20
342.1518220357756
 42
0.01447189304707018
  0
VERTEX
  8
0
  6
CONTINUOUS
 62
     7
 10
113.6075214365107
 20
342.4053433617723
 42
0.0255600929451529
  0
VERTEX
  8
0
  6
CONTINUOUS
 62
     7
 10
116.9878570589805
 20
342.9175035741108
 42
0.1952838592894082
  0
VERTEX
  8
0
  6
CONTINUOUS
 62
     7
 10
119.9288956341787
 20
344.358969277174
 42
0.1938985616227177
  0
VERTEX
  8
0
  6
CONTINUOUS
 62
     7
 10
116.9846284317196
 20
345.7967609641964
 42
0.02553161220908019
  0
VERTEX
  8
0
  6
CONTINUOUS
 62
     7
 10
113.6059850332021
 20
346.3084027709082
 42
0.01446609463750249
  0
VERTEX
  8
0
  6
CONTINUOUS
 62
     7
 10
110.1965695893503
 20
346.5617888599656
 42
0.01162311503142347
  0
SEQEND
  8
0
  0
POLYLINE
  8
0
  6
CONTINUOUS
 62
     7
 66
     1
 10
0
 20
0
  0
VERTEX
  8
0
  6
CONTINUOUS
 62
     7
 10
95.85260009765625
 20
351.8316650390625
 42
0.01843524419557486
  0
VERTEX
  8
0
  6
CONTINUOUS
 62
     7
 10
94.8716275492895
 20
351.5918462848001
 42
0.005079021970371998
  0
VERTEX
  8
0
  6
CONTINUOUS
 62
     7
 10
93.90221408449588
 20
351.3087849618955
 42
0.02696903568929653
  0
VERTEX
  8
0
  6
CONTINUOUS
 62
     7
 10
92.95150912393129
 20
350.9689120820532
 42
0.05660705932961977
  0
VERTEX
  8
0
  6
CONTINUOUS
 62
     7
 10
92.0717130169912
 20
350.4773130807958
 42
0.06337955954059445
  0
VERTEX
  8
0
  6
CONTINUOUS
 62
     7
 10
91.34391755944182
 20
349.7806499272129
 42
0.06341673062495067
  0
VERTEX
  8
0
  6
CONTINUOUS
 62
     7
 10
90.80757480501985
 20
348.9266380095092
 42
0.07212465752088376
  0
VERTEX
  8
0
  6
CONTINUOUS
 62
     7
 10
90.52198768196575
 20
347.9616887063096
 42
0.07238203910065949
  0
VERTEX
  8
0
  6
CONTINUOUS
 62
     7
 10
90.52209924534516
 20
346.9554384834901
 42
0.07211180321225735
  0
VERTEX
  8
0
  6
CONTINUOUS
 62
     7
 10
90.80780857835568
 20
345.9907302473446
 42
0.06331751532184833
  0
VERTEX
  8
0
  6
CONTINUOUS
 62
     7
 10
91.34325341867398
 20
345.1380415784799
 42
0.06336638070261481
  0
VERTEX
  8
0
  6
CONTINUOUS
 62
     7
 10
92.07086350794582
 20
344.4411869807835
 42
0.05663892716667708
  0
VERTEX
  8
0
  6
CONTINUOUS
 62
     7
 10
92.9505581036197
 20
343.9493747894155
 42
0.02700183815750703
  0
VERTEX
  8
0
  6
CONTINUOUS
 62
     7
 10
93.90145473312668
 20
343.6093258524105
 42
0.005084432506426549
  0
VERTEX
  8
0
  6
CONTINUOUS
 62
     7
 10
94.87138616188494
 20
343.3260980575399
 42
0.018437670414306
  0
VERTEX
  8
0
  6
CONTINUOUS
 62
     7
 10
95.85260009765625
 20
343.0862121582031
 42
0
  0
SEQEND
  8
0
  0
POLYLINE
  8
0
  6
CONTINUOUS
 62
     7
 66
     1
 10
0
 20
0
  0
VERTEX
  8
0
  6
CONTINUOUS
 62
     7
 10
117.705207824707
 20
351.8316650390625
 42
-0.01843525008309068
  0
VERTEX
  8
0
  6
CONTINUOUS
 62
     7
 10
118.6861809208321
 20
351.591846132437
 42
-0.005079028137507846
  0
VERTEX
  8
0
  6
CONTINUOUS
 62
     7
 10
119.6555949279919
 20
351.3087846265404
 42
-0.02696908998699376
  0
VERTEX
  8
0
  6
CONTINUOUS
 62
     7
 10
120.6063003681889
 20
350.968911406001
 42
-0.05660713898960049
  0
VERTEX
  8
0
  6
CONTINUOUS
 62
     7
 10
121.4860966551281
 20
350.4773118040778
 42
-0.06337944919574068
  0
VERTEX
  8
0
  6
CONTINUOUS
 62
     7
 10
122.2138962166968
 20
349.7806521037687
 42
-0.06341674143759418
  0
VERTEX
  8
0
  6
CONTINUOUS
 62
     7
 10
122.7502398135309
 20
348.9266400415717
 42
-0.07212842482588189
  0
VERTEX
  8
0
  6
CONTINUOUS
 62
     7
 10
123.0358230825531
 20
347.9616896026948
 42
-0.07237624863668543
  0
VERTEX
  8
0
  6
CONTINUOUS
 62
     7
 10
123.0357115371956
 20
346.9554376620026
 42
-0.07211557843839496
  0
VERTEX
  8
0
  6
CONTINUOUS
 62
     7
 10
122.7500060227864
 20
345.9907281782077
 42
-0.06331752573836132
  0
VERTEX
  8
0
  6
CONTINUOUS
 62
     7
 10
122.2145603323513
 20
345.1380393700366
 42
-0.06336629554642884
  0
VERTEX
  8
0
  6
CONTINUOUS
 62
     7
 10
121.4869460399542
 20
344.4411881664939
 42
-0.05663900567275265
  0
VERTEX
  8
0
  6
CONTINUOUS
 62
     7
 10
120.6072511443824
 20
343.9493753605986
 42
-0.02700188517461653
  0
VERTEX
  8
0
  6
CONTINUOUS
 62
     7
 10
119.6563540272993
 20
343.6093261102629
 42
-0.005084438219988436
  0
VERTEX
  8
0
  6
CONTINUOUS
 62
     7
 10
118.6864220619238
 20
343.3260981413926
 42
-0.01843767432433123
  0
VERTEX
  8
0
  6
CONTINUOUS
 62
     7
 10
117.705207824707
 20
343.0862121582031
 42
0
  0
SEQEND
  8
0
  0
POLYLINE
  8
0
  6
CONTINUOUS
 62
     7
 66
     1
 10
0
 20
0
  0
VERTEX
  8
0
  6
CONTINUOUS
 62
     7
 10
-33.22109603881836
 20
369.0701599121094
 42
-0.07543386917505791
  0
VERTEX
  8
0
  6
CONTINUOUS
 62
     7
 10
-26.90351430285313
 20
364.9207917632617
 42
-0.1464565940365829
  0
VERTEX
  8
0
  6
CONTINUOUS
 62
     7
 10
-22.8670195523138
 20
358.6227341448786
 42
-0.08474568791411516
  0
VERTEX
  8
0
  6
CONTINUOUS
 62
     7
 10
-22.59272683597568
 20
351.0778338451838
 42
0.01758551131187774
  0
VERTEX
  8
0
  6
CONTINUOUS
 62
     7
 10
-23.2231325568543
 20
343.5173338531274
 42
0.007047527907862081
  0
VERTEX
  8
0
  6
CONTINUOUS
 62
     7
 10
-23.33240339522609
 20
335.9312582290015
 42
-0.004592641385295733
  0
VERTEX
  8
0
  6
CONTINUOUS
 62
     7
 10
-23.51990544945998
 20
328.3458027181119
 42
0.008556655731137551
  0
VERTEX
  8
0
  6
CONTINUOUS
 62
     7
 10
-23.64368975228973
 20
320.7593517585691
 42
-0.002646648513108399
  0
VERTEX
  8
0
  6
CONTINUOUS
 62
     7
 10
-23.62485614825493
 20
313.1717631250077
 42
-0.0450176253878506
  0
VERTEX
  8
0
  6
CONTINUOUS
 62
     7
 10
-24.17300689713826
 20
305.6141999187067
 42
-0.1351069678380602
  0
VERTEX
  8
0
  6
CONTINUOUS
 62
     7
 10
-27.35736252800446
 20
298.823738151691
 42
-0.08847551543679173
  0
VERTEX
  8
0
  6
CONTINUOUS
 62
     7
 10
-33.22109603881836
 20
294.0701599121094
 42
0
  0
SEQEND
  8
0
  0
POLYLINE
  8
0
  6
CONTINUOUS
 62
     7
 66
     1
 10
0
 20
0
  0
VERTEX
  8
0
  6
CONTINUOUS
 62
     7
 10
40.25235366821289
 20
315.1786193847656
 42
0.02068197641672541
  0
VERTEX
  8
0
  6
CONTINUOUS
 62
     7
 10
38.74162871534985
 20
315.1161423252487
 42
0.02088565363510494
  0
VERTEX
  8
0
  6
CONTINUOUS
 62
     7
 10
37.24163907817777
 20
314.9285704550761
 42
0.02130574453366591
  0
VERTEX
  8
0
  6
CONTINUOUS
 62
     7
 10
35.76286112552173
 20
314.6153596270479
 42
0.0219504172245633
  0
VERTEX
  8
0
  6
CONTINUOUS
 62
     7
 10
34.31653963730297
 20
314.1756166078708
 42
0.02283094503225101
  0
VERTEX
  8
0
  6
CONTINUOUS
 62
     7
 10
32.91507660527597
 20
313.6082855526842
 42
0.0239593265462806
  0
VERTEX
  8
0
  6
CONTINUOUS
 62
     7
 10
31.57242351963126
 20
312.9124408968492
 42
0.02534385598379157
  0
VERTEX
  8
0
  6
CONTINUOUS
 62
     7
 10
30.30446022556287
 20
312.0877304292933
 42
0.0269816324396509
  0
VERTEX
  8
0
  6
CONTINUOUS
 62
     7
 10
29.12930440065641
 20
311.1350211094949
 42
0.02884694995881011
  0
VERTEX
  8
0
  6
CONTINUOUS
 62
     7
 10
28.06744386180739
 20
310.0572949748221
 42
0.03087553015531737
  0
VERTEX
  8
0
  6
CONTINUOUS
 62
     7
 10
27.14151602972944
 20
308.8608035967009
 42
0.03294763876794799
  0
VERTEX
  8
0
  6
CONTINUOUS
 62
     7
 10
26.37549830439818
 20
307.5563894943586
 42
0.03487886516158023
  0
VERTEX
  8
0
  6
CONTINUOUS
 62
     7
 10
25.7930818533226
 20
306.1607049520425
 42
0.03643324829802978
  0
VERTEX
  8
0
  6
CONTINUOUS
 62
     7
 10
25.41517699719436
 20
304.6968446418858
 42
0.03737117358845096
  0
VERTEX
  8
0
  6
CONTINUOUS
 62
     7
 10
25.25689962916053
 20
303.1938127747015
 42
0.03750288997062524
  0
VERTEX
  8
0
  6
CONTINUOUS
 62
     7
 10
25.32477440704029
 20
301.6853702284386
 42
0.03686575329637311
  0
VERTEX
  8
0
  6
CONTINUOUS
 62
     7
 10
25.61570999382375
 20
300.2032281300626
 42
0
  0
SEQEND
  8
0
  0
TEXT
  8
0
  6
CONTINUOUS
 62
     7
 10
-434.6496686935425
 20
322.5701599121094
 40
18
 41
0.9993229771112379
  1
ERKV-NAB-400
  0
ENDSEC
  0
EOF
