  0
SECTION
  2
HEADER
  0
ENDSEC
  0
SECTION
  2
TABLES
  0
TABLE
  2
LTYPE
 70
    22
  0
LTYPE
  2
CONTINUOUS
 70
    64
  3
Solid line
 72
    65
 73
     0
 40
0.000000
  0
LTYPE
  2
DASHED
 70
    64
  3
__ __ __ __ __ __ __ __ __ __ __ __ __ __ __
 72
    65
 73
     2
 40
3.500000
 49
2.000000
 49
-1.500000
  0
LTYPE
  2
CENTER
 70
    64
  3
____ _ ____ _ ____ _ ____ _ ____ _ ____ _ ____
 72
    65
 73
     4
 40
17.500000
 49
13.000000
 49
-1.500000
 49
1.500000
 49
-1.500000
  0
LTYPE
  2
PHANTOM
 70
    64
  3
_____ _ _ _____ _ _ _____ _ _ _____ _ _ ____  
 72
    65
 73
     6
 40
15.500000
 49
8.000000
 49
-1.500000
 49
1.500000
 49
-1.500000
 49
1.500000
 49
-1.500000
  0
LTYPE
  2
DOT
 70
    64
  3
. . . . . . . . . . . . . . . . . . . . . . . .
 72
    65
 73
     2
 40
0.25
 49
0.0
 49
-0.25
  0
ENDTAB
  0
TABLE
  2
LAYER
 70
     1
  0
LAYER
  2
0
 70
     0
 62
     7
  6
CONTINUOUS
  0
ENDTAB
  0
TABLE
  2
STYLE
 70
     1
  0
STYLE
  2
STANDARD
 70
     0
 40
0.000000
 41
1.000000
 50
0.000000
 71
     0
 42
0.200000
  3
txt
  0
ENDTAB
  0
TABLE
  2
VIEW
 70
     0
  0
ENDTAB
  0
ENDSEC
  0
SECTION
  2
BLOCKS
  0
ENDSEC
  0
SECTION
  2
ENTITIES
  0
LINE
  8
0
  6
CONTINUOUS
 62
     3
 10
235
 20
-300
 11
558.9663696289063
 21
-300
  0
LINE
  8
0
  6
CONTINUOUS
 62
     7
 10
428
 20
-226.6106872558594
 11
428
 21
-372.5
  0
LINE
  8
0
  6
CONTINUOUS
 62
     7
 10
428
 20
-372.5
 11
443
 21
-372.5
  0
LINE
  8
0
  6
CONTINUOUS
 62
     7
 10
473
 20
-226.5
 11
473
 21
-373.5
  0
LINE
  8
0
  6
CONTINUOUS
 62
     7
 10
443
 20
-227.5
 11
443
 21
-242.5
  0
LINE
  8
0
  6
CONTINUOUS
 62
     7
 10
463
 20
-227.5
 11
463
 21
-372.5
  0
LINE
  8
0
  6
CONTINUOUS
 62
     7
 10
463
 20
-227.5
 11
473
 21
-227.5
  0
LINE
  8
0
  6
CONTINUOUS
 62
     7
 10
463
 20
-372.5
 11
473
 21
-372.5
  0
LINE
  8
0
  6
CONTINUOUS
 62
     7
 10
443
 20
-247.5
 11
458
 21
-247.5
  0
LINE
  8
0
  6
CONTINUOUS
 62
     7
 10
443
 20
-352.5
 11
458
 21
-352.5
  0
LINE
  8
0
  6
CONTINUOUS
 62
     7
 10
438
 20
-230.4266357421875
 11
438
 21
-369.5733642578125
  0
LINE
  8
0
  6
CONTINUOUS
 62
     7
 10
443
 20
-357.5
 11
443
 21
-372.5
  0
LINE
  8
0
  6
CONTINUOUS
 62
     7
 10
438
 20
-230.4266357421875
 11
443
 21
-230.4266357421875
  0
LINE
  8
0
  6
CONTINUOUS
 62
     7
 10
438
 20
-369.5733642578125
 11
443
 21
-369.5733642578125
  0
LINE
  8
0
  6
CONTINUOUS
 62
     7
 10
428
 20
-227.5
 11
444
 21
-227.5
  0
LINE
  8
0
  6
CONTINUOUS
 62
     7
 10
428.8667907714844
 20
-221.6702117919922
 11
428
 21
-226.6106567382813
  0
LINE
  8
0
  6
CONTINUOUS
 62
     7
 10
443.1332397460938
 20
-221.6701965332031
 11
444.0000305175781
 21
-226.6106719970703
  0
LINE
  8
0
  6
CONTINUOUS
 62
     7
 10
436.0000305175781
 20
-219.7381591796875
 11
430.44384765625
 21
-220.9320373535156
  0
LINE
  8
0
  6
CONTINUOUS
 62
     7
 10
436
 20
-219.7381591796875
 11
441.5560607910156
 21
-220.9320068359375
  0
LINE
  8
0
  6
CONTINUOUS
 62
     7
 10
444
 20
-226.6106872558594
 11
444
 21
-227.5
  0
LINE
  8
0
  6
CONTINUOUS
 62
     7
 10
391.5000305175781
 20
-375
 11
424.5
 21
-375
  0
LINE
  8
0
  6
CONTINUOUS
 62
     7
 10
391.5
 20
-225
 11
424.5
 21
-225
  0
LINE
  8
0
  6
CONTINUOUS
 62
     7
 10
391.5000305175781
 20
-225
 11
388.0000305175781
 21
-229.160888671875
  0
LINE
  8
0
  6
CONTINUOUS
 62
     7
 10
424.4999694824219
 20
-225
 11
427.9999694824219
 21
-229.1609039306641
  0
LINE
  8
0
  6
CONTINUOUS
 62
     7
 10
391.5
 20
-374.9999389648437
 11
388
 21
-370.8390502929687
  0
LINE
  8
0
  6
CONTINUOUS
 62
     7
 10
424.4999694824219
 20
-374.9999694824219
 11
427.9999694824219
 21
-370.8390808105469
  0
LINE
  8
0
  6
CONTINUOUS
 62
     7
 10
391.5
 20
-270.5653076171875
 11
424.5
 21
-270.5653076171875
  0
LINE
  8
0
  6
CONTINUOUS
 62
     7
 10
391.5
 20
-279.2552795410156
 11
424.5
 21
-279.2552795410156
  0
LINE
  8
0
  6
CONTINUOUS
 62
     7
 10
391.5
 20
-287.0502319335937
 11
424.5
 21
-287.0502319335937
  0
LINE
  8
0
  6
CONTINUOUS
 62
     7
 10
391.5
 20
-296.0000610351562
 11
424.5
 21
-296.0000610351562
  0
LINE
  8
0
  6
CONTINUOUS
 62
     7
 10
391.5
 20
-304.0000915527344
 11
424.5
 21
-304.0000915527344
  0
LINE
  8
0
  6
CONTINUOUS
 62
     7
 10
391.5
 20
-312.9499206542969
 11
424.5
 21
-312.9499206542969
  0
LINE
  8
0
  6
CONTINUOUS
 62
     7
 10
391.5
 20
-320.744873046875
 11
424.5
 21
-320.744873046875
  0
LINE
  8
0
  6
CONTINUOUS
 62
     7
 10
391.5
 20
-329.4347839355469
 11
424.5
 21
-329.4347839355469
  0
LINE
  8
0
  6
CONTINUOUS
 62
     7
 10
391.5
 20
-345.0232543945312
 11
424.5
 21
-345.0232543945312
  0
LINE
  8
0
  6
CONTINUOUS
 62
     7
 10
391.5
 20
-352.0454406738281
 11
424.5
 21
-352.0454406738281
  0
LINE
  8
0
  6
CONTINUOUS
 62
     7
 10
391.5
 20
-357.5014343261719
 11
424.5
 21
-357.5014343261719
  0
LINE
  8
0
  6
CONTINUOUS
 62
     7
 10
391.5
 20
-362.8594360351563
 11
424.5
 21
-362.8594360351563
  0
LINE
  8
0
  6
CONTINUOUS
 62
     7
 10
391.5
 20
-366.8594360351563
 11
424.5
 21
-366.8594360351563
  0
LINE
  8
0
  6
CONTINUOUS
 62
     7
 10
391.5
 20
-370.4512939453125
 11
424.5
 21
-370.4512939453125
  0
LINE
  8
0
  6
CONTINUOUS
 62
     7
 10
473
 20
-373.5
 11
495.5
 21
-373.5
  0
LINE
  8
0
  6
CONTINUOUS
 62
     7
 10
473
 20
-226.5
 11
495.5
 21
-226.5
  0
LINE
  8
0
  6
CONTINUOUS
 62
     7
 10
300
 20
-200.0000152587891
 11
300
 21
-255.0733337402344
  0
LINE
  8
0
  6
CONTINUOUS
 62
     7
 10
388
 20
-227.5
 11
388
 21
-372.5
  0
LINE
  8
0
  6
CONTINUOUS
 62
     7
 10
300
 20
-200.0000152587891
 11
314
 21
-200.0000152587891
  0
LINE
  8
0
  6
CONTINUOUS
 62
     7
 10
300
 20
-400
 11
314
 21
-400
  0
LINE
  8
0
  6
CONTINUOUS
 62
     7
 10
314
 20
-200.0000152587891
 11
314
 21
-400
  0
LINE
  8
0
  6
CONTINUOUS
 62
     7
 10
376
 20
-227.5
 11
376
 21
-232.0078582763672
  0
LINE
  8
0
  6
CONTINUOUS
 62
     7
 10
376
 20
-227.5
 11
388
 21
-227.5
  0
LINE
  8
0
  6
CONTINUOUS
 62
     7
 10
376
 20
-372.5
 11
388
 21
-372.5
  0
LINE
  8
0
  6
CONTINUOUS
 62
     7
 10
296
 20
-235
 11
296
 21
-250.1512145996094
  0
LINE
  8
0
  6
CONTINUOUS
 62
     7
 10
296
 20
-365
 11
300
 21
-365
  0
LINE
  8
0
  6
CONTINUOUS
 62
     7
 10
296
 20
-235
 11
300
 21
-235
  0
LINE
  8
0
  6
CONTINUOUS
 62
     7
 10
296
 20
-337.5
 11
296
 21
-365
  0
LINE
  8
0
  6
CONTINUOUS
 62
     7
 10
300
 20
-334.6339416503906
 11
300
 21
-400
  0
LINE
  8
0
  6
CONTINUOUS
 62
     7
 10
250
 20
-279.5
 11
250
 21
-317.5
  0
LINE
  8
0
  6
CONTINUOUS
 62
     7
 10
250
 20
-317.5
 11
300
 21
-317.5
  0
LINE
  8
0
  6
CONTINUOUS
 62
     7
 10
250
 20
-282.5
 11
300
 21
-282.5
  0
LINE
  8
0
  6
CONTINUOUS
 62
     7
 10
300
 20
-277.5
 11
300
 21
-322.5
  0
LINE
  8
0
  6
CONTINUOUS
 62
     7
 10
300
 20
-277.5
 11
302.8544921875
 21
-277.5
  0
LINE
  8
0
  6
CONTINUOUS
 62
     7
 10
300
 20
-322.5
 11
304.5507202148437
 21
-322.5
  0
LINE
  8
0
  6
CONTINUOUS
 62
     7
 10
250
 20
-279.5
 11
290
 21
-279.5
  0
LINE
  8
0
  6
CONTINUOUS
 62
     7
 10
290
 20
-279.5
 11
290
 21
-282.5
  0
LINE
  8
0
  6
CONTINUOUS
 62
     7
 10
314
 20
-361.5646057128906
 11
376.0000305175781
 21
-348.3831176757812
  0
LINE
  8
0
  6
CONTINUOUS
 62
     7
 10
376.0000305175781
 20
-353.8391418457031
 11
314.0000305175781
 21
-367.0206298828125
  0
LINE
  8
0
  6
CONTINUOUS
 62
     7
 10
314
 20
-332.2114562988281
 11
376
 21
-332.2114562988281
  0
LINE
  8
0
  6
CONTINUOUS
 62
     7
 10
314
 20
-267.7885437011719
 11
376
 21
-267.7885437011719
  0
LINE
  8
0
  6
CONTINUOUS
 62
     7
 10
376
 20
-251.6168823242188
 11
358
 21
-251.6168823242188
  0
LINE
  8
0
  6
CONTINUOUS
 62
     7
 10
314
 20
-232.9793853759766
 11
354.3399353027344
 21
-245.0644073486328
  0
LINE
  8
0
  6
CONTINUOUS
 62
     7
 10
313.9999694824219
 20
-238.4354095458984
 11
357.9999694824219
 21
-251.6169128417969
  0
LINE
  8
0
  6
CONTINUOUS
 62
     7
 10
373
 20
-232.0078582763672
 11
376
 21
-232.0078582763672
  0
LINE
  8
0
  6
CONTINUOUS
 62
     7
 10
376
 20
-251.6168823242188
 11
376
 21
-372.5
  0
LINE
  8
0
  6
CONTINUOUS
 62
     7
 10
356.7857971191406
 20
-243.8526916503906
 11
358.4338073730469
 21
-239.4714965820313
  0
LINE
  8
0
  6
CONTINUOUS
 62
     7
 10
495.5
 20
-226.5
 11
495.5
 21
-373.5
  0
LINE
  8
0
  6
CONTINUOUS
 62
     3
 10
235
 20
0
 11
558.9663696289063
 21
0
  0
LINE
  8
0
  6
CONTINUOUS
 62
     7
 10
495.5
 20
73.5
 11
495.5
 21
-73.5
  0
LINE
  8
0
  6
CONTINUOUS
 62
     7
 10
428
 20
72.5
 11
428
 21
20.80316162109375
  0
LINE
  8
0
  6
CONTINUOUS
 62
     7
 10
428
 20
-72.5
 11
438
 21
-72.5
  0
LINE
  8
0
  6
CONTINUOUS
 62
     7
 10
428
 20
72.5
 11
438
 21
72.5
  0
LINE
  8
0
  6
CONTINUOUS
 62
     7
 10
473
 20
73.5
 11
473
 21
-73.5
  0
LINE
  8
0
  6
CONTINUOUS
 62
     7
 10
463
 20
72.5
 11
463
 21
-72.5
  0
LINE
  8
0
  6
CONTINUOUS
 62
     7
 10
463
 20
72.5
 11
473
 21
72.5
  0
LINE
  8
0
  6
CONTINUOUS
 62
     7
 10
463
 20
-72.5
 11
473
 21
-72.5
  0
LINE
  8
0
  6
CONTINUOUS
 62
     7
 10
443
 20
52.5
 11
458
 21
52.5
  0
LINE
  8
0
  6
CONTINUOUS
 62
     7
 10
443
 20
-52.5
 11
458
 21
-52.5
  0
LINE
  8
0
  6
CONTINUOUS
 62
     7
 10
438
 20
72.5
 11
438
 21
21.24783325195312
  0
LINE
  8
0
  6
CONTINUOUS
 62
     7
 10
443
 20
9.123565673828125
 11
443
 21
-20.39105224609375
  0
LINE
  8
0
  6
CONTINUOUS
 62
     7
 10
438
 20
-20.39105224609375
 11
443
 21
-20.39105224609375
  0
LINE
  8
0
  6
CONTINUOUS
 62
     7
 10
438
 20
-20.39105224609375
 11
438
 21
-72.5
  0
LINE
  8
0
  6
CONTINUOUS
 62
     7
 10
428
 20
10.97433471679687
 11
428
 21
-72.5
  0
LINE
  8
0
  6
CONTINUOUS
 62
     7
 10
391.5
 20
75
 11
424.5
 21
75
  0
LINE
  8
0
  6
CONTINUOUS
 62
     7
 10
391.4999694824219
 20
74.99999237060547
 11
387.9999389648437
 21
70.83909606933594
  0
LINE
  8
0
  6
CONTINUOUS
 62
     7
 10
424.5
 20
74.99999237060547
 11
428.0000305175781
 21
70.83909606933594
  0
LINE
  8
0
  6
CONTINUOUS
 62
     7
 10
424.4999694824219
 20
-74.99998474121094
 11
428
 21
-70.83908843994141
  0
LINE
  8
0
  6
CONTINUOUS
 62
     7
 10
391.5
 20
-75
 11
424.5
 21
-75
  0
LINE
  8
0
  6
CONTINUOUS
 62
     7
 10
391.5
 20
-75
 11
388
 21
-70.83912658691406
  0
LINE
  8
0
  6
CONTINUOUS
 62
     7
 10
391.5
 20
72.07391357421875
 11
424.5
 21
72.07391357421875
  0
LINE
  8
0
  6
CONTINUOUS
 62
     7
 10
391.5
 20
68.98251342773437
 11
424.5
 21
68.98251342773437
  0
LINE
  8
0
  6
CONTINUOUS
 62
     7
 10
391.5
 20
59.98248291015625
 11
424.5
 21
59.98248291015625
  0
LINE
  8
0
  6
CONTINUOUS
 62
     7
 10
391.5
 20
54.0025634765625
 11
424.5
 21
54.0025634765625
  0
LINE
  8
0
  6
CONTINUOUS
 62
     7
 10
391.5
 20
40.91079711914063
 11
424.5
 21
40.91079711914063
  0
LINE
  8
0
  6
CONTINUOUS
 62
     7
 10
391.5
 20
48.15170288085938
 11
424.5
 21
48.15170288085938
  0
LINE
  8
0
  6
CONTINUOUS
 62
     7
 10
391.5
 20
33.98257446289063
 11
424.5
 21
33.98257446289063
  0
LINE
  8
0
  6
CONTINUOUS
 62
     7
 10
391.5
 20
25.72195434570313
 11
424.5
 21
25.72195434570313
  0
LINE
  8
0
  6
CONTINUOUS
 62
     7
 10
391.5
 20
18.07150268554688
 11
420.4561767578125
 21
18.07150268554688
  0
LINE
  8
0
  6
CONTINUOUS
 62
     7
 10
391.5
 20
9.00006103515625
 11
424.5
 21
9.00006103515625
  0
LINE
  8
0
  6
CONTINUOUS
 62
     7
 10
391.5
 20
-68.98260498046875
 11
424.5
 21
-68.98260498046875
  0
LINE
  8
0
  6
CONTINUOUS
 62
     7
 10
391.5
 20
-72.07395935058594
 11
424.5
 21
-72.07395935058594
  0
LINE
  8
0
  6
CONTINUOUS
 62
     7
 10
473
 20
73.5
 11
495.5
 21
73.5
  0
LINE
  8
0
  6
CONTINUOUS
 62
     7
 10
473
 20
-73.5
 11
495.5
 21
-73.5
  0
LINE
  8
0
  6
CONTINUOUS
 62
     7
 10
300
 20
-100
 11
300
 21
-34.65777587890625
  0
LINE
  8
0
  6
CONTINUOUS
 62
     7
 10
388
 20
-72.5
 11
388
 21
72.5
  0
LINE
  8
0
  6
CONTINUOUS
 62
     7
 10
300
 20
-100
 11
314
 21
-100
  0
LINE
  8
0
  6
CONTINUOUS
 62
     7
 10
300
 20
100
 11
314
 21
100
  0
LINE
  8
0
  6
CONTINUOUS
 62
     7
 10
314
 20
-100
 11
314
 21
100
  0
LINE
  8
0
  6
CONTINUOUS
 62
     7
 10
376
 20
-72.5
 11
388
 21
-72.5
  0
LINE
  8
0
  6
CONTINUOUS
 62
     7
 10
376
 20
72.5
 11
388
 21
72.5
  0
LINE
  8
0
  6
CONTINUOUS
 62
     7
 10
376
 20
-72.5
 11
376
 21
-53.87158203125
  0
LINE
  8
0
  6
CONTINUOUS
 62
     7
 10
296
 20
-65
 11
296
 21
-37.5
  0
LINE
  8
0
  6
CONTINUOUS
 62
     7
 10
296
 20
65
 11
300
 21
65
  0
LINE
  8
0
  6
CONTINUOUS
 62
     7
 10
296
 20
-65
 11
300
 21
-65
  0
LINE
  8
0
  6
CONTINUOUS
 62
     7
 10
296
 20
37.5
 11
296
 21
65
  0
LINE
  8
0
  6
CONTINUOUS
 62
     7
 10
300
 20
35.2025146484375
 11
300
 21
100
  0
LINE
  8
0
  6
CONTINUOUS
 62
     7
 10
250
 20
-17.5
 11
250
 21
17.5
  0
LINE
  8
0
  6
CONTINUOUS
 62
     7
 10
250
 20
17.5
 11
300
 21
17.5
  0
LINE
  8
0
  6
CONTINUOUS
 62
     7
 10
250
 20
-17.5
 11
300
 21
-17.5
  0
LINE
  8
0
  6
CONTINUOUS
 62
     7
 10
250
 20
5
 11
293
 21
5
  0
LINE
  8
0
  6
CONTINUOUS
 62
     7
 10
250
 20
-5
 11
293
 21
-5
  0
LINE
  8
0
  6
CONTINUOUS
 62
     7
 10
300
 20
-22.5
 11
300
 21
22.5
  0
LINE
  8
0
  6
CONTINUOUS
 62
     7
 10
300
 20
-22.5
 11
305.4730834960938
 21
-22.5
  0
LINE
  8
0
  6
CONTINUOUS
 62
     7
 10
300
 20
22.5
 11
306.8088684082031
 21
22.5
  0
LINE
  8
0
  6
CONTINUOUS
 62
     7
 10
290
 20
5
 11
290
 21
-5
  0
LINE
  8
0
  6
CONTINUOUS
 62
     7
 10
314
 20
62.87918472290039
 11
376
 21
50.58724212646484
  0
LINE
  8
0
  6
CONTINUOUS
 62
     7
 10
313.9999694824219
 20
57.02841186523438
 11
376
 21
44.73646545410156
  0
LINE
  8
0
  6
CONTINUOUS
 62
     7
 10
324
 20
-29.46539306640625
 11
354.5042419433594
 21
-29.46539306640625
  0
LINE
  8
0
  6
CONTINUOUS
 62
     7
 10
358.502197265625
 20
-44.7364501953125
 11
358
 21
-44.7364501953125
  0
LINE
  8
0
  6
CONTINUOUS
 62
     7
 10
362.7921142578125
 20
-50.5872802734375
 11
358
 21
-50.5872802734375
  0
LINE
  8
0
  6
CONTINUOUS
 62
     7
 10
314
 20
-57.02841567993164
 11
358.0000305175781
 21
-44.73646545410156
  0
LINE
  8
0
  6
CONTINUOUS
 62
     7
 10
314.0000305175781
 20
-62.87925720214844
 11
358
 21
-50.58731460571289
  0
LINE
  8
0
  6
CONTINUOUS
 62
     7
 10
319
 20
33.1107177734375
 11
371
 21
33.1107177734375
  0
LINE
  8
0
  6
CONTINUOUS
 62
     7
 10
319
 20
9.10064697265625
 11
371
 21
9.10064697265625
  0
LINE
  8
0
  6
CONTINUOUS
 62
     7
 10
369.4734497070313
 20
-16.39154052734375
 11
376
 21
-16.39154052734375
  0
LINE
  8
0
  6
CONTINUOUS
 62
     7
 10
373
 20
-29.2969970703125
 11
376
 21
-29.2969970703125
  0
LINE
  8
0
  6
CONTINUOUS
 62
     7
 10
373
 20
-53.87158203125
 11
376
 21
-53.87158203125
  0
LINE
  8
0
  6
CONTINUOUS
 62
     7
 10
354.8356628417969
 20
-31.3627758026123
 11
358.3621826171875
 21
-44.26826095581055
  0
LINE
  8
0
  6
CONTINUOUS
 62
     7
 10
376
 20
-29.2969970703125
 11
376
 21
72.5
  0
LINE
  8
0
  6
CONTINUOUS
 62
     7
 10
-15.07009506225586
 20
-196.3928375244141
 11
-14.25401020050049
 21
-201.0210876464844
  0
LINE
  8
0
  6
CONTINUOUS
 62
     7
 10
-21.27437782287598
 20
-197.4868316650391
 11
-20.45829200744629
 21
-202.1150817871094
  0
LINE
  8
0
  6
CONTINUOUS
 62
     3
 10
-114.9999389648437
 20
-300
 11
115.0000610351562
 21
-300
  0
LINE
  8
0
  6
CONTINUOUS
 62
     3
 10
0
 20
-185
 11
0
 21
-415
  0
LINE
  8
0
  6
CONTINUOUS
 62
     7
 10
-5
 20
-279.5
 11
-5
 21
-287.5
  0
LINE
  8
0
  6
CONTINUOUS
 62
     7
 10
5
 20
-279.5
 11
5
 21
-287.5
  0
LINE
  8
0
  6
CONTINUOUS
 62
     7
 10
-5
 20
-287.5
 11
5
 21
-287.5
  0
LINE
  8
0
  6
CONTINUOUS
 62
     7
 10
-5
 20
-279.5
 11
5
 21
-279.5
  0
LINE
  8
0
  6
CONTINUOUS
 62
     7
 10
495.5
 20
-372.5
 11
495.5
 21
-227.5
  0
LINE
  8
0
  6
CONTINUOUS
 62
     7
 10
510.5
 20
-372.5
 11
510.5
 21
-227.5
  0
LINE
  8
0
  6
CONTINUOUS
 62
     7
 10
545.5
 20
-220
 11
545.5
 21
-380
  0
LINE
  8
0
  6
CONTINUOUS
 62
     7
 10
533.5
 20
-220
 11
545.5
 21
-220
  0
LINE
  8
0
  6
CONTINUOUS
 62
     7
 10
533.5
 20
-220
 11
533.5
 21
-380
  0
LINE
  8
0
  6
CONTINUOUS
 62
     7
 10
515.5
 20
-262
 11
528.5
 21
-262
  0
LINE
  8
0
  6
CONTINUOUS
 62
     7
 10
533.5
 20
-380
 11
545.5
 21
-380
  0
LINE
  8
0
  6
CONTINUOUS
 62
     7
 10
515.5
 20
-338
 11
528.5
 21
-338
  0
LINE
  8
0
  6
CONTINUOUS
 62
     7
 10
510.5
 20
-356
 11
533.5
 21
-356
  0
LINE
  8
0
  6
CONTINUOUS
 62
     7
 10
510.5
 20
-244
 11
533.5
 21
-244
  0
LINE
  8
0
  6
CONTINUOUS
 62
     7
 10
495.5
 20
-372.5
 11
510.5
 21
-372.5
  0
LINE
  8
0
  6
CONTINUOUS
 62
     7
 10
510.5
 20
-305
 11
533.5
 21
-305
  0
LINE
  8
0
  6
CONTINUOUS
 62
     7
 10
510.5
 20
-295
 11
533.5
 21
-295
  0
LINE
  8
0
  6
CONTINUOUS
 62
     7
 10
495.5
 20
-227.5
 11
510.5
 21
-227.5
  0
LINE
  8
0
  6
CONTINUOUS
 62
     7
 10
495.5
 20
72.5
 11
510.5
 21
72.5
  0
LINE
  8
0
  6
CONTINUOUS
 62
     7
 10
510.5
 20
5
 11
533.5
 21
5
  0
LINE
  8
0
  6
CONTINUOUS
 62
     7
 10
510.5
 20
-5
 11
533.5
 21
-5
  0
LINE
  8
0
  6
CONTINUOUS
 62
     7
 10
495.5
 20
-72.5
 11
510.5
 21
-72.5
  0
LINE
  8
0
  6
CONTINUOUS
 62
     7
 10
510.5
 20
56
 11
533.5
 21
56
  0
LINE
  8
0
  6
CONTINUOUS
 62
     7
 10
510.5
 20
-56
 11
533.5
 21
-56
  0
LINE
  8
0
  6
CONTINUOUS
 62
     7
 10
515.5
 20
-38
 11
528.5
 21
-38
  0
LINE
  8
0
  6
CONTINUOUS
 62
     7
 10
533.5
 20
-80
 11
545.5
 21
-80
  0
LINE
  8
0
  6
CONTINUOUS
 62
     7
 10
515.5
 20
38
 11
528.5
 21
38
  0
LINE
  8
0
  6
CONTINUOUS
 62
     7
 10
533.5
 20
80
 11
533.5
 21
-80
  0
LINE
  8
0
  6
CONTINUOUS
 62
     7
 10
533.5
 20
80
 11
545.5
 21
80
  0
LINE
  8
0
  6
CONTINUOUS
 62
     7
 10
545.5
 20
80
 11
545.5
 21
-80
  0
LINE
  8
0
  6
CONTINUOUS
 62
     7
 10
510.5
 20
-72.5
 11
510.5
 21
5.684341886080801E-14
  0
LINE
  8
0
  6
CONTINUOUS
 62
     7
 10
495.5
 20
-72.5
 11
495.5
 21
5.684341886080801E-14
  0
LINE
  8
0
  6
CONTINUOUS
 62
     7
 10
495.5
 20
5.684341886080801E-14
 11
495.5
 21
72.5
  0
LINE
  8
0
  6
CONTINUOUS
 62
     7
 10
510.5
 20
5.684341886080801E-14
 11
510.5
 21
72.5
  0
LINE
  8
0
  6
CONTINUOUS
 62
     7
 10
412.941650390625
 20
-209.8900909423828
 11
457.5433044433594
 21
-209.8900909423828
  0
LINE
  8
0
  6
CONTINUOUS
 62
     7
 10
436
 20
-187.3066864013672
 11
436
 21
-231.9083557128906
  0
LINE
  8
0
  6
CONTINUOUS
 62
     7
 10
-19.75857353210449
 20
-187.9432678222656
 11
-17.35614967346191
 21
-201.5680999755859
  0
ARC
  8
0
  6
CONTINUOUS
 62
     7
 10
448
 20
-242.5
 40
4.999999999999981
 50
179.9999776881996
 51
270.0000280040023
  0
ARC
  8
0
  6
CONTINUOUS
 62
     7
 10
443
 20
-242.5
 40
4.999999999999981
 50
179.9999776881996
 51
270.0000280040023
  0
ARC
  8
0
  6
CONTINUOUS
 62
     7
 10
443
 20
-357.5
 40
4.999999999999981
 50
89.99992737239761
 51
179.9999640278213
  0
ARC
  8
0
  6
CONTINUOUS
 62
     7
 10
448
 20
-357.5
 40
4.999999999999981
 50
89.99992737239761
 51
179.9999640278213
  0
ARC
  8
0
  6
CONTINUOUS
 62
     7
 10
458
 20
-242.5
 40
5.000000000000004
 50
269.9999974955215
 51
0
  0
ARC
  8
0
  6
CONTINUOUS
 62
     7
 10
458
 20
-357.5
 40
5
 50
0
 51
90.00000250447847
  0
ARC
  8
0
  6
CONTINUOUS
 62
     7
 10
354.9138793945312
 20
-243.1485290527344
 40
1.999999999999981
 50
253.3228612028857
 51
339.3860451226057
  0
ARC
  8
0
  6
CONTINUOUS
 62
     7
 10
443
 20
-57.5
 40
4.999999999999997
 50
89.99998201391097
 51
179.9999640278213
  0
ARC
  8
0
  6
CONTINUOUS
 62
     7
 10
443
 20
57.5
 40
4.999999999999981
 50
179.9999776881996
 51
270.0000280040023
  0
ARC
  8
0
  6
CONTINUOUS
 62
     7
 10
458
 20
-57.5
 40
5
 50
0
 51
90.00000250447847
  0
ARC
  8
0
  6
CONTINUOUS
 62
     7
 10
458
 20
57.5
 40
4.999999999999997
 50
269.9999974955215
 51
0
  0
ARC
  8
0
  6
CONTINUOUS
 62
     7
 10
293
 20
0
 40
5
 50
270.0000179860891
 51
89.99998201391097
  0
ARC
  8
0
  6
CONTINUOUS
 62
     7
 10
319
 20
38.1107177734375
 40
5
 50
179.999991348578
 51
270.0000006832456
  0
ARC
  8
0
  6
CONTINUOUS
 62
     7
 10
371
 20
38.1107177734375
 40
4.999999999999997
 50
269.9999974955215
 51
0
  0
ARC
  8
0
  6
CONTINUOUS
 62
     7
 10
319
 20
14.10064697265625
 40
5
 50
179.999991348578
 51
270.0000006832456
  0
ARC
  8
0
  6
CONTINUOUS
 62
     7
 10
371
 20
14.10064697265625
 40
4.999999999999999
 50
269.9999974955215
 51
360
  0
ARC
  8
0
  6
CONTINUOUS
 62
     7
 10
324
 20
-39.46539306640625
 40
9.999999999999998
 50
90.00000250447815
 51
180.0000050089563
  0
ARC
  8
0
  6
CONTINUOUS
 62
     7
 10
-18.1722412109375
 20
-196.9398651123047
 40
3.150000095367433
 50
9.999998855319467
 51
189.9999620293669
  0
CIRCLE
  8
0
  6
CONTINUOUS
 62
     7
 10
6.103515625E-05
 20
-300
 40
100
  0
ARC
  8
0
  6
CONTINUOUS
 62
     3
 10
0
 20
-300.0000610351563
 40
82.5
 50
349.524361285033
 51
10.47572494610525
  0
CIRCLE
  8
0
  6
CONTINUOUS
 62
     7
 10
0
 20
-300
 40
60
  0
CIRCLE
  8
0
  6
CONTINUOUS
 62
     7
 10
0
 20
-300
 40
65
  0
ARC
  8
0
  6
CONTINUOUS
 62
     7
 10
0
 20
-300
 40
17.49999999999998
 50
106.6015695841379
 51
73.39842495216357
  0
CIRCLE
  8
0
  6
CONTINUOUS
 62
     7
 10
82.5
 20
-300
 40
6
  0
CIRCLE
  8
0
  6
CONTINUOUS
 62
     7
 10
0
 20
-217.5
 40
6
  0
ARC
  8
0
  6
CONTINUOUS
 62
     3
 10
6.103515625E-05
 20
-300
 40
82.49999999999999
 50
79.52436378951118
 51
100.4757231817152
  0
CIRCLE
  8
0
  6
CONTINUOUS
 62
     7
 10
-82.5
 20
-300
 40
6
  0
ARC
  8
0
  6
CONTINUOUS
 62
     3
 10
0
 20
-299.9999389648437
 40
82.49999999999999
 50
169.5243662939893
 51
190.4757256861934
  0
CIRCLE
  8
0
  6
CONTINUOUS
 62
     7
 10
0
 20
-382.5
 40
6
  0
ARC
  8
0
  6
CONTINUOUS
 62
     3
 10
-6.103515625E-05
 20
-300
 40
82.5
 50
259.5243587805548
 51
280.475725002948
  0
ARC
  8
0
  6
CONTINUOUS
 62
     7
 10
528.5
 20
-343
 40
5
 50
0
 51
90.00000250447782
  0
ARC
  8
0
  6
CONTINUOUS
 62
     7
 10
528.5
 20
-257
 40
5.000000000000004
 50
269.9999974955222
 51
0
  0
ARC
  8
0
  6
CONTINUOUS
 62
     7
 10
515.5
 20
-257
 40
5
 50
179.999991348578
 51
270.0000006832456
  0
ARC
  8
0
  6
CONTINUOUS
 62
     7
 10
515.5
 20
-343
 40
5.000000000000004
 50
90.00000250447782
 51
180.0000050089563
  0
ARC
  8
0
  6
CONTINUOUS
 62
     7
 10
515.5
 20
-43
 40
4.999999999999997
 50
90.00000250447782
 51
180.0000050089563
  0
ARC
  8
0
  6
CONTINUOUS
 62
     7
 10
515.5
 20
43
 40
5
 50
179.999991348578
 51
270.0000006832456
  0
ARC
  8
0
  6
CONTINUOUS
 62
     7
 10
528.5
 20
43
 40
4.999999999999997
 50
269.9999974955222
 51
0
  0
ARC
  8
0
  6
CONTINUOUS
 62
     7
 10
528.5
 20
-43
 40
5
 50
0
 51
90.00000250447782
  0
POLYLINE
  8
0
  6
CONTINUOUS
 62
     7
 66
     1
 10
0
 20
0
  0
VERTEX
  8
0
  6
CONTINUOUS
 62
     7
 10
443.5611857662015
 20
-224.1081479795612
 42
0.08272224610717904
  0
VERTEX
  8
0
  6
CONTINUOUS
 62
     7
 10
447.8481256351076
 20
-220.9067977993126
 42
0.08385196407262227
  0
VERTEX
  8
0
  6
CONTINUOUS
 62
     7
 10
450.8558268195329
 20
-216.4818587292408
 42
0.0847133910495895
  0
VERTEX
  8
0
  6
CONTINUOUS
 62
     7
 10
452.2338859651703
 20
-211.312500517541
 42
0.08490374353111899
  0
VERTEX
  8
0
  6
CONTINUOUS
 62
     7
 10
451.816619700727
 20
-205.9801507077653
 42
0.08436947758508499
  0
VERTEX
  8
0
  6
CONTINUOUS
 62
     7
 10
449.6548408370375
 20
-201.0869055890044
 42
0.08333442676212358
  0
VERTEX
  8
0
  6
CONTINUOUS
 62
     7
 10
446.0050664009046
 20
-197.1746339261113
 42
0.08226418733022997
  0
VERTEX
  8
0
  6
CONTINUOUS
 62
     7
 10
441.2826987083848
 20
-194.6575648400349
 42
0.08162580224457633
  0
VERTEX
  8
0
  6
CONTINUOUS
 62
     7
 10
436
 20
-193.7898559570312
 42
0.08158656035583865
  0
VERTEX
  8
0
  6
CONTINUOUS
 62
     7
 10
430.719732259612
 20
-194.656743672892
 42
0.0822472068232431
  0
VERTEX
  8
0
  6
CONTINUOUS
 62
     7
 10
425.9978188659691
 20
-197.172421905176
 42
0.08333895139427218
  0
VERTEX
  8
0
  6
CONTINUOUS
 62
     7
 10
422.3469771366065
 20
-201.0841556842337
 42
0.08437838601907328
  0
VERTEX
  8
0
  6
CONTINUOUS
 62
     7
 10
420.1840421068165
 20
-205.9775314094218
 42
0.08490739937958229
  0
VERTEX
  8
0
  6
CONTINUOUS
 62
     7
 10
419.7658893208628
 20
-211.3100449677545
 42
0.08470956744727166
  0
VERTEX
  8
0
  6
CONTINUOUS
 62
     7
 10
421.1430389621768
 20
-216.479380661759
 42
0.08383810926025984
  0
VERTEX
  8
0
  6
CONTINUOUS
 62
     7
 10
424.1493496963619
 20
-220.9041617364767
 42
0.08273741865116618
  0
VERTEX
  8
0
  6
CONTINUOUS
 62
     7
 10
428.4364054732181
 20
-224.1069037545193
 42
0
  0
SEQEND
  8
0
  0
POLYLINE
  8
0
  6
CONTINUOUS
 62
     7
 66
     1
 10
0
 20
0
 70
     1
  0
VERTEX
  8
0
  6
CONTINUOUS
 62
     7
 10
446
 20
-209.8900909423828
 42
0.1005697614596406
  0
VERTEX
  8
0
  6
CONTINUOUS
 62
     7
 10
445.2286164258952
 20
-206.0972835948852
 42
0.09931459426853108
  0
VERTEX
  8
0
  6
CONTINUOUS
 62
     7
 10
443.0449283026197
 20
-202.900797913141
 42
0.09762475566249065
  0
VERTEX
  8
0
  6
CONTINUOUS
 62
     7
 10
439.8027735203133
 20
-200.7818698241244
 42
0.09645742494749246
  0
VERTEX
  8
0
  6
CONTINUOUS
 62
     7
 10
436
 20
-200.0420074462891
 42
0.09643683433006429
  0
VERTEX
  8
0
  6
CONTINUOUS
 62
     7
 10
432.1979889324393
 20
-200.7815611270046
 42
0.09759325526349924
  0
VERTEX
  8
0
  6
CONTINUOUS
 62
     7
 10
428.9565369725482
 20
-202.8993658033249
 42
0.09935255147168773
  0
VERTEX
  8
0
  6
CONTINUOUS
 62
     7
 10
426.7715980621025
 20
-206.0967774812675
 42
0.10058399225545
  0
VERTEX
  8
0
  6
CONTINUOUS
 62
     7
 10
426
 20
-209.8900909423828
 42
0.1005699380586918
  0
VERTEX
  8
0
  6
CONTINUOUS
 62
     7
 10
426.7713844715514
 20
-213.6828980014489
 42
0.09931486592909911
  0
VERTEX
  8
0
  6
CONTINUOUS
 62
     7
 10
428.955076428439
 20
-216.8793809132591
 42
0.09762481604128412
  0
VERTEX
  8
0
  6
CONTINUOUS
 62
     7
 10
432.1972352694488
 20
-218.9983027098581
 42
0.09645692972529085
  0
VERTEX
  8
0
  6
CONTINUOUS
 62
     7
 10
436
 20
-219.7381591796875
 42
0.09643659111141509
  0
VERTEX
  8
0
  6
CONTINUOUS
 62
     7
 10
439.8020116123553
 20
-218.998607626389
 42
0.09759332041094722
  0
VERTEX
  8
0
  6
CONTINUOUS
 62
     7
 10
443.0434655186983
 20
-216.8808059607914
 42
0.09935282727084116
  0
VERTEX
  8
0
  6
CONTINUOUS
 62
     7
 10
445.228404978167
 20
-213.6833948232787
 42
0.1005839080411599
  0
SEQEND
  8
0
  0
POLYLINE
  8
0
  6
CONTINUOUS
 62
     7
 66
     1
 10
0
 20
0
  0
VERTEX
  8
0
  6
CONTINUOUS
 62
     7
 10
443.133260319332
 20
-221.6705082286607
 42
0.2015082714047511
  0
VERTEX
  8
0
  6
CONTINUOUS
 62
     7
 10
442.4032570372444
 20
-221.1620278178304
 42
0.03155962249729567
  0
VERTEX
  8
0
  6
CONTINUOUS
 62
     7
 10
441.513428586751
 20
-220.9229466748142
 42
0.01542694082231458
  0
VERTEX
  8
0
  6
CONTINUOUS
 62
     7
 10
440.6057895615068
 20
-220.7635852299206
 42
0.01021026469519009
  0
VERTEX
  8
0
  6
CONTINUOUS
 62
     7
 10
439.6902648884376
 20
-220.6497806231095
 42
0.007829247746862091
  0
VERTEX
  8
0
  6
CONTINUOUS
 62
     7
 10
438.7711859274284
 20
-220.5686921155886
 42
0.006588713842287345
  0
VERTEX
  8
0
  6
CONTINUOUS
 62
     7
 10
437.8499521814701
 20
-220.5139474174719
 42
0.00593110137408608
  0
VERTEX
  8
0
  6
CONTINUOUS
 62
     7
 10
436.9275498075577
 20
-220.4821798476608
 42
0.005641265167999376
  0
VERTEX
  8
0
  6
CONTINUOUS
 62
     7
 10
436.0046231181426
 20
-220.4716952056555
 42
0.005639189148662935
  0
VERTEX
  8
0
  6
CONTINUOUS
 62
     7
 10
435.0818052347442
 20
-220.481968535918
 42
0.005918164220096705
  0
VERTEX
  8
0
  6
CONTINUOUS
 62
     7
 10
434.1606368483844
 20
-220.5134566653092
 42
0.006584376605003025
  0
VERTEX
  8
0
  6
CONTINUOUS
 62
     7
 10
433.2386271257537
 20
-220.5679774050531
 42
0.00781452041269619
  0
VERTEX
  8
0
  6
CONTINUOUS
 62
     7
 10
432.3191934726263
 20
-220.6487926334559
 42
0.01018488360748045
  0
VERTEX
  8
0
  6
CONTINUOUS
 62
     7
 10
431.4029309451887
 20
-220.7623111264577
 42
0.01540565567865284
  0
VERTEX
  8
0
  6
CONTINUOUS
 62
     7
 10
430.4926603793591
 20
-220.9216651729646
 42
0.03141742369792263
  0
VERTEX
  8
0
  6
CONTINUOUS
 62
     7
 10
429.6013798084895
 20
-221.1603987084411
 42
0.1997036642486905
  0
VERTEX
  8
0
  6
CONTINUOUS
 62
     7
 10
428.8671489644616
 20
-221.6682280128126
 42
0
  0
SEQEND
  8
0
  0
POLYLINE
  8
0
  6
CONTINUOUS
 62
     7
 66
     1
 10
0
 20
0
  0
VERTEX
  8
0
  6
CONTINUOUS
 62
     7
 10
373
 20
-232.0078582763672
 42
0.02700914029692224
  0
VERTEX
  8
0
  6
CONTINUOUS
 62
     7
 10
370.5428081230421
 20
-232.1403029592243
 42
0.02829818573633697
  0
VERTEX
  8
0
  6
CONTINUOUS
 62
     7
 10
368.1158662838305
 20
-232.5421592105309
 42
0.03115745527393079
  0
VERTEX
  8
0
  6
CONTINUOUS
 62
     7
 10
365.7527861810157
 20
-233.2281373537219
 42
0.03614903527388402
  0
VERTEX
  8
0
  6
CONTINUOUS
 62
     7
 10
363.5031374135974
 20
-234.2231835150246
 42
0.04437696134113198
  0
VERTEX
  8
0
  6
CONTINUOUS
 62
     7
 10
361.441518396296
 20
-235.5633548857704
 42
0.05742353803502621
  0
VERTEX
  8
0
  6
CONTINUOUS
 62
     7
 10
359.69219032565
 20
-237.2884716047741
 42
0.07586196959419488
  0
VERTEX
  8
0
  6
CONTINUOUS
 62
     7
 10
358.4579819326827
 20
-239.4081180171928
 42
0.09296661573381526
  0
VERTEX
  8
0
  6
CONTINUOUS
 62
     7
 10
358
 20
-241.8123626708984
 42
0.09295315659629232
  0
VERTEX
  8
0
  6
CONTINUOUS
 62
     7
 10
358.4578466445865
 20
-244.2162576951497
 42
0.0758413626831068
  0
VERTEX
  8
0
  6
CONTINUOUS
 62
     7
 10
359.6914004523779
 20
-246.3352608926017
 42
0.05741679941636487
  0
VERTEX
  8
0
  6
CONTINUOUS
 62
     7
 10
361.4399321374211
 20
-248.0601167205019
 42
0.04437739112697795
  0
VERTEX
  8
0
  6
CONTINUOUS
 62
     7
 10
363.5008999521301
 20
-249.4003453753445
 42
0.03615273806818523
  0
VERTEX
  8
0
  6
CONTINUOUS
 62
     7
 10
365.75019496559
 20
-250.3956531346477
 42
0.03115788413228512
  0
VERTEX
  8
0
  6
CONTINUOUS
 62
     7
 10
368.1128709124185
 20
-251.0818916550228
 42
0.02831181824419681
  0
VERTEX
  8
0
  6
CONTINUOUS
 62
     7
 10
370.5407575280487
 20
-251.4841997160608
 42
0.02703215926526366
  0
VERTEX
  8
0
  6
CONTINUOUS
 62
     7
 10
373
 20
-251.6168670654297
 42
0
  0
SEQEND
  8
0
  0
POLYLINE
  8
0
  6
CONTINUOUS
 62
     7
 66
     1
 10
0
 20
0
  0
VERTEX
  8
0
  6
CONTINUOUS
 62
     7
 10
296.0003594132196
 20
-250.1515623577572
 42
-0.0953916759260976
  0
VERTEX
  8
0
  6
CONTINUOUS
 62
     7
 10
301.8575523955487
 20
-258.5802140245034
 42
-0.1133277495442063
  0
VERTEX
  8
0
  6
CONTINUOUS
 62
     7
 10
303.2180305285363
 20
-268.726832097531
 42
0.02518059417925864
  0
VERTEX
  8
0
  6
CONTINUOUS
 62
     7
 10
302.8946734169845
 20
-279.0432929987459
 42
0.01984296641818556
  0
VERTEX
  8
0
  6
CONTINUOUS
 62
     7
 10
303.8351851386873
 20
-289.3242588276657
 42
-0.02129185284177815
  0
VERTEX
  8
0
  6
CONTINUOUS
 62
     7
 10
304.7539185173357
 20
-299.6065757616661
 42
-0.01844545977597973
  0
VERTEX
  8
0
  6
CONTINUOUS
 62
     7
 10
304.5453635255844
 20
-309.9284190644588
 42
0.02372722372665846
  0
VERTEX
  8
0
  6
CONTINUOUS
 62
     7
 10
304.4776368939337
 20
-320.2505746200671
 42
-0.1202228849704712
  0
VERTEX
  8
0
  6
CONTINUOUS
 62
     7
 10
303.2909736343191
 20
-330.400113794392
 42
-0.1467772846525922
  0
VERTEX
  8
0
  6
CONTINUOUS
 62
     7
 10
296
 20
-337.5
 42
0
  0
SEQEND
  8
0
  0
POLYLINE
  8
0
  6
CONTINUOUS
 62
     7
 66
     1
 10
0
 20
0
  0
VERTEX
  8
0
  6
CONTINUOUS
 62
     7
 10
373
 20
-29.2969970703125
 42
0.03684100915016075
  0
VERTEX
  8
0
  6
CONTINUOUS
 62
     7
 10
370.3248356402441
 20
-29.49398538004671
 42
0.03801003109662922
  0
VERTEX
  8
0
  6
CONTINUOUS
 62
     7
 10
367.7095919964504
 20
-30.08659449703048
 42
0.04046201344887734
  0
VERTEX
  8
0
  6
CONTINUOUS
 62
     7
 10
365.217887000041
 20
-31.07999452506547
 42
0.04428261258125247
  0
VERTEX
  8
0
  6
CONTINUOUS
 62
     7
 10
362.9285733187973
 20
-32.47855553873526
 42
0.0494856361075626
  0
VERTEX
  8
0
  6
CONTINUOUS
 62
     7
 10
360.9404025435135
 20
-34.27746248606574
 42
0.05578176975689115
  0
VERTEX
  8
0
  6
CONTINUOUS
 62
     7
 10
359.3719381984463
 20
-36.45061958611024
 42
0.06202765774137917
  0
VERTEX
  8
0
  6
CONTINUOUS
 62
     7
 10
358.3545338266268
 20
-38.92862880642772
 42
0.0661682256118943
  0
VERTEX
  8
0
  6
CONTINUOUS
 62
     7
 10
358
 20
-41.58428955078125
 42
0.06611429329777183
  0
VERTEX
  8
0
  6
CONTINUOUS
 62
     7
 10
358.3539531246856
 20
-44.23780049723165
 42
0.06200344252649842
  0
VERTEX
  8
0
  6
CONTINUOUS
 62
     7
 10
359.3702152087653
 20
-46.71488925137595
 42
0.05578049654465905
  0
VERTEX
  8
0
  6
CONTINUOUS
 62
     7
 10
360.9377025977029
 20
-48.88812554733448
 42
0.04948567580066475
  0
VERTEX
  8
0
  6
CONTINUOUS
 62
     7
 10
362.9249249200378
 20
-50.68731492131649
 42
0.04427679459802692
  0
VERTEX
  8
0
  6
CONTINUOUS
 62
     7
 10
365.2130601449393
 20
-52.08618403471121
 42
0.04047359625087445
  0
VERTEX
  8
0
  6
CONTINUOUS
 62
     7
 10
367.7047856491424
 20
-53.08049986921477
 42
0.03804200425317456
  0
VERTEX
  8
0
  6
CONTINUOUS
 62
     7
 10
370.3219006902546
 20
-53.67415771768143
 42
0.03688218119177383
  0
VERTEX
  8
0
  6
CONTINUOUS
 62
     7
 10
373
 20
-53.87158203125
 42
0
  0
SEQEND
  8
0
  0
POLYLINE
  8
0
  6
CONTINUOUS
 62
     7
 66
     1
 10
0
 20
0
  0
VERTEX
  8
0
  6
CONTINUOUS
 62
     7
 10
428.2619022221351
 20
10.93737814818254
 42
0.04188730367415375
  0
VERTEX
  8
0
  6
CONTINUOUS
 62
     7
 10
428.7020344841995
 20
9.70940399958803
 42
0.04165594837388321
  0
VERTEX
  8
0
  6
CONTINUOUS
 62
     7
 10
429.3402812820294
 20
8.571480997584228
 42
0.04136510392960657
  0
VERTEX
  8
0
  6
CONTINUOUS
 62
     7
 10
430.1577381641795
 20
7.554627661301534
 42
0.04106114708357359
  0
VERTEX
  8
0
  6
CONTINUOUS
 62
     7
 10
431.1310482054422
 20
6.685491964297061
 42
0.04077357732516527
  0
VERTEX
  8
0
  6
CONTINUOUS
 62
     7
 10
432.2331206473257
 20
5.986312499169615
 42
0.04052878174777002
  0
VERTEX
  8
0
  6
CONTINUOUS
 62
     7
 10
433.4339797017339
 20
5.474564569895144
 42
0.04034729443309706
  0
VERTEX
  8
0
  6
CONTINUOUS
 62
     7
 10
434.7015544560752
 20
5.162753377309826
 42
0.04023511476118982
  0
VERTEX
  8
0
  6
CONTINUOUS
 62
     7
 10
436.0021778129697
 20
5.058288866146238
 42
0.04022823417034192
  0
VERTEX
  8
0
  6
CONTINUOUS
 62
     7
 10
437.3025196657523
 20
5.163414401938657
 42
0.04031551583043502
  0
VERTEX
  8
0
  6
CONTINUOUS
 62
     7
 10
438.5689486216772
 20
5.475541793439418
 42
0.04051141576205038
  0
VERTEX
  8
0
  6
CONTINUOUS
 62
     7
 10
439.7691032684893
 20
5.987481882585705
 42
0.04075983235444235
  0
VERTEX
  8
0
  6
CONTINUOUS
 62
     7
 10
440.8705931556671
 20
6.686732166066828
 42
0.04106008099381028
  0
VERTEX
  8
0
  6
CONTINUOUS
 62
     7
 10
441.8436447586856
 20
7.556083921328601
 42
0.04137779398191854
  0
VERTEX
  8
0
  6
CONTINUOUS
 62
     7
 10
442.6610580729468
 20
8.573463371376487
 42
0.04167556173294289
  0
VERTEX
  8
0
  6
CONTINUOUS
 62
     7
 10
443.2992052336398
 20
9.712124199119197
 42
0.0419164945614404
  0
VERTEX
  8
0
  6
CONTINUOUS
 62
     7
 10
443.7390962624776
 20
10.94112975636097
 42
0
  0
SEQEND
  8
0
  0
POLYLINE
  8
0
  6
CONTINUOUS
 62
     7
 66
     1
 10
0
 20
0
  0
VERTEX
  8
0
  6
CONTINUOUS
 62
     7
 10
446.9314048289555
 20
20.26018562728212
 42
0.0175428024714922
  0
VERTEX
  8
0
  6
CONTINUOUS
 62
     7
 10
445.5899370004203
 20
20.55332861378042
 42
0.01105000106662716
  0
VERTEX
  8
0
  6
CONTINUOUS
 62
     7
 10
444.233649092524
 20
20.77138152718539
 42
0.008116753947639225
  0
VERTEX
  8
0
  6
CONTINUOUS
 62
     7
 10
442.8692750333379
 20
20.93806667291368
 42
0.006531214552904039
  0
VERTEX
  8
0
  6
CONTINUOUS
 62
     7
 10
441.5008428141854
 20
21.06499833982714
 42
0.005600166967227965
  0
VERTEX
  8
0
  6
CONTINUOUS
 62
     7
 10
440.129464668468
 20
21.1588740847845
 42
0.005037299046471292
  0
VERTEX
  8
0
  6
CONTINUOUS
 62
     7
 10
438.7560748062272
 20
21.2236686663077
 42
0.00471143049302067
  0
VERTEX
  8
0
  6
CONTINUOUS
 62
     7
 10
437.3815881704424
 20
21.26174597165706
 42
0.004560874606671853
  0
VERTEX
  8
0
  6
CONTINUOUS
 62
     7
 10
436.0066224349903
 20
21.27438325536233
 42
0.004559742370442725
  0
VERTEX
  8
0
  6
CONTINUOUS
 62
     7
 10
434.6317827739626
 20
21.26199006405944
 42
0.004705488727854978
  0
VERTEX
  8
0
  6
CONTINUOUS
 62
     7
 10
433.2583480273248
 20
21.22420401926933
 42
0.005034824033439912
  0
VERTEX
  8
0
  6
CONTINUOUS
 62
     7
 10
431.8844006311995
 20
21.15966894912225
 42
0.005594377643006979
  0
VERTEX
  8
0
  6
CONTINUOUS
 62
     7
 10
430.5126631807537
 20
21.06607682664444
 42
0.006523128034351902
  0
VERTEX
  8
0
  6
CONTINUOUS
 62
     7
 10
429.143492488479
 20
20.93942309762384
 42
0.008102150586956508
  0
VERTEX
  8
0
  6
CONTINUOUS
 62
     7
 10
427.7783449725727
 20
20.77305200027109
 42
0.01103428390013743
  0
VERTEX
  8
0
  6
CONTINUOUS
 62
     7
 10
426.4199077333646
 20
20.55514866948618
 42
0.01751373987311554
  0
VERTEX
  8
0
  6
CONTINUOUS
 62
     7
 10
425.075787224559
 20
20.26205137394806
 42
0
  0
SEQEND
  8
0
  0
POLYLINE
  8
0
  6
CONTINUOUS
 62
     7
 66
     1
 10
0
 20
0
 70
     1
  0
VERTEX
  8
0
  6
CONTINUOUS
 62
     7
 10
436
 20
15.07009887695313
 42
0.01162476452189823
  0
VERTEX
  8
0
  6
CONTINUOUS
 62
     7
 10
432.5818891266273
 20
14.99160828867686
 42
0.01447217399078738
  0
VERTEX
  8
0
  6
CONTINUOUS
 62
     7
 10
429.1713792691482
 20
14.73808060470511
 42
0.02556038781701941
  0
VERTEX
  8
0
  6
CONTINUOUS
 62
     7
 10
425.7910452185806
 20
14.22591025962467
 42
0.1952839009470655
  0
VERTEX
  8
0
  6
CONTINUOUS
 62
     7
 10
422.85001214316
 20
12.78443255642295
 42
0.1938987691653402
  0
VERTEX
  8
0
  6
CONTINUOUS
 62
     7
 10
425.7942839600086
 20
11.34665175964834
 42
0.0255313605571431
  0
VERTEX
  8
0
  6
CONTINUOUS
 62
     7
 10
429.1729289292065
 20
10.83502013040028
 42
0.01446583242551658
  0
VERTEX
  8
0
  6
CONTINUOUS
 62
     7
 10
432.582344894868
 20
10.58164084475829
 42
0.0116227512525006
  0
VERTEX
  8
0
  6
CONTINUOUS
 62
     7
 10
436
 20
10.503173828125
 42
0.01162444772987176
  0
VERTEX
  8
0
  6
CONTINUOUS
 62
     7
 10
439.4181109421924
 20
10.58166215016709
 42
0.01447191320538779
  0
VERTEX
  8
0
  6
CONTINUOUS
 62
     7
 10
442.8286212821456
 20
10.83518367267387
 42
0.02556016153305556
  0
VERTEX
  8
0
  6
CONTINUOUS
 62
     7
 10
446.2089567942722
 20
11.34734461322044
 42
0.1952857525117493
  0
VERTEX
  8
0
  6
CONTINUOUS
 62
     7
 10
449.149987828509
 20
12.78881475813335
 42
0.1938970346386739
  0
VERTEX
  8
0
  6
CONTINUOUS
 62
     7
 10
446.2057157601428
 20
14.22660275370711
 42
0.02553159831797454
  0
VERTEX
  8
0
  6
CONTINUOUS
 62
     7
 10
442.8270722648019
 20
14.73824396651164
 42
0.01446609579013556
  0
VERTEX
  8
0
  6
CONTINUOUS
 62
     7
 10
439.4176567800718
 20
14.99162951316865
 42
0.01162307440157461
  0
SEQEND
  8
0
  0
POLYLINE
  8
0
  6
CONTINUOUS
 62
     7
 66
     1
 10
0
 20
0
  0
VERTEX
  8
0
  6
CONTINUOUS
 62
     7
 10
425.0736999511719
 20
20.26150512695312
 42
0.01843525202588635
  0
VERTEX
  8
0
  6
CONTINUOUS
 62
     7
 10
424.0927266618542
 20
20.02168617099631
 42
0.00507882525242565
  0
VERTEX
  8
0
  6
CONTINUOUS
 62
     7
 10
423.1233124095504
 20
19.73862479335442
 42
0.02696868374645424
  0
VERTEX
  8
0
  6
CONTINUOUS
 62
     7
 10
422.1726062041068
 20
19.3987530764499
 42
0.05660729878813966
  0
VERTEX
  8
0
  6
CONTINUOUS
 62
     7
 10
421.2928084154179
 20
18.90715549538541
 42
0.06337965065018741
  0
VERTEX
  8
0
  6
CONTINUOUS
 62
     7
 10
420.5650117895957
 20
18.21049247414176
 42
0.06341675255995594
  0
VERTEX
  8
0
  6
CONTINUOUS
 62
     7
 10
420.0286680268244
 20
17.35648027882926
 42
0.07212843519057609
  0
VERTEX
  8
0
  6
CONTINUOUS
 62
     7
 10
419.743084688066
 20
16.39152965431817
 42
0.07237625315357402
  0
VERTEX
  8
0
  6
CONTINUOUS
 62
     7
 10
419.7431962530247
 20
15.38527765115636
 42
0.07211558853129975
  0
VERTEX
  8
0
  6
CONTINUOUS
 62
     7
 10
420.0289018735908
 20
14.4205679948472
 42
0.06331753536176692
  0
VERTEX
  8
0
  6
CONTINUOUS
 62
     7
 10
420.5643477569091
 20
13.56787907354877
 42
0.06336647317125475
  0
VERTEX
  8
0
  6
CONTINUOUS
 62
     7
 10
421.2919590361797
 20
12.87102464534024
 42
0.056639161816531
  0
VERTEX
  8
0
  6
CONTINUOUS
 62
     7
 10
422.1716552988526
 20
12.37921391879989
 42
0.02700149179082581
  0
VERTEX
  8
0
  6
CONTINUOUS
 62
     7
 10
423.1225536645557
 20
12.03916600952237
 42
0.005084234218348345
  0
VERTEX
  8
0
  6
CONTINUOUS
 62
     7
 10
424.092485880493
 20
11.75593817855074
 42
0.01843767337789486
  0
VERTEX
  8
0
  6
CONTINUOUS
 62
     7
 10
425.0736999511719
 20
11.51605224609375
 42
0
  0
SEQEND
  8
0
  0
POLYLINE
  8
0
  6
CONTINUOUS
 62
     7
 66
     1
 10
0
 20
0
  0
VERTEX
  8
0
  6
CONTINUOUS
 62
     7
 10
446.9263000488281
 20
20.26150512695312
 42
-0.01843525202588635
  0
VERTEX
  8
0
  6
CONTINUOUS
 62
     7
 10
447.9072733381458
 20
20.02168617099631
 42
-0.00507882525242565
  0
VERTEX
  8
0
  6
CONTINUOUS
 62
     7
 10
448.8766875904496
 20
19.73862479335442
 42
-0.02696868374645424
  0
VERTEX
  8
0
  6
CONTINUOUS
 62
     7
 10
449.8273937958932
 20
19.3987530764499
 42
-0.05660729878813966
  0
VERTEX
  8
0
  6
CONTINUOUS
 62
     7
 10
450.7071915845821
 20
18.90715549538541
 42
-0.06337965065018744
  0
VERTEX
  8
0
  6
CONTINUOUS
 62
     7
 10
451.4349882104043
 20
18.21049247414176
 42
-0.06341675255995589
  0
VERTEX
  8
0
  6
CONTINUOUS
 62
     7
 10
451.9713319731756
 20
17.35648027882926
 42
-0.072128435190576
  0
VERTEX
  8
0
  6
CONTINUOUS
 62
     7
 10
452.256915311934
 20
16.39152965431817
 42
-0.07237625315357536
  0
VERTEX
  8
0
  6
CONTINUOUS
 62
     7
 10
452.2568037469753
 20
15.38527765115636
 42
-0.07211558853129964
  0
VERTEX
  8
0
  6
CONTINUOUS
 62
     7
 10
451.9710981264092
 20
14.4205679948472
 42
-0.06331753536177004
  0
VERTEX
  8
0
  6
CONTINUOUS
 62
     7
 10
451.4356522430909
 20
13.56787907354877
 42
-0.06336647317125475
  0
VERTEX
  8
0
  6
CONTINUOUS
 62
     7
 10
450.7080409638203
 20
12.87102464534024
 42
-0.056639161816531
  0
VERTEX
  8
0
  6
CONTINUOUS
 62
     7
 10
449.8283447011474
 20
12.37921391879989
 42
-0.02700149179082581
  0
VERTEX
  8
0
  6
CONTINUOUS
 62
     7
 10
448.8774463354443
 20
12.03916600952237
 42
-0.005084234218348567
  0
VERTEX
  8
0
  6
CONTINUOUS
 62
     7
 10
447.907514119507
 20
11.75593817855074
 42
-0.01843767337789463
  0
VERTEX
  8
0
  6
CONTINUOUS
 62
     7
 10
446.9263000488281
 20
11.51605224609375
 42
0
  0
SEQEND
  8
0
  0
POLYLINE
  8
0
  6
CONTINUOUS
 62
     7
 66
     1
 10
0
 20
0
  0
VERTEX
  8
0
  6
CONTINUOUS
 62
     7
 10
296
 20
37.5
 42
-0.07543391315754522
  0
VERTEX
  8
0
  6
CONTINUOUS
 62
     7
 10
302.3175811170321
 20
33.35063142327072
 42
-0.1464565611191417
  0
VERTEX
  8
0
  6
CONTINUOUS
 62
     7
 10
306.3540748048922
 20
27.05257336146085
 42
-0.08474567118459221
  0
VERTEX
  8
0
  6
CONTINUOUS
 62
     7
 10
306.6283672362863
 20
19.50767328608566
 42
0.01758551506592189
  0
VERTEX
  8
0
  6
CONTINUOUS
 62
     7
 10
305.9979615590635
 20
11.94717354209867
 42
0.007047526525493152
  0
VERTEX
  8
0
  6
CONTINUOUS
 62
     7
 10
305.8886907345886
 20
4.361098168039768
 42
-0.004592641193872371
  0
VERTEX
  8
0
  6
CONTINUOUS
 62
     7
 10
305.7011886849932
 20
-3.224357092367039
 42
0.00855665524938617
  0
VERTEX
  8
0
  6
CONTINUOUS
 62
     7
 10
305.5774043786191
 20
-10.81080780135141
 42
-0.002646647279553691
  0
VERTEX
  8
0
  6
CONTINUOUS
 62
     7
 10
305.5962379885108
 20
-18.39839618436975
 42
-0.04501761557815458
  0
VERTEX
  8
0
  6
CONTINUOUS
 62
     7
 10
305.0480873979901
 20
-25.95595915591143
 42
-0.1351069131491799
  0
VERTEX
  8
0
  6
CONTINUOUS
 62
     7
 10
301.8637325999661
 20
-32.74642112309048
 42
-0.08847557538224664
  0
VERTEX
  8
0
  6
CONTINUOUS
 62
     7
 10
296
 20
-37.5
 42
0
  0
SEQEND
  8
0
  0
POLYLINE
  8
0
  6
CONTINUOUS
 62
     7
 66
     1
 10
0
 20
0
  0
VERTEX
  8
0
  6
CONTINUOUS
 62
     7
 10
369.4734497070313
 20
-16.39154052734375
 42
0.02068197641672602
  0
VERTEX
  8
0
  6
CONTINUOUS
 62
     7
 10
367.9627247541682
 20
-16.45401758686068
 42
0.02088565363504474
  0
VERTEX
  8
0
  6
CONTINUOUS
 62
     7
 10
366.4627351169962
 20
-16.64158945703331
 42
0.02130574453366013
  0
VERTEX
  8
0
  6
CONTINUOUS
 62
     7
 10
364.9839571643401
 20
-16.95480028506145
 42
0.02195041722455486
  0
VERTEX
  8
0
  6
CONTINUOUS
 62
     7
 10
363.5376356761214
 20
-17.39454330423858
 42
0.02283094503222852
  0
VERTEX
  8
0
  6
CONTINUOUS
 62
     7
 10
362.1361726440943
 20
-17.96187435942516
 42
0.02395932654627482
  0
VERTEX
  8
0
  6
CONTINUOUS
 62
     7
 10
360.7935195584496
 20
-18.65771901526018
 42
0.02534385598373258
  0
VERTEX
  8
0
  6
CONTINUOUS
 62
     7
 10
359.5255562643812
 20
-19.48242948281603
 42
0.02698163243958913
  0
VERTEX
  8
0
  6
CONTINUOUS
 62
     7
 10
358.3504004394748
 20
-20.43513880261444
 42
0.02884694995880933
  0
VERTEX
  8
0
  6
CONTINUOUS
 62
     7
 10
357.2885399006258
 20
-21.51286493728731
 42
0.03087553015539105
  0
VERTEX
  8
0
  6
CONTINUOUS
 62
     7
 10
356.3626120685478
 20
-22.70935631540852
 42
0.03294763876796233
  0
VERTEX
  8
0
  6
CONTINUOUS
 62
     7
 10
355.5965943432166
 20
-24.01377041775075
 42
0.0348788651616138
  0
VERTEX
  8
0
  6
CONTINUOUS
 62
     7
 10
355.014177892141
 20
-25.40945496006684
 42
0.03643324829801311
  0
VERTEX
  8
0
  6
CONTINUOUS
 62
     7
 10
354.6362730360127
 20
-26.87331527022354
 42
0.0373711735884464
  0
VERTEX
  8
0
  6
CONTINUOUS
 62
     7
 10
354.4779956679789
 20
-28.37634713740787
 42
0.03750288997061935
  0
VERTEX
  8
0
  6
CONTINUOUS
 62
     7
 10
354.5458704458586
 20
-29.88478968367077
 42
0.03686575329634143
  0
VERTEX
  8
0
  6
CONTINUOUS
 62
     7
 10
354.8368060326421
 20
-31.3669317820468
 42
0
  0
SEQEND
  8
0
  0
TEXT
  8
0
  6
CONTINUOUS
 62
     7
 10
-105.4285771846771
 20
-9
 40
18
 41
0.9993229816310214
  1
ERKV-NAB-200
  0
ENDSEC
  0
EOF
