  0
SECTION
  2
HEADER
  0
ENDSEC
  0
SECTION
  2
TABLES
  0
TABLE
  2
LTYPE
 70
    22
  0
LTYPE
  2
CONTINUOUS
 70
    64
  3
Solid line
 72
    65
 73
     0
 40
0.000000
  0
LTYPE
  2
DASHED
 70
    64
  3
__ __ __ __ __ __ __ __ __ __ __ __ __ __ __
 72
    65
 73
     2
 40
3.500000
 49
2.000000
 49
-1.500000
  0
LTYPE
  2
CENTER
 70
    64
  3
____ _ ____ _ ____ _ ____ _ ____ _ ____ _ ____
 72
    65
 73
     4
 40
17.500000
 49
13.000000
 49
-1.500000
 49
1.500000
 49
-1.500000
  0
LTYPE
  2
PHANTOM
 70
    64
  3
_____ _ _ _____ _ _ _____ _ _ _____ _ _ ____  
 72
    65
 73
     6
 40
15.500000
 49
8.000000
 49
-1.500000
 49
1.500000
 49
-1.500000
 49
1.500000
 49
-1.500000
  0
LTYPE
  2
DOT
 70
    64
  3
. . . . . . . . . . . . . . . . . . . . . . . .
 72
    65
 73
     2
 40
0.25
 49
0.0
 49
-0.25
  0
ENDTAB
  0
TABLE
  2
LAYER
 70
     1
  0
LAYER
  2
0
 70
     0
 62
     7
  6
CONTINUOUS
  0
ENDTAB
  0
TABLE
  2
STYLE
 70
     1
  0
STYLE
  2
STANDARD
 70
     0
 40
0.000000
 41
1.000000
 50
0.000000
 71
     0
 42
0.200000
  3
txt
  0
ENDTAB
  0
TABLE
  2
VIEW
 70
     0
  0
ENDTAB
  0
ENDSEC
  0
SECTION
  2
BLOCKS
  0
ENDSEC
  0
SECTION
  2
ENTITIES
  0
LINE
  8
0
  6
CONTINUOUS
 62
     3
 10
350
 20
-470
 11
734
 21
-470
  0
LINE
  8
0
  6
CONTINUOUS
 62
     7
 10
594
 20
-355
 11
594
 21
-585
  0
LINE
  8
0
  6
CONTINUOUS
 62
     7
 10
546
 20
-352.5
 11
590
 21
-352.5
  0
LINE
  8
0
  6
CONTINUOUS
 62
     7
 10
546
 20
-587.5
 11
590
 21
-587.5
  0
LINE
  8
0
  6
CONTINUOUS
 62
     7
 10
542
 20
-355
 11
542
 21
-585
  0
LINE
  8
0
  6
CONTINUOUS
 62
     7
 10
542
 20
-356.5
 11
546
 21
-352.5
  0
LINE
  8
0
  6
CONTINUOUS
 62
     7
 10
589.9999389648438
 20
-352.5
 11
594
 21
-356.5
  0
LINE
  8
0
  6
CONTINUOUS
 62
     7
 10
594
 20
-583.5
 11
590.0000610351562
 21
-587.5
  0
LINE
  8
0
  6
CONTINUOUS
 62
     7
 10
546
 20
-587.5
 11
542.0000610351562
 21
-583.5
  0
LINE
  8
0
  6
CONTINUOUS
 62
     7
 10
546
 20
-395.0578002929687
 11
590
 21
-395.0578002929687
  0
LINE
  8
0
  6
CONTINUOUS
 62
     7
 10
546
 20
-408.7132568359375
 11
590
 21
-408.7132568359375
  0
LINE
  8
0
  6
CONTINUOUS
 62
     7
 10
546
 20
-417.4596557617188
 11
590
 21
-417.4596557617188
  0
LINE
  8
0
  6
CONTINUOUS
 62
     7
 10
546
 20
-432.8353271484375
 11
590
 21
-432.8353271484375
  0
LINE
  8
0
  6
CONTINUOUS
 62
     7
 10
546
 20
-442.447998046875
 11
590
 21
-442.447998046875
  0
LINE
  8
0
  6
CONTINUOUS
 62
     7
 10
546
 20
-459.00048828125
 11
590
 21
-459.00048828125
  0
LINE
  8
0
  6
CONTINUOUS
 62
     7
 10
546
 20
-481.0003051757813
 11
590
 21
-481.0003051757813
  0
LINE
  8
0
  6
CONTINUOUS
 62
     7
 10
546
 20
-507.1639404296875
 11
590
 21
-507.1639404296875
  0
LINE
  8
0
  6
CONTINUOUS
 62
     7
 10
546
 20
-522.5404663085938
 11
590
 21
-522.5404663085938
  0
LINE
  8
0
  6
CONTINUOUS
 62
     7
 10
546
 20
-531.2864379882813
 11
590
 21
-531.2864379882813
  0
LINE
  8
0
  6
CONTINUOUS
 62
     7
 10
546
 20
-544.94091796875
 11
590
 21
-544.94091796875
  0
LINE
  8
0
  6
CONTINUOUS
 62
     7
 10
546
 20
-560.4974365234375
 11
590
 21
-560.4974365234375
  0
LINE
  8
0
  6
CONTINUOUS
 62
     7
 10
546
 20
-570.2504272460937
 11
590
 21
-570.2504272460937
  0
LINE
  8
0
  6
CONTINUOUS
 62
     7
 10
546
 20
-575.0982055664062
 11
590
 21
-575.0982055664062
  0
LINE
  8
0
  6
CONTINUOUS
 62
     7
 10
546
 20
-581.4676513671875
 11
590
 21
-581.4676513671875
  0
LINE
  8
0
  6
CONTINUOUS
 62
     7
 10
450
 20
-620
 11
472
 21
-620
  0
LINE
  8
0
  6
CONTINUOUS
 62
     3
 10
579
 20
-460.135009765625
 11
579
 21
-479.864990234375
  0
LINE
  8
0
  6
CONTINUOUS
 62
     7
 10
579
 20
-465.0502319335937
 11
574.0502319335938
 21
-470
  0
LINE
  8
0
  6
CONTINUOUS
 62
     7
 10
574.0502319335938
 20
-469.9999694824219
 11
579
 21
-474.9497375488281
  0
LINE
  8
0
  6
CONTINUOUS
 62
     7
 10
579
 20
-474.9497375488281
 11
583.9497680664062
 21
-470
  0
LINE
  8
0
  6
CONTINUOUS
 62
     7
 10
583.94970703125
 20
-470
 11
579
 21
-465.0502319335937
  0
LINE
  8
0
  6
CONTINUOUS
 62
     7
 10
546
 20
-497.5513305664063
 11
590
 21
-497.5513305664063
  0
LINE
  8
0
  6
CONTINUOUS
 62
     7
 10
370
 20
-438.5
 11
433
 21
-438.5
  0
LINE
  8
0
  6
CONTINUOUS
 62
     7
 10
450
 20
-437.5
 11
450
 21
-502.5
  0
LINE
  8
0
  6
CONTINUOUS
 62
     7
 10
370
 20
-497.5
 11
450
 21
-497.5
  0
LINE
  8
0
  6
CONTINUOUS
 62
     7
 10
370
 20
-442.5
 11
450
 21
-442.5
  0
LINE
  8
0
  6
CONTINUOUS
 62
     7
 10
450
 20
-502.5
 11
454.2197875976562
 21
-502.5
  0
LINE
  8
0
  6
CONTINUOUS
 62
     7
 10
450
 20
-437.5
 11
454.1791381835938
 21
-437.5
  0
LINE
  8
0
  6
CONTINUOUS
 62
     7
 10
370
 20
-438.5
 11
370
 21
-497.5
  0
LINE
  8
0
  6
CONTINUOUS
 62
     7
 10
472
 20
-320
 11
472
 21
-620
  0
LINE
  8
0
  6
CONTINUOUS
 62
     7
 10
524
 20
-355
 11
524
 21
-585
  0
LINE
  8
0
  6
CONTINUOUS
 62
     7
 10
524
 20
-585
 11
542
 21
-585
  0
LINE
  8
0
  6
CONTINUOUS
 62
     7
 10
475.095703125
 20
-536.2222290039062
 11
509.6410522460938
 21
-521.9927978515625
  0
LINE
  8
0
  6
CONTINUOUS
 62
     7
 10
472
 20
-562.7343139648438
 11
524
 21
-541.4535522460938
  0
LINE
  8
0
  6
CONTINUOUS
 62
     7
 10
472
 20
-576.87646484375
 11
524
 21
-555.595703125
  0
LINE
  8
0
  6
CONTINUOUS
 62
     7
 10
445
 20
-585
 11
450
 21
-585
  0
LINE
  8
0
  6
CONTINUOUS
 62
     7
 10
445
 20
-553.642578125
 11
445
 21
-585
  0
LINE
  8
0
  6
CONTINUOUS
 62
     7
 10
450
 20
-546.7078857421875
 11
450
 21
-620
  0
LINE
  8
0
  6
CONTINUOUS
 62
     7
 10
477
 20
-355
 11
542
 21
-355
  0
LINE
  8
0
  6
CONTINUOUS
 62
     7
 10
475.0956726074219
 20
-403.7777404785156
 11
509.6410217285156
 21
-418.0072326660156
  0
LINE
  8
0
  6
CONTINUOUS
 62
     7
 10
472.0000305175781
 20
-363.1235046386719
 11
524
 21
-384.4042663574219
  0
LINE
  8
0
  6
CONTINUOUS
 62
     7
 10
472
 20
-377.265625
 11
524
 21
-398.54638671875
  0
LINE
  8
0
  6
CONTINUOUS
 62
     7
 10
509.6409912109375
 20
-418.0072326660156
 11
519
 21
-418.0072326660156
  0
LINE
  8
0
  6
CONTINUOUS
 62
     7
 10
509.6409912109375
 20
-521.9927978515625
 11
519
 21
-521.9927978515625
  0
LINE
  8
0
  6
CONTINUOUS
 62
     7
 10
484.5
 20
-285.7000122070313
 11
511.5
 21
-285.7000122070313
  0
LINE
  8
0
  6
CONTINUOUS
 62
     7
 10
506.071044921875
 20
-271.0500183105469
 11
489.928955078125
 21
-271.0500183105469
  0
LINE
  8
0
  6
CONTINUOUS
 62
     7
 10
506.507568359375
 20
-280.0500183105469
 11
489.492431640625
 21
-280.0500183105469
  0
LINE
  8
0
  6
CONTINUOUS
 62
     7
 10
506.5075378417969
 20
-280.0500183105469
 11
506.3309936523438
 21
-285.7000122070313
  0
LINE
  8
0
  6
CONTINUOUS
 62
     7
 10
489.4924011230469
 20
-280.050048828125
 11
489.6689758300781
 21
-285.7000122070313
  0
LINE
  8
0
  6
CONTINUOUS
 62
     7
 10
506.071044921875
 20
-271.0500183105469
 11
506.071044921875
 21
-280.0500183105469
  0
LINE
  8
0
  6
CONTINUOUS
 62
     7
 10
489.928955078125
 20
-271.0500183105469
 11
489.928955078125
 21
-280.0500183105469
  0
LINE
  8
0
  6
CONTINUOUS
 62
     7
 10
450
 20
-320
 11
472
 21
-320
  0
LINE
  8
0
  6
CONTINUOUS
 62
     7
 10
450
 20
-320
 11
450
 21
-382.6487731933594
  0
LINE
  8
0
  6
CONTINUOUS
 62
     7
 10
445
 20
-355
 11
450
 21
-355
  0
LINE
  8
0
  6
CONTINUOUS
 62
     7
 10
445
 20
-355
 11
445
 21
-376.1378784179687
  0
LINE
  8
0
  6
CONTINUOUS
 62
     7
 10
484.5
 20
-317.7000122070312
 11
511.5
 21
-317.7000122070312
  0
LINE
  8
0
  6
CONTINUOUS
 62
     7
 10
489.3499755859375
 20
-317.7000122070312
 11
489.3499755859375
 21
-355
  0
LINE
  8
0
  6
CONTINUOUS
 62
     7
 10
506.6500244140625
 20
-317.7000122070312
 11
506.6500244140625
 21
-355
  0
LINE
  8
0
  6
CONTINUOUS
 62
     7
 10
511.5
 20
-285.7000122070313
 11
511.5
 21
-317.7000122070312
  0
LINE
  8
0
  6
CONTINUOUS
 62
     7
 10
484.5
 20
-285.7000122070313
 11
484.5
 21
-317.7000122070312
  0
LINE
  8
0
  6
CONTINUOUS
 62
     3
 10
498
 20
-266.7441101074219
 11
498
 21
-365.8260498046875
  0
LINE
  8
0
  6
CONTINUOUS
 62
     3
 10
498.0000305175781
 20
-271.050048828125
 11
489.9289855957031
 21
-280.0500183105469
  0
LINE
  8
0
  6
CONTINUOUS
 62
     3
 10
489.928955078125
 20
-271.050048828125
 11
497.9999694824219
 21
-280.0500183105469
  0
LINE
  8
0
  6
CONTINUOUS
 62
     7
 10
498
 20
-280.0500183105469
 11
498
 21
-271.0500183105469
  0
LINE
  8
0
  6
CONTINUOUS
 62
     3
 10
498.0000305175781
 20
-271.0500183105469
 11
506.071044921875
 21
-280.0499877929688
  0
LINE
  8
0
  6
CONTINUOUS
 62
     3
 10
506.071044921875
 20
-271.0500183105469
 11
498
 21
-280.0500183105469
  0
LINE
  8
0
  6
CONTINUOUS
 62
     7
 10
433
 20
-438.5
 11
433
 21
-442.5
  0
LINE
  8
0
  6
CONTINUOUS
 62
     3
 10
-170
 20
-470
 11
170
 21
-470
  0
LINE
  8
0
  6
CONTINUOUS
 62
     3
 10
0
 20
-251.0500183105469
 11
0
 21
-640
  0
LINE
  8
0
  6
CONTINUOUS
 62
     7
 10
-8
 20
-448.5
 11
8
 21
-448.5
  0
LINE
  8
0
  6
CONTINUOUS
 62
     7
 10
-8
 20
-438.5
 11
-8
 21
-448.5
  0
LINE
  8
0
  6
CONTINUOUS
 62
     7
 10
8
 20
-438.5
 11
8
 21
-448.5
  0
LINE
  8
0
  6
CONTINUOUS
 62
     7
 10
-8
 20
-438.5
 11
8
 21
-438.5
  0
LINE
  8
0
  6
CONTINUOUS
 62
     3
 10
111.7655792236328
 20
-516.2949829101563
 11
132.5182342529297
 21
-524.8910522460938
  0
LINE
  8
0
  6
CONTINUOUS
 62
     3
 10
111.7657241821289
 20
-423.7051391601563
 11
132.5183868408203
 21
-415.1091003417969
  0
LINE
  8
0
  6
CONTINUOUS
 62
     3
 10
46.29490280151367
 20
-358.234375
 11
54.89093017578125
 21
-337.4817199707031
  0
LINE
  8
0
  6
CONTINUOUS
 62
     3
 10
-46.29470062255859
 20
-358.2343444824219
 11
-54.8907356262207
 21
-337.481689453125
  0
LINE
  8
0
  6
CONTINUOUS
 62
     3
 10
-111.7655792236328
 20
-423.7050170898437
 11
-132.5182495117187
 21
-415.1089782714844
  0
LINE
  8
0
  6
CONTINUOUS
 62
     3
 10
-111.7656402587891
 20
-516.2947387695312
 11
-132.518310546875
 21
-524.8908081054687
  0
LINE
  8
0
  6
CONTINUOUS
 62
     3
 10
-46.2949333190918
 20
-581.7655639648437
 11
-54.89097595214844
 21
-602.5181884765625
  0
LINE
  8
0
  6
CONTINUOUS
 62
     3
 10
46.29467010498047
 20
-581.7656860351563
 11
54.89070129394531
 21
-602.5183715820312
  0
LINE
  8
0
  6
CONTINUOUS
 62
     7
 10
-13.5
 20
-285.7000122070313
 11
13.5
 21
-285.7000122070313
  0
LINE
  8
0
  6
CONTINUOUS
 62
     7
 10
8.07110595703125
 20
-271.0500183105469
 11
-8.07110595703125
 21
-271.0500183105469
  0
LINE
  8
0
  6
CONTINUOUS
 62
     7
 10
8.507568359375
 20
-280.0500183105469
 11
-8.507568359375
 21
-280.0500183105469
  0
LINE
  8
0
  6
CONTINUOUS
 62
     7
 10
8.507617950439453
 20
-280.0499877929688
 11
8.331055641174316
 21
-285.7000122070313
  0
LINE
  8
0
  6
CONTINUOUS
 62
     7
 10
-8.507540702819824
 20
-280.0500183105469
 11
-8.330978393554688
 21
-285.7000122070313
  0
LINE
  8
0
  6
CONTINUOUS
 62
     7
 10
8.07110595703125
 20
-271.0500183105469
 11
8.07110595703125
 21
-280.0500183105469
  0
LINE
  8
0
  6
CONTINUOUS
 62
     7
 10
-8.07110595703125
 20
-271.0500183105469
 11
-8.07110595703125
 21
-280.0500183105469
  0
LINE
  8
0
  6
CONTINUOUS
 62
     7
 10
-13.5
 20
-285.7000122070313
 11
-13.5
 21
-320.6087341308594
  0
LINE
  8
0
  6
CONTINUOUS
 62
     7
 10
13.5
 20
-285.7000122070313
 11
13.5
 21
-320.6087341308594
  0
LINE
  8
0
  6
CONTINUOUS
 62
     3
 10
1.897623405966442E-05
 20
-271.050048828125
 11
-8.071091651916504
 21
-280.050048828125
  0
LINE
  8
0
  6
CONTINUOUS
 62
     3
 10
-8.071140289306641
 20
-271.0500183105469
 11
-9.293822586187162E-06
 21
-280.050048828125
  0
LINE
  8
0
  6
CONTINUOUS
 62
     3
 10
9.293822586187162E-06
 20
-280.050048828125
 11
8.07112979888916
 21
-271.0500183105469
  0
LINE
  8
0
  6
CONTINUOUS
 62
     3
 10
1.398619247083843E-06
 20
-271.050048828125
 11
8.071091651916504
 21
-280.050048828125
  0
LINE
  8
0
  6
CONTINUOUS
 62
     7
 10
0
 20
-280.0500183105469
 11
0
 21
-271.0500183105469
  0
LINE
  8
0
  6
CONTINUOUS
 62
     3
 10
350
 20
0
 11
734.0000610351563
 21
0
  0
LINE
  8
0
  6
CONTINUOUS
 62
     7
 10
594.0000610351563
 20
-115
 11
594.0000610351563
 21
-4
  0
LINE
  8
0
  6
CONTINUOUS
 62
     7
 10
594.0000610351563
 20
4
 11
594.0000610351563
 21
115
  0
LINE
  8
0
  6
CONTINUOUS
 62
     7
 10
546
 20
117.5
 11
590
 21
117.5
  0
LINE
  8
0
  6
CONTINUOUS
 62
     7
 10
546
 20
-117.5
 11
590
 21
-117.5
  0
LINE
  8
0
  6
CONTINUOUS
 62
     7
 10
542
 20
115
 11
542
 21
-114.9999694824219
  0
LINE
  8
0
  6
CONTINUOUS
 62
     7
 10
542.0000610351562
 20
113.4999618530273
 11
546.0000610351562
 21
117.4999694824219
  0
LINE
  8
0
  6
CONTINUOUS
 62
     7
 10
589.9998779296875
 20
117.4999542236328
 11
593.9998779296875
 21
113.4999465942383
  0
LINE
  8
0
  6
CONTINUOUS
 62
     7
 10
594
 20
-113.5000152587891
 11
589.9999389648438
 21
-117.5000228881836
  0
LINE
  8
0
  6
CONTINUOUS
 62
     7
 10
546.0001220703125
 20
-117.4999008178711
 11
542.0001220703125
 21
-113.4998626708984
  0
LINE
  8
0
  6
CONTINUOUS
 62
     7
 10
546
 20
111.4676513671875
 11
590
 21
111.4676513671875
  0
LINE
  8
0
  6
CONTINUOUS
 62
     7
 10
546
 20
105.0982666015625
 11
590
 21
105.0982666015625
  0
LINE
  8
0
  6
CONTINUOUS
 62
     7
 10
546
 20
100.2501831054688
 11
590
 21
100.2501831054688
  0
LINE
  8
0
  6
CONTINUOUS
 62
     7
 10
546
 20
90.495849609375
 11
590
 21
90.495849609375
  0
LINE
  8
0
  6
CONTINUOUS
 62
     7
 10
546
 20
74.94110107421875
 11
590
 21
74.94110107421875
  0
LINE
  8
0
  6
CONTINUOUS
 62
     7
 10
546
 20
61.28469848632813
 11
590
 21
61.28469848632813
  0
LINE
  8
0
  6
CONTINUOUS
 62
     7
 10
546
 20
52.53948974609375
 11
590
 21
52.53948974609375
  0
LINE
  8
0
  6
CONTINUOUS
 62
     7
 10
546
 20
37.16400146484375
 11
590
 21
37.16400146484375
  0
LINE
  8
0
  6
CONTINUOUS
 62
     7
 10
546
 20
27.5504150390625
 11
590
 21
27.5504150390625
  0
LINE
  8
0
  6
CONTINUOUS
 62
     7
 10
546
 20
10.99948120117188
 11
590
 21
10.99948120117188
  0
LINE
  8
0
  6
CONTINUOUS
 62
     7
 10
546
 20
-90.49783325195313
 11
590
 21
-90.49783325195313
  0
LINE
  8
0
  6
CONTINUOUS
 62
     7
 10
546
 20
-100.2507019042969
 11
590
 21
-100.2507019042969
  0
LINE
  8
0
  6
CONTINUOUS
 62
     7
 10
546
 20
-105.0988464355469
 11
590
 21
-105.0988464355469
  0
LINE
  8
0
  6
CONTINUOUS
 62
     7
 10
546
 20
-111.4677429199219
 11
590
 21
-111.4677429199219
  0
LINE
  8
0
  6
CONTINUOUS
 62
     7
 10
574.0090942382813
 20
-121.5299987792969
 11
574.135009765625
 21
-117.5
  0
LINE
  8
0
  6
CONTINUOUS
 62
     7
 10
583.990966796875
 20
-121.5299987792969
 11
583.8650512695313
 21
-117.5
  0
LINE
  8
0
  6
CONTINUOUS
 62
     3
 10
579
 20
-112.517951965332
 11
579
 21
-132.2556762695312
  0
LINE
  8
0
  6
CONTINUOUS
 62
     7
 10
574.009033203125
 20
-121.5299987792969
 11
583.990966796875
 21
-121.5299987792969
  0
LINE
  8
0
  6
CONTINUOUS
 62
     7
 10
583.5355224609375
 20
-128.5299987792969
 11
583.5355224609375
 21
-121.5299987792969
  0
LINE
  8
0
  6
CONTINUOUS
 62
     3
 10
579
 20
-121.5299911499023
 11
583.5355224609375
 21
-128.5299835205078
  0
LINE
  8
0
  6
CONTINUOUS
 62
     3
 10
579.0000610351562
 20
-128.5299987792969
 11
583.5355834960937
 21
-121.5299987792969
  0
LINE
  8
0
  6
CONTINUOUS
 62
     3
 10
574.4644775390625
 20
-121.5299682617188
 11
579.0000610351562
 21
-128.5299835205078
  0
LINE
  8
0
  6
CONTINUOUS
 62
     3
 10
574.4644775390625
 20
-128.5300140380859
 11
579
 21
-121.5300140380859
  0
LINE
  8
0
  6
CONTINUOUS
 62
     7
 10
574.4644775390625
 20
-128.5299987792969
 11
574.4644775390625
 21
-121.5299987792969
  0
LINE
  8
0
  6
CONTINUOUS
 62
     7
 10
574.4644775390625
 20
-128.5299987792969
 11
583.5355224609375
 21
-128.5299987792969
  0
LINE
  8
0
  6
CONTINUOUS
 62
     7
 10
450
 20
32.5
 11
450
 21
-32.5
  0
LINE
  8
0
  6
CONTINUOUS
 62
     7
 10
370
 20
-27.5
 11
450
 21
-27.5
  0
LINE
  8
0
  6
CONTINUOUS
 62
     7
 10
370
 20
27.5
 11
450
 21
27.5
  0
LINE
  8
0
  6
CONTINUOUS
 62
     7
 10
450
 20
-32.5
 11
453.0631713867187
 21
-32.5
  0
LINE
  8
0
  6
CONTINUOUS
 62
     7
 10
450
 20
32.5
 11
454.0924072265625
 21
32.5
  0
LINE
  8
0
  6
CONTINUOUS
 62
     7
 10
370
 20
27.5
 11
370
 21
-27.5
  0
LINE
  8
0
  6
CONTINUOUS
 62
     7
 10
370
 20
-8
 11
437
 21
-8
  0
LINE
  8
0
  6
CONTINUOUS
 62
     7
 10
450
 20
-149.9999694824219
 11
472
 21
-149.9999694824219
  0
LINE
  8
0
  6
CONTINUOUS
 62
     7
 10
472
 20
150
 11
472
 21
-149.9999694824219
  0
LINE
  8
0
  6
CONTINUOUS
 62
     7
 10
524
 20
-114.9999694824219
 11
542
 21
-114.9999694824219
  0
LINE
  8
0
  6
CONTINUOUS
 62
     7
 10
524
 20
-17.5
 11
524
 21
-114.9999694824219
  0
LINE
  8
0
  6
CONTINUOUS
 62
     7
 10
472.0000305175781
 20
-92.73438262939453
 11
524.0000610351562
 21
-71.45362854003906
  0
LINE
  8
0
  6
CONTINUOUS
 62
     7
 10
472
 20
-106.8765335083008
 11
524
 21
-85.59577178955078
  0
LINE
  8
0
  6
CONTINUOUS
 62
     7
 10
475.0956726074219
 20
-66.22222137451172
 11
509.6410217285156
 21
-51.99275970458984
  0
LINE
  8
0
  6
CONTINUOUS
 62
     7
 10
445
 20
-115
 11
450
 21
-115
  0
LINE
  8
0
  6
CONTINUOUS
 62
     7
 10
445
 20
-87.62200927734375
 11
445
 21
-115
  0
LINE
  8
0
  6
CONTINUOUS
 62
     7
 10
450
 20
-84.46197509765625
 11
450
 21
-149.9999694824219
  0
LINE
  8
0
  6
CONTINUOUS
 62
     7
 10
370
 20
8
 11
437
 21
8
  0
LINE
  8
0
  6
CONTINUOUS
 62
     7
 10
524
 20
115
 11
524
 21
17.5
  0
LINE
  8
0
  6
CONTINUOUS
 62
     7
 10
524
 20
115
 11
542
 21
115
  0
LINE
  8
0
  6
CONTINUOUS
 62
     7
 10
472
 20
17.5
 11
524
 21
17.5
  0
LINE
  8
0
  6
CONTINUOUS
 62
     7
 10
472
 20
-17.5
 11
524
 21
-17.5
  0
LINE
  8
0
  6
CONTINUOUS
 62
     7
 10
472.0000305175781
 20
106.8764877319336
 11
524
 21
85.59573364257812
  0
LINE
  8
0
  6
CONTINUOUS
 62
     7
 10
472
 20
92.73436737060547
 11
524
 21
71.45362091064453
  0
LINE
  8
0
  6
CONTINUOUS
 62
     7
 10
509.6409912109375
 20
51.9927978515625
 11
519
 21
51.9927978515625
  0
LINE
  8
0
  6
CONTINUOUS
 62
     7
 10
509.6409912109375
 20
-51.9927978515625
 11
519
 21
-51.9927978515625
  0
LINE
  8
0
  6
CONTINUOUS
 62
     7
 10
475.095703125
 20
66.22221374511719
 11
509.6409912109375
 21
51.99277114868164
  0
LINE
  8
0
  6
CONTINUOUS
 62
     7
 10
506.4852600097656
 20
1.031976125887013E-06
 11
498
 21
8.485281944274902
  0
LINE
  8
0
  6
CONTINUOUS
 62
     7
 10
498
 20
8.48528003692627
 11
489.5147399902344
 21
-6.334449267342279E-07
  0
LINE
  8
0
  6
CONTINUOUS
 62
     7
 10
497.9999694824219
 20
-8.48523998260498
 11
489.5147399902344
 21
-6.334449267342279E-07
  0
LINE
  8
0
  6
CONTINUOUS
 62
     7
 10
506.4852600097656
 20
1.745127701724414E-05
 11
498
 21
-8.485240936279297
  0
LINE
  8
0
  6
CONTINUOUS
 62
     3
 10
498
 20
15.72772216796875
 11
498
 21
-15.83087158203125
  0
LINE
  8
0
  6
CONTINUOUS
 62
     7
 10
450
 20
150
 11
472
 21
150
  0
LINE
  8
0
  6
CONTINUOUS
 62
     7
 10
450
 20
150
 11
450
 21
84.3685302734375
  0
LINE
  8
0
  6
CONTINUOUS
 62
     7
 10
445
 20
115
 11
445
 21
89.71722412109375
  0
LINE
  8
0
  6
CONTINUOUS
 62
     7
 10
445
 20
115
 11
450
 21
115
  0
LINE
  8
0
  6
CONTINUOUS
 62
     7
 10
433
 20
8
 11
433
 21
-8
  0
LINE
  8
0
  6
CONTINUOUS
 62
     7
 10
578.9991455078125
 20
-121.5299987792969
 11
578.9991455078125
 21
-128.5299987792969
  0
LINE
  8
0
  6
CONTINUOUS
 62
     7
 10
612.0000610351563
 20
-25
 11
612.0000610351563
 21
-115
  0
LINE
  8
0
  6
CONTINUOUS
 62
     7
 10
696.0000610351562
 20
-125
 11
714.0000610351562
 21
-125
  0
LINE
  8
0
  6
CONTINUOUS
 62
     7
 10
634.0000610351563
 20
-52.5
 11
691.0000610351562
 21
-52.5
  0
LINE
  8
0
  6
CONTINUOUS
 62
     7
 10
628.5826416015625
 20
-79.5
 11
696.0000610351562
 21
-79.5
  0
LINE
  8
0
  6
CONTINUOUS
 62
     7
 10
628.5826416015625
 20
79.5
 11
696.0000610351562
 21
79.5
  0
LINE
  8
0
  6
CONTINUOUS
 62
     7
 10
714.0000610351562
 20
125
 11
714.0000610351562
 21
-125
  0
LINE
  8
0
  6
CONTINUOUS
 62
     7
 10
683.6500854492188
 20
6
 11
696.0000610351562
 21
6
  0
LINE
  8
0
  6
CONTINUOUS
 62
     7
 10
594.0000610351563
 20
115
 11
612.0000610351563
 21
115
  0
LINE
  8
0
  6
CONTINUOUS
 62
     7
 10
594.0000610351563
 20
-115
 11
612.0000610351563
 21
-115
  0
LINE
  8
0
  6
CONTINUOUS
 62
     7
 10
634.0000610351563
 20
52.5
 11
691.0000610351562
 21
52.5
  0
LINE
  8
0
  6
CONTINUOUS
 62
     7
 10
696.0000610351562
 20
125
 11
696.0000610351562
 21
-125
  0
LINE
  8
0
  6
CONTINUOUS
 62
     7
 10
696.0000610351562
 20
125
 11
714.0000610351562
 21
125
  0
LINE
  8
0
  6
CONTINUOUS
 62
     7
 10
612.0000610351563
 20
115
 11
612.0000610351563
 21
25
  0
LINE
  8
0
  6
CONTINUOUS
 62
     7
 10
617.0000610351563
 20
82.5
 11
624.0000610351563
 21
82.5
  0
LINE
  8
0
  6
CONTINUOUS
 62
     7
 10
617.0000610351563
 20
-82.5
 11
624.0000610351563
 21
-82.5
  0
LINE
  8
0
  6
CONTINUOUS
 62
     7
 10
683.6500854492188
 20
-6
 11
696.0000610351562
 21
-6
  0
LINE
  8
0
  6
CONTINUOUS
 62
     7
 10
629.0000610351562
 20
77.5
 11
629.0000610351562
 21
23.51250076293945
  0
LINE
  8
0
  6
CONTINUOUS
 62
     7
 10
592.5000610351563
 20
4
 11
625.5000610351562
 21
4
  0
LINE
  8
0
  6
CONTINUOUS
 62
     7
 10
612.0000610351563
 20
-25
 11
664.0000610351563
 21
-20.45000076293945
  0
LINE
  8
0
  6
CONTINUOUS
 62
     7
 10
646.0000610351563
 20
13.96918773651123
 11
646.0000610351563
 21
-13.96747016906738
  0
LINE
  8
0
  6
CONTINUOUS
 62
     7
 10
683.6500854492188
 20
-8.071067810058594
 11
674.6500854492187
 21
-8.071067810058594
  0
LINE
  8
0
  6
CONTINUOUS
 62
     7
 10
612.0000610351563
 20
25
 11
664.0000610351563
 21
20.45000076293945
  0
LINE
  8
0
  6
CONTINUOUS
 62
     7
 10
674.6500854492187
 20
8.507563591003418
 11
669.0000610351562
 21
8.331002235412598
  0
LINE
  8
0
  6
CONTINUOUS
 62
     7
 10
592.5000610351563
 20
-4
 11
625.5000610351562
 21
-4
  0
LINE
  8
0
  6
CONTINUOUS
 62
     7
 10
683.6500854492188
 20
0
 11
674.6500854492187
 21
0
  0
LINE
  8
0
  6
CONTINUOUS
 62
     7
 10
683.6500854492188
 20
3.968488897498901E-07
 11
674.6500854492187
 21
8.071067810058594
  0
LINE
  8
0
  6
CONTINUOUS
 62
     7
 10
646.0000610351563
 20
-11.5
 11
669.0000610351562
 21
-11.5
  0
LINE
  8
0
  6
CONTINUOUS
 62
     7
 10
646.0000610351563
 20
11.5
 11
669.0000610351562
 21
11.5
  0
LINE
  8
0
  6
CONTINUOUS
 62
     7
 10
683.6500854492188
 20
8.071067810058594
 11
674.6500854492187
 21
-2.926320519236469E-07
  0
LINE
  8
0
  6
CONTINUOUS
 62
     7
 10
683.6500854492188
 20
8.071067810058594
 11
674.6500854492187
 21
8.071067810058594
  0
LINE
  8
0
  6
CONTINUOUS
 62
     7
 10
669.0000610351562
 20
11.5
 11
669.0000610351562
 21
-11.5
  0
LINE
  8
0
  6
CONTINUOUS
 62
     7
 10
683.6500854492188
 20
-8.071067810058594
 11
674.6500854492187
 21
-4.147679248944769E-07
  0
LINE
  8
0
  6
CONTINUOUS
 62
     7
 10
664.0000610351563
 20
20.45000076293945
 11
664.0000610351563
 21
11.5
  0
LINE
  8
0
  6
CONTINUOUS
 62
     7
 10
683.6500854492188
 20
1.345452687928628E-06
 11
674.6500854492187
 21
-8.071065902709961
  0
LINE
  8
0
  6
CONTINUOUS
 62
     7
 10
664.0000610351563
 20
-11.5
 11
664.0000610351563
 21
-20.45000076293945
  0
LINE
  8
0
  6
CONTINUOUS
 62
     7
 10
674.6500854492187
 20
-8.507564544677734
 11
674.6500854492187
 21
8.507560729980469
  0
LINE
  8
0
  6
CONTINUOUS
 62
     7
 10
674.6500854492187
 20
-8.507565498352051
 11
669.0000610351562
 21
-8.331002235412598
  0
LINE
  8
0
  6
CONTINUOUS
 62
     7
 10
683.6500854492188
 20
-8.071071624755859
 11
683.6500854492188
 21
8.071067810058594
  0
LINE
  8
0
  6
CONTINUOUS
 62
     7
 10
629.0000610351562
 20
-23.51250076293945
 11
629.0000610351562
 21
-77.5
  0
LINE
  8
0
  6
CONTINUOUS
 62
     7
 10
683.6500244140625
 20
-325.7710571289062
 11
674.6500244140625
 21
-317.7000122070312
  0
LINE
  8
0
  6
CONTINUOUS
 62
     7
 10
674.6500244140625
 20
-325.7710571289062
 11
683.6500244140625
 21
-317.6999816894531
  0
LINE
  8
0
  6
CONTINUOUS
 62
     7
 10
664
 20
-355
 11
664
 21
-422.3380432128906
  0
LINE
  8
0
  6
CONTINUOUS
 62
     7
 10
674.6500244140625
 20
-326.2075500488281
 11
674.6500244140625
 21
-309.1924438476562
  0
LINE
  8
0
  6
CONTINUOUS
 62
     7
 10
609
 20
-307.8382568359375
 11
609
 21
-361.0538330078125
  0
LINE
  8
0
  6
CONTINUOUS
 62
     7
 10
634.327880859375
 20
-427.7187194824219
 11
660.74609375
 21
-427.7187194824219
  0
LINE
  8
0
  6
CONTINUOUS
 62
     7
 10
634.8333129882813
 20
-317.7000122070312
 11
688.1666870117188
 21
-317.7000122070312
  0
LINE
  8
0
  6
CONTINUOUS
 62
     7
 10
609
 20
-355
 11
606.5
 21
-352.5
  0
LINE
  8
0
  6
CONTINUOUS
 62
     7
 10
661.5
 20
-329.2000122070312
 11
669
 21
-329.2000122070312
  0
LINE
  8
0
  6
CONTINUOUS
 62
     7
 10
634.5
 20
-329.2000122070312
 11
634.5
 21
-340.7000122070312
  0
LINE
  8
0
  6
CONTINUOUS
 62
     7
 10
618.05712890625
 20
-347.1527099609375
 11
619
 21
-352.5
  0
LINE
  8
0
  6
CONTINUOUS
 62
     7
 10
654.5
 20
-340.7000122070312
 11
654.5
 21
-355
  0
LINE
  8
0
  6
CONTINUOUS
 62
     7
 10
683.6500244140625
 20
-325.7710571289062
 11
674.6500244140625
 21
-325.7710571289062
  0
LINE
  8
0
  6
CONTINUOUS
 62
     7
 10
609
 20
-352.5
 11
611.5
 21
-355
  0
LINE
  8
0
  6
CONTINUOUS
 62
     7
 10
657.5
 20
-306.2000122070312
 11
669
 21
-306.2000122070312
  0
LINE
  8
0
  6
CONTINUOUS
 62
     7
 10
618.2000122070313
 20
-352.5
 11
618.2000122070313
 21
-355
  0
LINE
  8
0
  6
CONTINUOUS
 62
     7
 10
601.9124755859375
 20
-345.5
 11
616.0875244140625
 21
-345.5
  0
LINE
  8
0
  6
CONTINUOUS
 62
     7
 10
594
 20
-355
 11
664
 21
-355
  0
LINE
  8
0
  6
CONTINUOUS
 62
     7
 10
683.6500244140625
 20
-317.7000122070312
 11
674.6500244140625
 21
-317.7000122070312
  0
LINE
  8
0
  6
CONTINUOUS
 62
     7
 10
598.9974365234375
 20
-352.5
 11
619
 21
-352.5
  0
LINE
  8
0
  6
CONTINUOUS
 62
     7
 10
674.6500244140625
 20
-309.1924438476562
 11
669
 21
-309.3689880371094
  0
LINE
  8
0
  6
CONTINUOUS
 62
     7
 10
637.5
 20
-340.7000122070312
 11
637.5
 21
-355
  0
LINE
  8
0
  6
CONTINUOUS
 62
     7
 10
634.5
 20
-340.7000122070312
 11
657.5
 21
-340.7000122070312
  0
LINE
  8
0
  6
CONTINUOUS
 62
     7
 10
646
 20
-302.1345520019531
 11
646
 21
-361.2357177734375
  0
LINE
  8
0
  6
CONTINUOUS
 62
     7
 10
683.6500244140625
 20
-325.7710571289062
 11
683.6500244140625
 21
-309.6289367675781
  0
LINE
  8
0
  6
CONTINUOUS
 62
     7
 10
599.7999877929688
 20
-352.5
 11
599.7999877929688
 21
-355
  0
LINE
  8
0
  6
CONTINUOUS
 62
     7
 10
609.4141235351562
 20
-344.0433349609375
 11
616.5016479492187
 21
-345.5433349609375
  0
LINE
  8
0
  6
CONTINUOUS
 62
     7
 10
601.4983520507812
 20
-345.5433349609375
 11
608.5858764648437
 21
-344.0433349609375
  0
LINE
  8
0
  6
CONTINUOUS
 62
     7
 10
674.6500244140625
 20
-326.2075500488281
 11
669
 21
-326.031005859375
  0
LINE
  8
0
  6
CONTINUOUS
 62
     7
 10
599
 20
-352.5
 11
599.94287109375
 21
-347.1527099609375
  0
LINE
  8
0
  6
CONTINUOUS
 62
     7
 10
657.5
 20
-333.2000122070312
 11
657.5
 21
-340.7000122070312
  0
LINE
  8
0
  6
CONTINUOUS
 62
     7
 10
585.516845703125
 20
-331.5
 11
631.797607421875
 21
-331.5
  0
LINE
  8
0
  6
CONTINUOUS
 62
     7
 10
617
 20
-392.4084777832031
 11
624
 21
-392.4084777832031
  0
LINE
  8
0
  6
CONTINUOUS
 62
     7
 10
683.6500244140625
 20
-317.6999816894531
 11
674.6500244140625
 21
-309.6289367675781
  0
LINE
  8
0
  6
CONTINUOUS
 62
     7
 10
674.6500244140625
 20
-317.7000122070312
 11
683.6500244140625
 21
-309.6289367675781
  0
LINE
  8
0
  6
CONTINUOUS
 62
     7
 10
669
 20
-306.2000122070312
 11
669
 21
-329.2000122070312
  0
LINE
  8
0
  6
CONTINUOUS
 62
     7
 10
683.6500244140625
 20
-309.6289367675781
 11
674.6500244140625
 21
-309.6289367675781
  0
LINE
  8
0
  6
CONTINUOUS
 62
     7
 10
714
 20
-345
 11
714
 21
-595
  0
LINE
  8
0
  6
CONTINUOUS
 62
     7
 10
696
 20
-345
 11
696
 21
-595
  0
LINE
  8
0
  6
CONTINUOUS
 62
     7
 10
696
 20
-345
 11
714
 21
-345
  0
LINE
  8
0
  6
CONTINUOUS
 62
     7
 10
696
 20
-595
 11
714
 21
-595
  0
LINE
  8
0
  6
CONTINUOUS
 62
     7
 10
594
 20
-585
 11
612
 21
-585
  0
LINE
  8
0
  6
CONTINUOUS
 62
     7
 10
669
 20
-417.5
 11
691
 21
-417.5
  0
LINE
  8
0
  6
CONTINUOUS
 62
     7
 10
634
 20
-522.5
 11
691
 21
-522.5
  0
LINE
  8
0
  6
CONTINUOUS
 62
     7
 10
617
 20
-552.5
 11
624
 21
-552.5
  0
LINE
  8
0
  6
CONTINUOUS
 62
     7
 10
628.5825805664062
 20
-549.5
 11
696
 21
-549.5
  0
LINE
  8
0
  6
CONTINUOUS
 62
     7
 10
629
 20
-476
 11
696
 21
-476
  0
LINE
  8
0
  6
CONTINUOUS
 62
     7
 10
629
 20
-464
 11
696
 21
-464
  0
LINE
  8
0
  6
CONTINUOUS
 62
     7
 10
629
 20
-397.4084777832031
 11
629
 21
-547.5
  0
LINE
  8
0
  6
CONTINUOUS
 62
     7
 10
612
 20
-361.0549926757813
 11
612
 21
-585
  0
LINE
  8
0
  6
CONTINUOUS
 62
     7
 10
664
 20
-390.5
 11
696
 21
-390.5
  0
CIRCLE
  8
0
  6
CONTINUOUS
 62
     3
 10
579
 20
-470
 40
4.990937232971191
  0
ARC
  8
0
  6
CONTINUOUS
 62
     7
 10
477
 20
-540.8453979492187
 40
4.999999999999956
 50
112.3871086413541
 51
180.0000050089569
  0
ARC
  8
0
  6
CONTINUOUS
 62
     7
 10
519
 20
-526.9927978515625
 40
5
 50
0
 51
90.00000250447782
  0
ARC
  8
0
  6
CONTINUOUS
 62
     7
 10
519
 20
-413.0072326660156
 40
5.000000000000004
 50
269.9999974955222
 51
0
  0
ARC
  8
0
  6
CONTINUOUS
 62
     7
 10
477
 20
-350
 40
4.999999999999981
 50
179.9999776881996
 51
270.0000280040023
  0
ARC
  8
0
  6
CONTINUOUS
 62
     7
 10
477
 20
-399.1546020507812
 40
5
 50
179.999991348578
 51
247.6128808859912
  0
ARC
  8
0
  6
CONTINUOUS
 62
     7
 10
0
 20
-470
 40
115
 50
17.4935163607298
 51
2.506470877253908
  0
CIRCLE
  8
0
  6
CONTINUOUS
 62
     7
 10
103.40478515625
 20
-451.7669677734375
 40
17.5
  0
ARC
  8
0
  6
CONTINUOUS
 62
     7
 10
0
 20
-470
 40
107.5
 50
19.35118096590611
 51
0.6488233475505203
  0
ARC
  8
0
  6
CONTINUOUS
 62
     7
 10
0
 20
-470
 40
27.50000000000001
 50
106.9124114932652
 51
73.08759670341468
  0
CIRCLE
  8
0
  6
CONTINUOUS
 62
     7
 10
0
 20
-470
 40
150
  0
ARC
  8
0
  6
CONTINUOUS
 62
     3
 10
0
 20
-470
 40
132.5
 50
333.1091217659313
 51
342.2186338544365
  0
CIRCLE
  8
0
  6
CONTINUOUS
 62
     7
 10
122.4140625
 20
-520.70556640625
 40
7.5
  0
CIRCLE
  8
0
  6
CONTINUOUS
 62
     7
 10
122.4140625
 20
-419.2944641113281
 40
7.5
  0
ARC
  8
0
  6
CONTINUOUS
 62
     3
 10
0
 20
-470
 40
132.5
 50
18.10912301817034
 51
27.21863510667556
  0
CIRCLE
  8
0
  6
CONTINUOUS
 62
     7
 10
50.70556640625
 20
-347.5859680175781
 40
7.5
  0
ARC
  8
0
  6
CONTINUOUS
 62
     3
 10
0
 20
-470
 40
132.5
 50
63.10911744022025
 51
72.21863635891464
  0
CIRCLE
  8
0
  6
CONTINUOUS
 62
     7
 10
-50.70556640625
 20
-347.5859680175781
 40
7.5
  0
ARC
  8
0
  6
CONTINUOUS
 62
     3
 10
0
 20
-470
 40
132.5
 50
108.1091152773648
 51
117.2186410262483
  0
CIRCLE
  8
0
  6
CONTINUOUS
 62
     7
 10
-122.4140625
 20
-419.2944641113281
 40
7.5
  0
ARC
  8
0
  6
CONTINUOUS
 62
     3
 10
0
 20
-470
 40
132.5
 50
153.1091131145093
 51
162.2186320332036
  0
CIRCLE
  8
0
  6
CONTINUOUS
 62
     7
 10
-122.4140625
 20
-520.70556640625
 40
7.5
  0
ARC
  8
0
  6
CONTINUOUS
 62
     3
 10
0
 20
-470
 40
132.5
 50
198.1091350846869
 51
207.218640343003
  0
CIRCLE
  8
0
  6
CONTINUOUS
 62
     7
 10
-50.70556640625
 20
-592.4140625
 40
7.5
  0
ARC
  8
0
  6
CONTINUOUS
 62
     3
 10
0
 20
-470
 40
132.5
 50
243.1091260916423
 51
252.2186381801475
  0
CIRCLE
  8
0
  6
CONTINUOUS
 62
     7
 10
50.70556640625
 20
-592.4140625
 40
7.5
  0
ARC
  8
0
  6
CONTINUOUS
 62
     3
 10
0
 20
-470
 40
132.5
 50
288.1091239287867
 51
297.218636017292
  0
CIRCLE
  8
0
  6
CONTINUOUS
 62
     7
 10
0
 20
-470
 40
55
  0
CIRCLE
  8
0
  6
CONTINUOUS
 62
     7
 10
0
 20
-470
 40
87.5
  0
CIRCLE
  8
0
  6
CONTINUOUS
 62
     7
 10
498
 20
0
 40
13.5
  0
ARC
  8
0
  6
CONTINUOUS
 62
     7
 10
437
 20
0
 40
8
 50
270.0000179860895
 51
89.99998201391055
  0
ARC
  8
0
  6
CONTINUOUS
 62
     7
 10
477
 20
-70.84539794921875
 40
4.999999999999996
 50
112.3871086413539
 51
180.0000050089563
  0
ARC
  8
0
  6
CONTINUOUS
 62
     7
 10
477
 20
70.84539794921875
 40
5
 50
179.999991348578
 51
247.6128808859913
  0
ARC
  8
0
  6
CONTINUOUS
 62
     7
 10
519
 20
56.9927978515625
 40
4.999999999999997
 50
269.9999974955222
 51
0
  0
ARC
  8
0
  6
CONTINUOUS
 62
     7
 10
519
 20
-56.9927978515625
 40
5
 50
0
 51
90.00000250447782
  0
ARC
  8
0
  6
CONTINUOUS
 62
     7
 10
634.0000610351563
 20
-57.5
 40
4.999999999999997
 50
90.00000250447782
 51
180.0000050089563
  0
ARC
  8
0
  6
CONTINUOUS
 62
     7
 10
617.0000610351563
 20
87.5
 40
4.999999999999943
 50
179.999991348578
 51
270.0000006832456
  0
ARC
  8
0
  6
CONTINUOUS
 62
     7
 10
634.0000610351563
 20
57.5
 40
4.999999999999943
 50
179.999991348578
 51
270.0000006832456
  0
ARC
  8
0
  6
CONTINUOUS
 62
     7
 10
624.0000610351563
 20
-77.5
 40
5.000000000000004
 50
269.9999974955222
 51
0
  0
ARC
  8
0
  6
CONTINUOUS
 62
     7
 10
691.0000610351562
 20
-57.5
 40
5
 50
0
 51
90.00000250447782
  0
ARC
  8
0
  6
CONTINUOUS
 62
     7
 10
617.0000610351563
 20
-87.5
 40
5.000000000000004
 50
90.00000250447782
 51
180.0000050089563
  0
ARC
  8
0
  6
CONTINUOUS
 62
     7
 10
624.0000610351563
 20
77.5
 40
5
 50
0
 51
90.00000250447782
  0
ARC
  8
0
  6
CONTINUOUS
 62
     7
 10
691.0000610351562
 20
57.5
 40
4.999999999999997
 50
269.9999974955222
 51
0
  0
ARC
  8
0
  6
CONTINUOUS
 62
     7
 10
609.0000610351563
 20
0
 40
10.00000000000001
 50
203.5781631757645
 51
336.4218232775426
  0
ARC
  8
0
  6
CONTINUOUS
 62
     7
 10
625.5000610351562
 20
0
 40
4
 50
270.0000179860891
 51
89.99998201391097
  0
ARC
  8
0
  6
CONTINUOUS
 62
     7
 10
592.5000610351563
 20
0
 40
4
 50
89.99998201391097
 51
270.0000006832446
  0
ARC
  8
0
  6
CONTINUOUS
 62
     7
 10
609.0000610351563
 20
0
 40
9.999999999999986
 50
23.57817672245736
 51
156.4218368242355
  0
ARC
  8
0
  6
CONTINUOUS
 62
     7
 10
646.0000610351563
 20
0
 40
11.5
 50
89.99998201391082
 51
270.0000006832452
  0
ARC
  8
0
  6
CONTINUOUS
 62
     7
 10
624
 20
-397.4084777832031
 40
5
 50
0
 51
90.00000250447782
  0
ARC
  8
0
  6
CONTINUOUS
 62
     7
 10
609
 20
-331.5
 40
20.49999999999999
 50
304.6066501519143
 51
235.3933172910016
  0
ARC
  8
0
  6
CONTINUOUS
 62
     7
 10
669
 20
-412.5
 40
5.00000000000002
 50
180.0000050089563
 51
270.0000006832456
  0
ARC
  8
0
  6
CONTINUOUS
 62
     7
 10
617
 20
-387.4084777832031
 40
5.00000000000002
 50
180.0000050089563
 51
270.0000006832456
  0
CIRCLE
  8
0
  6
CONTINUOUS
 62
     7
 10
609
 20
-331.5
 40
12.5
  0
ARC
  8
0
  6
CONTINUOUS
 62
     7
 10
601.9124755859375
 20
-347.5
 40
1.999999999999985
 50
89.99998201391097
 51
170.0000206677889
  0
ARC
  8
0
  6
CONTINUOUS
 62
     7
 10
622.9144897460938
 20
-351.6652221679687
 40
3.999999999999996
 50
124.6066790665321
 51
192.0457812707042
  0
ARC
  8
0
  6
CONTINUOUS
 62
     7
 10
616.0875244140625
 20
-347.5
 40
1.999999999999958
 50
9.999999709093608
 51
89.99998201391097
  0
ARC
  8
0
  6
CONTINUOUS
 62
     7
 10
595.0855102539063
 20
-351.6652221679687
 40
4.000000000000036
 50
347.9541887335329
 51
55.39334301789676
  0
ARC
  8
0
  6
CONTINUOUS
 62
     7
 10
657.5
 20
-329.2000122070312
 40
23
 50
89.99998201391054
 51
179.9999640278214
  0
ARC
  8
0
  6
CONTINUOUS
 62
     7
 10
661.5
 20
-333.2000122070312
 40
4.000000000000027
 50
89.99998201391097
 51
179.9999640278211
  0
ARC
  8
0
  6
CONTINUOUS
 62
     7
 10
691
 20
-412.5
 40
5.000000000000004
 50
269.9999974955222
 51
0
  0
ARC
  8
0
  6
CONTINUOUS
 62
     7
 10
634
 20
-527.5
 40
5.000000000000004
 50
90.00000250447782
 51
180.0000050089569
  0
ARC
  8
0
  6
CONTINUOUS
 62
     7
 10
691
 20
-527.5
 40
5
 50
0
 51
90.00000250447782
  0
ARC
  8
0
  6
CONTINUOUS
 62
     7
 10
617
 20
-557.5
 40
5.000000000000004
 50
90.00000250447782
 51
180.0000050089569
  0
ARC
  8
0
  6
CONTINUOUS
 62
     7
 10
624
 20
-547.5
 40
5.000000000000004
 50
269.9999974955222
 51
0
  0
POLYLINE
  8
0
  6
CONTINUOUS
 62
     7
 66
     1
 10
0
 20
0
  0
VERTEX
  8
0
  6
CONTINUOUS
 62
     7
 10
445.0001883536578
 20
-376.1374161461115
 42
-0.1118161002819238
  0
VERTEX
  8
0
  6
CONTINUOUS
 62
     7
 10
455.1106866963199
 20
-393.5536268295563
 42
-0.08596980647430585
  0
VERTEX
  8
0
  6
CONTINUOUS
 62
     7
 10
456.6158599746913
 20
-413.7021839421958
 42
-0.007747721085386948
  0
VERTEX
  8
0
  6
CONTINUOUS
 62
     7
 10
454.4986550742172
 20
-433.8967952868367
 42
0.02883927163985713
  0
VERTEX
  8
0
  6
CONTINUOUS
 62
     7
 10
453.7204806341159
 20
-454.1776760146022
 42
0.006667274953186099
  0
VERTEX
  8
0
  6
CONTINUOUS
 62
     7
 10
454.4085292358532
 20
-474.4734853926512
 42
-0.01896134059030933
  0
VERTEX
  8
0
  6
CONTINUOUS
 62
     7
 10
454.6102536572848
 20
-494.7745988644858
 42
-0.008219133847261972
  0
VERTEX
  8
0
  6
CONTINUOUS
 62
     7
 10
453.3469608309111
 20
-515.0407675310169
 42
0.006667848869455234
  0
VERTEX
  8
0
  6
CONTINUOUS
 62
     7
 10
452.3231894554539
 20
-535.3205066167653
 42
-0.2065624691022773
  0
VERTEX
  8
0
  6
CONTINUOUS
 62
     7
 10
444.9987292469303
 20
-553.6436727620276
 42
0
  0
SEQEND
  8
0
  0
POLYLINE
  8
0
  6
CONTINUOUS
 62
     7
 66
     1
 10
0
 20
0
  0
VERTEX
  8
0
  6
CONTINUOUS
 62
     7
 10
444.9996047970151
 20
89.71698401920719
 42
-0.1416855249114747
  0
VERTEX
  8
0
  6
CONTINUOUS
 62
     7
 10
456.1209201189102
 20
72.68218151681509
 42
-0.09589420179217448
  0
VERTEX
  8
0
  6
CONTINUOUS
 62
     7
 10
455.8883718043126
 20
52.19735530028854
 42
0.03876989681956848
  0
VERTEX
  8
0
  6
CONTINUOUS
 62
     7
 10
454.0793495768826
 20
31.67436914802997
 42
0.0129263623393716
  0
VERTEX
  8
0
  6
CONTINUOUS
 62
     7
 10
454.5803281366653
 20
11.0604167840977
 42
-0.0251376900448609
  0
VERTEX
  8
0
  6
CONTINUOUS
 62
     7
 10
454.5908695879533
 20
-9.552622178305283
 42
0.001255249837147646
  0
VERTEX
  8
0
  6
CONTINUOUS
 62
     7
 10
453.1697570676328
 20
-30.12400406076376
 42
0.03980512985313922
  0
VERTEX
  8
0
  6
CONTINUOUS
 62
     7
 10
453.566077355443
 20
-50.71985961451315
 42
-0.03400599025303463
  0
VERTEX
  8
0
  6
CONTINUOUS
 62
     7
 10
455.3522792468586
 20
-71.24171898250503
 42
-0.3224821186917397
  0
VERTEX
  8
0
  6
CONTINUOUS
 62
     7
 10
445.0005433701107
 20
-87.62178156421797
 42
0
  0
SEQEND
  8
0
  0
TEXT
  8
0
  6
CONTINUOUS
 62
     7
 10
-160.7142906188965
 20
-15
 40
30
 41
0.9992598380449522
  1
ERKV-D-2200
  0
ENDSEC
  0
EOF
